  0
SECTION
  2
HEADER
  9
$ACADVER
  1
AC1014
  9
$ACADMAINTVER
 70
     9
  9
$DWGCODEPAGE
  3
ANSI_1252
  9
$INSBASE
 10
0.0
 20
0.0
 30
0.0
  9
$EXTMIN
 10
-0.0000000000000029
 20
-0.000000000000002
 30
0.0
  9
$EXTMAX
 10
179.0
 20
57.0
 30
0.0
  9
$LIMMIN
 10
0.0
 20
0.0
  9
$LIMMAX
 10
12.0
 20
9.0
  9
$ORTHOMODE
 70
     0
  9
$REGENMODE
 70
     1
  9
$FILLMODE
 70
     1
  9
$QTEXTMODE
 70
     0
  9
$MIRRTEXT
 70
     1
  9
$DRAGMODE
 70
     2
  9
$LTSCALE
 40
1.0
  9
$OSMODE
 70
    37
  9
$ATTMODE
 70
     1
  9
$TEXTSIZE
 40
0.2
  9
$TRACEWID
 40
0.05
  9
$TEXTSTYLE
  7
STANDARD
  9
$CLAYER
  8
0
  9
$CELTYPE
  6
CONTINUOUS
  9
$CECOLOR
 62
   256
  9
$CELTSCALE
 40
1.0
  9
$DELOBJ
 70
     1
  9
$DISPSILH
 70
     0
  9
$DIMSCALE
 40
1.0
  9
$DIMASZ
 40
0.18
  9
$DIMEXO
 40
0.0625
  9
$DIMDLI
 40
0.38
  9
$DIMRND
 40
0.0
  9
$DIMDLE
 40
0.0
  9
$DIMEXE
 40
0.18
  9
$DIMTP
 40
0.0
  9
$DIMTM
 40
0.0
  9
$DIMTXT
 40
0.18
  9
$DIMCEN
 40
0.09
  9
$DIMTSZ
 40
0.0
  9
$DIMTOL
 70
     0
  9
$DIMLIM
 70
     0
  9
$DIMTIH
 70
     1
  9
$DIMTOH
 70
     1
  9
$DIMSE1
 70
     0
  9
$DIMSE2
 70
     0
  9
$DIMTAD
 70
     0
  9
$DIMZIN
 70
     0
  9
$DIMBLK
  1

  9
$DIMASO
 70
     1
  9
$DIMSHO
 70
     1
  9
$DIMPOST
  1

  9
$DIMAPOST
  1

  9
$DIMALT
 70
     0
  9
$DIMALTD
 70
     2
  9
$DIMALTF
 40
25.4
  9
$DIMLFAC
 40
1.0
  9
$DIMTOFL
 70
     0
  9
$DIMTVP
 40
0.0
  9
$DIMTIX
 70
     0
  9
$DIMSOXD
 70
     0
  9
$DIMSAH
 70
     0
  9
$DIMBLK1
  1

  9
$DIMBLK2
  1

  9
$DIMSTYLE
  2
STANDARD
  9
$DIMCLRD
 70
     0
  9
$DIMCLRE
 70
     0
  9
$DIMCLRT
 70
     0
  9
$DIMTFAC
 40
1.0
  9
$DIMGAP
 40
0.09
  9
$DIMJUST
 70
     0
  9
$DIMSD1
 70
     0
  9
$DIMSD2
 70
     0
  9
$DIMTOLJ
 70
     1
  9
$DIMTZIN
 70
     0
  9
$DIMALTZ
 70
     0
  9
$DIMALTTZ
 70
     0
  9
$DIMFIT
 70
     3
  9
$DIMUPT
 70
     0
  9
$DIMUNIT
 70
     2
  9
$DIMDEC
 70
     4
  9
$DIMTDEC
 70
     4
  9
$DIMALTU
 70
     2
  9
$DIMALTTD
 70
     2
  9
$DIMTXSTY
  7
STANDARD
  9
$DIMAUNIT
 70
     0
  9
$LUNITS
 70
     2
  9
$LUPREC
 70
     4
  9
$SKETCHINC
 40
0.1
  9
$FILLETRAD
 40
0.0
  9
$AUNITS
 70
     0
  9
$AUPREC
 70
     0
  9
$MENU
  1
.
  9
$ELEVATION
 40
0.0
  9
$PELEVATION
 40
0.0
  9
$THICKNESS
 40
0.0
  9
$LIMCHECK
 70
     0
  9
$BLIPMODE
 70
     0
  9
$CHAMFERA
 40
0.0
  9
$CHAMFERB
 40
0.0
  9
$CHAMFERC
 40
0.0
  9
$CHAMFERD
 40
0.0
  9
$SKPOLY
 70
     0
  9
$TDCREATE
 40
2454690.850738380
  9
$TDUPDATE
 40
2454690.852271771
  9
$TDINDWG
 40
0.0015335648
  9
$TDUSRTIMER
 40
0.0015335648
  9
$USRTIMER
 70
     1
  9
$ANGBASE
 50
0.0
  9
$ANGDIR
 70
     0
  9
$PDMODE
 70
     0
  9
$PDSIZE
 40
0.0
  9
$PLINEWID
 40
0.0
  9
$COORDS
 70
     1
  9
$SPLFRAME
 70
     0
  9
$SPLINETYPE
 70
     6
  9
$SPLINESEGS
 70
     8
  9
$ATTDIA
 70
     0
  9
$ATTREQ
 70
     1
  9
$HANDLING
 70
 22529
  9
$HANDSEED
  5
5D1
  9
$SURFTAB1
 70
     6
  9
$SURFTAB2
 70
     6
  9
$SURFTYPE
 70
     6
  9
$SURFU
 70
     6
  9
$SURFV
 70
     6
  9
$UCSNAME
  2

  9
$UCSORG
 10
0.0
 20
0.0
 30
0.0
  9
$UCSXDIR
 10
1.0
 20
0.0
 30
0.0
  9
$UCSYDIR
 10
0.0
 20
1.0
 30
0.0
  9
$PUCSNAME
  2

  9
$PUCSORG
 10
0.0
 20
0.0
 30
0.0
  9
$PUCSXDIR
 10
1.0
 20
0.0
 30
0.0
  9
$PUCSYDIR
 10
0.0
 20
1.0
 30
0.0
  9
$USERI1
 70
     0
  9
$USERI2
 70
     0
  9
$USERI3
 70
     0
  9
$USERI4
 70
     0
  9
$USERI5
 70
     0
  9
$USERR1
 40
0.0
  9
$USERR2
 40
0.0
  9
$USERR3
 40
0.0
  9
$USERR4
 40
0.0
  9
$USERR5
 40
0.0
  9
$WORLDVIEW
 70
     1
  9
$SHADEDGE
 70
     3
  9
$SHADEDIF
 70
    70
  9
$TILEMODE
 70
     1
  9
$MAXACTVP
 70
    64
  9
$PINSBASE
 10
0.0
 20
0.0
 30
0.0
  9
$PLIMCHECK
 70
     0
  9
$PEXTMIN
 10
1.000000000000000E+20
 20
1.000000000000000E+20
 30
1.000000000000000E+20
  9
$PEXTMAX
 10
-1.000000000000000E+20
 20
-1.000000000000000E+20
 30
-1.000000000000000E+20
  9
$PLIMMIN
 10
0.0
 20
0.0
  9
$PLIMMAX
 10
12.0
 20
9.0
  9
$UNITMODE
 70
     0
  9
$VISRETAIN
 70
     1
  9
$PLINEGEN
 70
     0
  9
$PSLTSCALE
 70
     1
  9
$TREEDEPTH
 70
  3020
  9
$PICKSTYLE
 70
     1
  9
$CMLSTYLE
  2
STANDARD
  9
$CMLJUST
 70
     0
  9
$CMLSCALE
 40
1.0
  9
$PROXYGRAPHICS
 70
     1
  9
$MEASUREMENT
 70
     0
  0
ENDSEC
  0
SECTION
  2
CLASSES
  0
CLASS
  1
ACDBDICTIONARYWDFLT
  2
AcDbDictionaryWithDefault
  3
AutoCAD 2000
 90
        0
280
     0
281
     0
  0
CLASS
  1
ACDBPLACEHOLDER
  2
AcDbPlaceHolder
  3
AutoCAD 2000
 90
        0
280
     0
281
     0
  0
CLASS
  1
LAYOUT
  2
AcDbLayout
  3
AutoCAD 2000
 90
        0
280
     0
281
     0
  0
CLASS
  1
DICTIONARYVAR
  2
AcDbDictionaryVar
  3
AutoCAD 2000
 90
        0
280
     0
281
     0
  0
CLASS
  1
LONG_TRANSACTION
  2
AcDbLongTransaction
  3
AutoCAD 2000
 90
        0
280
     0
281
     0
  0
CLASS
  1
LWPOLYLINE
  2
AcDbPolyline
  3
AutoCAD 2000
 90
        0
280
     0
281
     1
  0
CLASS
  1
HATCH
  2
AcDbHatch
  3
AutoCAD 2000
 90
        0
280
     0
281
     1
  0
CLASS
  1
XRECORD
  2
AcDbXrecord
  3
AutoCAD 2000
 90
        0
280
     0
281
     0
  0
ENDSEC
  0
SECTION
  2
TABLES
  0
TABLE
  2
VPORT
  5
8
330
0
100
AcDbSymbolTable
 70
     2
  0
VPORT
  5
5AC
330
8
100
AcDbSymbolTableRecord
100
AcDbViewportTableRecord
  2
*ACTIVE
 70
     0
 10
0.0
 20
0.0
 11
1.0
 21
1.0
 12
89.50000000000001
 22
28.49999999999999
 13
0.0
 23
0.0
 14
1.0
 24
1.0
 15
0.0
 25
0.0
 16
0.0
 26
0.0
 36
1.0
 17
0.0
 27
0.0
 37
0.0
 40
87.92245053774072
 41
2.043533930857874
 42
50.0
 43
0.0
 44
0.0
 50
0.0
 51
0.0
 71
     0
 72
   100
 73
     1
 74
     3
 75
     0
 76
     0
 77
     0
 78
     0
  0
ENDTAB
  0
TABLE
  2
LTYPE
  5
5
330
0
100
AcDbSymbolTable
 70
     1
  0
LTYPE
  5
13
330
5
100
AcDbSymbolTableRecord
100
AcDbLinetypeTableRecord
  2
BYBLOCK
 70
     0
  3

 72
    65
 73
     0
 40
0.0
  0
LTYPE
  5
14
330
5
100
AcDbSymbolTableRecord
100
AcDbLinetypeTableRecord
  2
BYLAYER
 70
     0
  3

 72
    65
 73
     0
 40
0.0
  0
LTYPE
  5
15
330
5
100
AcDbSymbolTableRecord
100
AcDbLinetypeTableRecord
  2
CONTINUOUS
 70
     0
  3
Solid line
 72
    65
 73
     0
 40
0.0
  0
ENDTAB
  0
TABLE
  2
LAYER
  5
2
330
0
100
AcDbSymbolTable
 70
     1
  0
LAYER
  5
10
330
2
100
AcDbSymbolTableRecord
100
AcDbLayerTableRecord
  2
0
 70
     0
 62
     7
  6
CONTINUOUS
  0
ENDTAB
  0
TABLE
  2
STYLE
  5
3
330
0
100
AcDbSymbolTable
 70
     1
  0
STYLE
  5
11
330
3
100
AcDbSymbolTableRecord
100
AcDbTextStyleTableRecord
  2
STANDARD
 70
     0
 40
0.0
 41
1.0
 50
0.0
 71
     0
 42
0.2
  3
txt
  4

  0
ENDTAB
  0
TABLE
  2
VIEW
  5
6
330
0
100
AcDbSymbolTable
 70
     0
  0
ENDTAB
  0
TABLE
  2
UCS
  5
7
330
0
100
AcDbSymbolTable
 70
     0
  0
ENDTAB
  0
TABLE
  2
APPID
  5
9
330
0
100
AcDbSymbolTable
 70
     1
  0
APPID
  5
12
330
9
100
AcDbSymbolTableRecord
100
AcDbRegAppTableRecord
  2
ACAD
 70
     0
  0
ENDTAB
  0
TABLE
  2
DIMSTYLE
  5
A
330
0
100
AcDbSymbolTable
 70
     1
  0
DIMSTYLE
105
5A6
330
A
100
AcDbSymbolTableRecord
100
AcDbDimStyleTableRecord
  2
STANDARD
 70
     0
  3

  4

  5

  6

  7

 40
1.0
 41
0.18
 42
0.0625
 43
0.38
 44
0.18
 45
0.0
 46
0.0
 47
0.0
 48
0.0
140
0.18
141
0.09
142
0.0
143
25.4
144
1.0
145
0.0
146
1.0
147
0.09
 71
     0
 72
     0
 73
     1
 74
     1
 75
     0
 76
     0
 77
     0
 78
     0
170
     0
171
     2
172
     0
173
     0
174
     0
175
     0
176
     0
177
     0
178
     0
270
     2
271
     4
272
     4
273
     2
274
     2
340
11
275
     0
280
     0
281
     0
282
     0
283
     1
284
     0
285
     0
286
     0
287
     3
288
     0
  0
ENDTAB
  0
TABLE
  2
BLOCK_RECORD
  5
1
330
0
100
AcDbSymbolTable
 70
     0
  0
BLOCK_RECORD
  5
1E
102
{ACAD_XDICTIONARY
360
5CF
102
}
330
1
100
AcDbSymbolTableRecord
100
AcDbBlockTableRecord
  2
*MODEL_SPACE
  0
BLOCK_RECORD
  5
1A
102
{ACAD_XDICTIONARY
360
5CD
102
}
330
1
100
AcDbSymbolTableRecord
100
AcDbBlockTableRecord
  2
*PAPER_SPACE
  0
ENDTAB
  0
ENDSEC
  0
SECTION
  2
BLOCKS
  0
BLOCK
  5
1F
330
1E
100
AcDbEntity
  8
0
100
AcDbBlockBegin
  2
*MODEL_SPACE
 70
     0
 10
0.0
 20
0.0
 30
0.0
  3
*MODEL_SPACE
  1

  0
ENDBLK
  5
20
330
1E
100
AcDbEntity
  8
0
100
AcDbBlockEnd
  0
BLOCK
  5
1B
330
1A
100
AcDbEntity
 67
     1
  8
0
100
AcDbBlockBegin
  2
*PAPER_SPACE
 70
     0
 10
0.0
 20
0.0
 30
0.0
  3
*PAPER_SPACE
  1

  0
ENDBLK
  5
1C
330
1A
100
AcDbEntity
 67
     1
  8
0
100
AcDbBlockEnd
  0
ENDSEC
  0
SECTION
  2
ENTITIES
  0
LINE
  5
22
330
1E
100
AcDbEntity
  8
0
100
AcDbLine
 10
-0.0000000000000029
 20
3.0
 30
0.0
 11
0.894999999999997
 21
3.0
 31
0.0
  0
LINE
  5
23
330
1E
100
AcDbEntity
  8
0
100
AcDbLine
 10
-0.0000000000000029
 20
3.0
 30
0.0
 11
0.745832999999997
 21
2.0
 31
0.0
  0
LINE
  5
24
330
1E
100
AcDbEntity
  8
0
100
AcDbLine
 10
-0.0000000000000029
 20
16.0
 30
0.0
 11
0.894999999999997
 21
16.0
 31
0.0
  0
LINE
  5
25
330
1E
100
AcDbEntity
  8
0
100
AcDbLine
 10
-0.0000000000000029
 20
16.0
 30
0.0
 11
0.745832999999997
 21
17.0
 31
0.0
  0
LINE
  5
26
330
1E
100
AcDbEntity
  8
0
100
AcDbLine
 10
0.745832999999997
 20
17.0
 30
0.0
 11
1.64083
 21
17.0
 31
0.0
  0
LINE
  5
27
330
1E
100
AcDbEntity
  8
0
100
AcDbLine
 10
-0.0000000000000029
 20
16.0
 30
0.0
 11
-0.0000000000000029
 21
3.0
 31
0.0
  0
LINE
  5
28
330
1E
100
AcDbEntity
  8
0
100
AcDbLine
 10
-0.0000000000000029
 20
16.0
 30
0.0
 11
0.894999999999997
 21
16.0
 31
0.0
  0
LINE
  5
29
330
1E
100
AcDbEntity
  8
0
100
AcDbLine
 10
-0.0000000000000029
 20
16.0
 30
0.0
 11
0.745832999999997
 21
17.0
 31
0.0
  0
LINE
  5
2A
330
1E
100
AcDbEntity
  8
0
100
AcDbLine
 10
-0.0000000000000029
 20
3.0
 30
0.0
 11
0.745832999999997
 21
2.0
 31
0.0
  0
LINE
  5
2B
330
1E
100
AcDbEntity
  8
0
100
AcDbLine
 10
-0.0000000000000029
 20
3.0
 30
0.0
 11
0.894999999999997
 21
3.0
 31
0.0
  0
LINE
  5
2C
330
1E
100
AcDbEntity
  8
0
100
AcDbLine
 10
-0.0000000000000029
 20
3.0
 30
0.0
 11
-0.0000000000000029
 21
16.0
 31
0.0
  0
LINE
  5
2D
330
1E
100
AcDbEntity
  8
0
100
AcDbLine
 10
18.0769
 20
0.0000000000000007
 30
0.0
 11
18.8227
 21
0.0000000000000007
 31
0.0
  0
LINE
  5
2E
330
1E
100
AcDbEntity
  8
0
100
AcDbLine
 10
18.0769
 20
0.0000000000000007
 30
0.0
 11
18.0769
 21
2.0
 31
0.0
  0
LINE
  5
2F
330
1E
100
AcDbEntity
  8
0
100
AcDbLine
 10
18.0769
 20
0.0000000000000007
 30
0.0
 11
19.3688
 21
0.0000000000000008
 31
0.0
  0
LINE
  5
30
330
1E
100
AcDbEntity
  8
0
100
AcDbLine
 10
19.3688
 20
0.0000000000000008
 30
0.0
 11
20.1146
 21
0.0000000000000007
 31
0.0
  0
LINE
  5
31
330
1E
100
AcDbEntity
  8
0
100
AcDbLine
 10
18.8227
 20
0.0000000000000007
 30
0.0
 11
20.1146
 21
0.0000000000000007
 31
0.0
  0
LINE
  5
32
330
1E
100
AcDbEntity
  8
0
100
AcDbLine
 10
11.5016
 20
0.000000000000002
 30
0.0
 11
11.8877
 21
0.0000000000000019
 31
0.0
  0
LINE
  5
33
330
1E
100
AcDbEntity
  8
0
100
AcDbLine
 10
10.0608
 20
0.000000000000002
 30
0.0
 11
10.44689999999999
 21
0.0000000000000019
 31
0.0
  0
LINE
  5
34
330
1E
100
AcDbEntity
  8
0
100
AcDbLine
 10
10.0608
 20
0.000000000000002
 30
0.0
 11
10.0608
 21
2.0
 31
0.0
  0
LINE
  5
35
330
1E
100
AcDbEntity
  8
0
100
AcDbLine
 10
10.0608
 20
0.000000000000002
 30
0.0
 11
11.5016
 21
0.000000000000002
 31
0.0
  0
LINE
  5
36
330
1E
100
AcDbEntity
  8
0
100
AcDbLine
 10
10.44689999999999
 20
0.0000000000000019
 30
0.0
 11
11.8877
 21
0.0000000000000019
 31
0.0
  0
LINE
  5
37
330
1E
100
AcDbEntity
  8
0
100
AcDbLine
 10
7.45833
 20
0.0000000000000032
 30
0.0
 11
7.45833
 21
2.0
 31
0.0
  0
LINE
  5
38
330
1E
100
AcDbEntity
  8
0
100
AcDbLine
 10
7.45833
 20
0.0000000000000032
 30
0.0
 11
8.949999999999999
 21
0.0000000000000032
 31
0.0
  0
LINE
  5
39
330
1E
100
AcDbEntity
  8
0
100
AcDbLine
 10
27.76559999999999
 20
0.0000000000000011
 30
0.0
 11
28.5114
 21
0.000000000000001
 31
0.0
  0
LINE
  5
3A
330
1E
100
AcDbEntity
  8
0
100
AcDbLine
 10
27.76559999999999
 20
0.0000000000000011
 30
0.0
 11
27.76559999999999
 21
2.0
 31
0.0
  0
LINE
  5
3B
330
1E
100
AcDbEntity
  8
0
100
AcDbLine
 10
27.76559999999999
 20
0.0000000000000011
 30
0.0
 11
29.0574
 21
0.0000000000000011
 31
0.0
  0
LINE
  5
3C
330
1E
100
AcDbEntity
  8
0
100
AcDbLine
 10
30.9604
 20
-0.0000000000000003
 30
0.0
 11
32.0152
 21
-0.0000000000000004
 31
0.0
  0
LINE
  5
3D
330
1E
100
AcDbEntity
  8
0
100
AcDbLine
 10
30.9604
 20
-0.0000000000000003
 30
0.0
 11
32.0152
 21
-0.0000000000000002
 31
0.0
  0
LINE
  5
3E
330
1E
100
AcDbEntity
  8
0
100
AcDbLine
 10
29.0574
 20
0.0000000000000011
 30
0.0
 11
29.8032
 21
0.000000000000001
 31
0.0
  0
LINE
  5
3F
330
1E
100
AcDbEntity
  8
0
100
AcDbLine
 10
28.5114
 20
0.000000000000001
 30
0.0
 11
29.8032
 21
0.000000000000001
 31
0.0
  0
LINE
  5
40
330
1E
100
AcDbEntity
  8
0
100
AcDbLine
 10
22.3079
 20
0.0000000000000022
 30
0.0
 11
22.694
 21
0.0000000000000021
 31
0.0
  0
LINE
  5
41
330
1E
100
AcDbEntity
  8
0
100
AcDbLine
 10
20.8671
 20
0.0000000000000021
 30
0.0
 11
21.25319999999999
 21
0.000000000000002
 31
0.0
  0
LINE
  5
42
330
1E
100
AcDbEntity
  8
0
100
AcDbLine
 10
20.8671
 20
0.0000000000000021
 30
0.0
 11
20.8671
 21
2.0
 31
0.0
  0
LINE
  5
43
330
1E
100
AcDbEntity
  8
0
100
AcDbLine
 10
20.8671
 20
0.0000000000000021
 30
0.0
 11
22.3079
 21
0.0000000000000022
 31
0.0
  0
LINE
  5
44
330
1E
100
AcDbEntity
  8
0
100
AcDbLine
 10
21.25319999999999
 20
0.000000000000002
 30
0.0
 11
22.694
 21
0.0000000000000021
 31
0.0
  0
LINE
  5
45
330
1E
100
AcDbEntity
  8
0
100
AcDbLine
 10
18.6458
 20
0.0000000000000032
 30
0.0
 11
20.13749999999999
 21
0.0000000000000032
 31
0.0
  0
LINE
  5
46
330
1E
100
AcDbEntity
  8
0
100
AcDbLine
 10
8.949999999999999
 20
0.0000000000000033
 30
0.0
 11
8.949999999999999
 21
2.0
 31
0.0
  0
LINE
  5
47
330
1E
100
AcDbEntity
  8
0
100
AcDbLine
 10
7.45833
 20
0.0000000000000033
 30
0.0
 11
8.949999999999999
 21
0.0000000000000033
 31
0.0
  0
LINE
  5
48
330
1E
100
AcDbEntity
  8
0
100
AcDbLine
 10
7.45833
 20
0.0000000000000033
 30
0.0
 11
7.45833
 21
2.0
 31
0.0
  0
LINE
  5
49
330
1E
100
AcDbEntity
  8
0
100
AcDbLine
 10
20.13749999999999
 20
0.0000000000000033
 30
0.0
 11
20.13749999999999
 21
2.0
 31
0.0
  0
LINE
  5
4A
330
1E
100
AcDbEntity
  8
0
100
AcDbLine
 10
18.6458
 20
0.0000000000000033
 30
0.0
 11
20.13749999999999
 21
0.0000000000000033
 31
0.0
  0
LINE
  5
4B
330
1E
100
AcDbEntity
  8
0
100
AcDbLine
 10
29.8333
 20
0.0000000000000032
 30
0.0
 11
29.8333
 21
2.0
 31
0.0
  0
LINE
  5
4C
330
1E
100
AcDbEntity
  8
0
100
AcDbLine
 10
29.8333
 20
0.0000000000000032
 30
0.0
 11
31.325
 21
0.0000000000000032
 31
0.0
  0
LINE
  5
4D
330
1E
100
AcDbEntity
  8
0
100
AcDbLine
 10
32.0152
 20
-0.0000000000000002
 30
0.0
 11
33.07
 21
-0.0000000000000003
 31
0.0
  0
LINE
  5
4E
330
1E
100
AcDbEntity
  8
0
100
AcDbLine
 10
32.0152
 20
-0.0000000000000004
 30
0.0
 11
33.07
 21
-0.0000000000000003
 31
0.0
  0
LINE
  5
4F
330
1E
100
AcDbEntity
  8
0
100
AcDbLine
 10
37.4543
 20
0.0000000000000014
 30
0.0
 11
38.20009999999999
 21
0.0000000000000013
 31
0.0
  0
LINE
  5
50
330
1E
100
AcDbEntity
  8
0
100
AcDbLine
 10
37.4543
 20
0.0000000000000014
 30
0.0
 11
37.4543
 21
2.0
 31
0.0
  0
LINE
  5
51
330
1E
100
AcDbEntity
  8
0
100
AcDbLine
 10
37.4543
 20
0.0000000000000014
 30
0.0
 11
38.746
 21
0.0000000000000015
 31
0.0
  0
LINE
  5
52
330
1E
100
AcDbEntity
  8
0
100
AcDbLine
 10
39.92589999999999
 20
0.0000000000000002
 30
0.0
 11
40.98069999999999
 21
0.0000000000000002
 31
0.0
  0
LINE
  5
53
330
1E
100
AcDbEntity
  8
0
100
AcDbLine
 10
38.87109999999999
 20
0.0000000000000002
 30
0.0
 11
39.92589999999999
 21
0.0000000000000001
 31
0.0
  0
LINE
  5
54
330
1E
100
AcDbEntity
  8
0
100
AcDbLine
 10
38.87109999999999
 20
0.0000000000000002
 30
0.0
 11
39.92589999999999
 21
0.0000000000000002
 31
0.0
  0
LINE
  5
55
330
1E
100
AcDbEntity
  8
0
100
AcDbLine
 10
39.92589999999999
 20
0.0000000000000001
 30
0.0
 11
40.98069999999999
 21
0.0000000000000002
 31
0.0
  0
LINE
  5
56
330
1E
100
AcDbEntity
  8
0
100
AcDbLine
 10
38.746
 20
0.0000000000000015
 30
0.0
 11
39.4919
 21
0.0000000000000014
 31
0.0
  0
LINE
  5
57
330
1E
100
AcDbEntity
  8
0
100
AcDbLine
 10
38.20009999999999
 20
0.0000000000000013
 30
0.0
 11
39.4919
 21
0.0000000000000014
 31
0.0
  0
LINE
  5
58
330
1E
100
AcDbEntity
  8
0
100
AcDbLine
 10
33.1143
 20
0.0000000000000023
 30
0.0
 11
33.5003
 21
0.0000000000000022
 31
0.0
  0
LINE
  5
59
330
1E
100
AcDbEntity
  8
0
100
AcDbLine
 10
31.6734
 20
0.0000000000000023
 30
0.0
 11
32.0595
 21
0.0000000000000022
 31
0.0
  0
LINE
  5
5A
330
1E
100
AcDbEntity
  8
0
100
AcDbLine
 10
31.6734
 20
0.0000000000000023
 30
0.0
 11
33.1143
 21
0.0000000000000023
 31
0.0
  0
LINE
  5
5B
330
1E
100
AcDbEntity
  8
0
100
AcDbLine
 10
42.4797
 20
0.0000000000000025
 30
0.0
 11
42.8657
 21
0.0000000000000024
 31
0.0
  0
LINE
  5
5C
330
1E
100
AcDbEntity
  8
0
100
AcDbLine
 10
42.4797
 20
0.0000000000000025
 30
0.0
 11
43.92059999999999
 21
0.0000000000000025
 31
0.0
  0
LINE
  5
5D
330
1E
100
AcDbEntity
  8
0
100
AcDbLine
 10
32.0595
 20
0.0000000000000022
 30
0.0
 11
33.5003
 21
0.0000000000000022
 31
0.0
  0
LINE
  5
5E
330
1E
100
AcDbEntity
  8
0
100
AcDbLine
 10
41.02079999999999
 20
0.0000000000000032
 30
0.0
 11
41.02079999999999
 21
2.0
 31
0.0
  0
LINE
  5
5F
330
1E
100
AcDbEntity
  8
0
100
AcDbLine
 10
41.02079999999999
 20
0.0000000000000032
 30
0.0
 11
42.5125
 21
0.0000000000000032
 31
0.0
  0
LINE
  5
60
330
1E
100
AcDbEntity
  8
0
100
AcDbLine
 10
46.78189999999999
 20
0.0000000000000007
 30
0.0
 11
47.83669999999999
 21
0.0000000000000006
 31
0.0
  0
LINE
  5
61
330
1E
100
AcDbEntity
  8
0
100
AcDbLine
 10
46.78189999999999
 20
0.0000000000000007
 30
0.0
 11
46.78189999999999
 21
2.0
 31
0.0
  0
LINE
  5
62
330
1E
100
AcDbEntity
  8
0
100
AcDbLine
 10
46.78189999999999
 20
0.0000000000000007
 30
0.0
 11
47.83669999999999
 21
0.0000000000000007
 31
0.0
  0
LINE
  5
63
330
1E
100
AcDbEntity
  8
0
100
AcDbLine
 10
47.1429
 20
0.0000000000000018
 30
0.0
 11
47.8888
 21
0.0000000000000017
 31
0.0
  0
LINE
  5
64
330
1E
100
AcDbEntity
  8
0
100
AcDbLine
 10
47.1429
 20
0.0000000000000018
 30
0.0
 11
48.43469999999999
 21
0.0000000000000018
 31
0.0
  0
LINE
  5
65
330
1E
100
AcDbEntity
  8
0
100
AcDbLine
 10
43.92059999999999
 20
0.0000000000000025
 30
0.0
 11
44.3066
 21
0.0000000000000024
 31
0.0
  0
LINE
  5
66
330
1E
100
AcDbEntity
  8
0
100
AcDbLine
 10
42.8657
 20
0.0000000000000024
 30
0.0
 11
44.3066
 21
0.0000000000000024
 31
0.0
  0
LINE
  5
67
330
1E
100
AcDbEntity
  8
0
100
AcDbLine
 10
48.5791
 20
-0.000000000000001
 30
0.0
 11
49.8709
 21
-0.0000000000000011
 31
0.0
  0
LINE
  5
68
330
1E
100
AcDbEntity
  8
0
100
AcDbLine
 10
47.83669999999999
 20
0.0000000000000007
 30
0.0
 11
48.8915
 21
0.0000000000000007
 31
0.0
  0
LINE
  5
69
330
1E
100
AcDbEntity
  8
0
100
AcDbLine
 10
47.83669999999999
 20
0.0000000000000006
 30
0.0
 11
48.8915
 21
0.0000000000000007
 31
0.0
  0
LINE
  5
6A
330
1E
100
AcDbEntity
  8
0
100
AcDbLine
 10
48.43469999999999
 20
0.0000000000000018
 30
0.0
 11
49.1805
 21
0.0000000000000017
 31
0.0
  0
LINE
  5
6B
330
1E
100
AcDbEntity
  8
0
100
AcDbLine
 10
47.8888
 20
0.0000000000000017
 30
0.0
 11
49.1805
 21
0.0000000000000017
 31
0.0
  0
LINE
  5
6C
330
1E
100
AcDbEntity
  8
0
100
AcDbLine
 10
47.8333
 20
-0.0000000000000011
 30
0.0
 11
49.12510000000001
 21
-0.0000000000000012
 31
0.0
  0
LINE
  5
6D
330
1E
100
AcDbEntity
  8
0
100
AcDbLine
 10
47.8333
 20
-0.0000000000000011
 30
0.0
 11
48.5791
 21
-0.000000000000001
 31
0.0
  0
LINE
  5
6E
330
1E
100
AcDbEntity
  8
0
100
AcDbLine
 10
53.286
 20
0.0000000000000027
 30
0.0
 11
53.672
 21
0.0000000000000026
 31
0.0
  0
LINE
  5
6F
330
1E
100
AcDbEntity
  8
0
100
AcDbLine
 10
53.286
 20
0.0000000000000027
 30
0.0
 11
54.7268
 21
0.0000000000000027
 31
0.0
  0
LINE
  5
70
330
1E
100
AcDbEntity
  8
0
100
AcDbLine
 10
53.672
 20
0.0000000000000026
 30
0.0
 11
55.1129
 21
0.0000000000000026
 31
0.0
  0
LINE
  5
71
330
1E
100
AcDbEntity
  8
0
100
AcDbLine
 10
53.427
 20
-0.0000000000000005
 30
0.0
 11
54.7188
 21
-0.0000000000000006
 31
0.0
  0
LINE
  5
72
330
1E
100
AcDbEntity
  8
0
100
AcDbLine
 10
53.427
 20
-0.0000000000000005
 30
0.0
 11
54.1729
 21
-0.0000000000000004
 31
0.0
  0
LINE
  5
73
330
1E
100
AcDbEntity
  8
0
100
AcDbLine
 10
49.12510000000001
 20
-0.0000000000000012
 30
0.0
 11
49.8709
 21
-0.0000000000000011
 31
0.0
  0
LINE
  5
74
330
1E
100
AcDbEntity
  8
0
100
AcDbLine
 10
52.2083
 20
0.0000000000000032
 30
0.0
 11
52.2083
 21
2.0
 31
0.0
  0
LINE
  5
75
330
1E
100
AcDbEntity
  8
0
100
AcDbLine
 10
52.2083
 20
0.0000000000000032
 30
0.0
 11
53.7
 21
0.0000000000000032
 31
0.0
  0
LINE
  5
76
330
1E
100
AcDbEntity
  8
0
100
AcDbLine
 10
54.1729
 20
-0.0000000000000004
 30
0.0
 11
55.46459999999999
 21
-0.0000000000000005
 31
0.0
  0
LINE
  5
77
330
1E
100
AcDbEntity
  8
0
100
AcDbLine
 10
54.7188
 20
-0.0000000000000006
 30
0.0
 11
55.46459999999999
 21
-0.0000000000000005
 31
0.0
  0
LINE
  5
78
330
1E
100
AcDbEntity
  8
0
100
AcDbLine
 10
60.3126
 20
0.0
 30
0.0
 11
61.0584
 21
0.0000000000000001
 31
0.0
  0
LINE
  5
79
330
1E
100
AcDbEntity
  8
0
100
AcDbLine
 10
54.6927
 20
0.0000000000000011
 30
0.0
 11
55.7475
 21
0.0000000000000011
 31
0.0
  0
LINE
  5
7A
330
1E
100
AcDbEntity
  8
0
100
AcDbLine
 10
54.6927
 20
0.0000000000000011
 30
0.0
 11
55.7475
 21
0.0000000000000012
 31
0.0
  0
LINE
  5
7B
330
1E
100
AcDbEntity
  8
0
100
AcDbLine
 10
55.7475
 20
0.0000000000000012
 30
0.0
 11
56.8022
 21
0.0000000000000011
 31
0.0
  0
LINE
  5
7C
330
1E
100
AcDbEntity
  8
0
100
AcDbLine
 10
55.7475
 20
0.0000000000000011
 30
0.0
 11
56.8022
 21
0.0000000000000011
 31
0.0
  0
LINE
  5
7D
330
1E
100
AcDbEntity
  8
0
100
AcDbLine
 10
58.12339999999999
 20
0.0000000000000022
 30
0.0
 11
58.86919999999999
 21
0.0000000000000021
 31
0.0
  0
LINE
  5
7E
330
1E
100
AcDbEntity
  8
0
100
AcDbLine
 10
56.8315
 20
0.0000000000000021
 30
0.0
 11
57.5774
 21
0.000000000000002
 31
0.0
  0
LINE
  5
7F
330
1E
100
AcDbEntity
  8
0
100
AcDbLine
 10
56.8315
 20
0.0000000000000021
 30
0.0
 11
56.8315
 21
2.0
 31
0.0
  0
LINE
  5
80
330
1E
100
AcDbEntity
  8
0
100
AcDbLine
 10
56.8315
 20
0.0000000000000021
 30
0.0
 11
58.12339999999999
 21
0.0000000000000022
 31
0.0
  0
LINE
  5
81
330
1E
100
AcDbEntity
  8
0
100
AcDbLine
 10
57.5774
 20
0.000000000000002
 30
0.0
 11
58.86919999999999
 21
0.0000000000000021
 31
0.0
  0
LINE
  5
82
330
1E
100
AcDbEntity
  8
0
100
AcDbLine
 10
54.7268
 20
0.0000000000000027
 30
0.0
 11
55.1129
 21
0.0000000000000026
 31
0.0
  0
LINE
  5
83
330
1E
100
AcDbEntity
  8
0
100
AcDbLine
 10
59.76659999999999
 20
0.0000000000000001
 30
0.0
 11
61.0584
 21
0.0000000000000001
 31
0.0
  0
LINE
  5
84
330
1E
100
AcDbEntity
  8
0
100
AcDbLine
 10
59.0208
 20
0.0000000000000001
 30
0.0
 11
60.3126
 21
0.0
 31
0.0
  0
LINE
  5
85
330
1E
100
AcDbEntity
  8
0
100
AcDbLine
 10
59.0208
 20
0.0000000000000001
 30
0.0
 11
59.0208
 21
2.0
 31
0.0
  0
LINE
  5
86
330
1E
100
AcDbEntity
  8
0
100
AcDbLine
 10
59.0208
 20
0.0000000000000001
 30
0.0
 11
59.76659999999999
 21
0.0000000000000001
 31
0.0
  0
LINE
  5
87
330
1E
100
AcDbEntity
  8
0
100
AcDbLine
 10
62.60349999999999
 20
0.0000000000000016
 30
0.0
 11
63.6582
 21
0.0000000000000016
 31
0.0
  0
LINE
  5
88
330
1E
100
AcDbEntity
  8
0
100
AcDbLine
 10
62.60349999999999
 20
0.0000000000000016
 30
0.0
 11
62.60349999999999
 21
2.0
 31
0.0
  0
LINE
  5
89
330
1E
100
AcDbEntity
  8
0
100
AcDbLine
 10
62.60349999999999
 20
0.0000000000000016
 30
0.0
 11
63.6582
 21
0.0000000000000017
 31
0.0
  0
LINE
  5
8A
330
1E
100
AcDbEntity
  8
0
100
AcDbLine
 10
60.3126
 20
0.0
 30
0.0
 11
61.0584
 21
0.0000000000000001
 31
0.0
  0
LINE
  5
8B
330
1E
100
AcDbEntity
  8
0
100
AcDbLine
 10
65.36039999999999
 20
0.0000000000000007
 30
0.0
 11
66.6521
 21
0.0000000000000007
 31
0.0
  0
LINE
  5
8C
330
1E
100
AcDbEntity
  8
0
100
AcDbLine
 10
64.61450000000001
 20
0.0000000000000007
 30
0.0
 11
65.9063
 21
0.0000000000000006
 31
0.0
  0
LINE
  5
8D
330
1E
100
AcDbEntity
  8
0
100
AcDbLine
 10
64.61450000000001
 20
0.0000000000000007
 30
0.0
 11
65.36039999999999
 21
0.0000000000000007
 31
0.0
  0
LINE
  5
8E
330
1E
100
AcDbEntity
  8
0
100
AcDbLine
 10
67.9317
 20
-0.0000000000000015
 30
0.0
 11
69.37260000000001
 21
-0.0000000000000016
 31
0.0
  0
LINE
  5
8F
330
1E
100
AcDbEntity
  8
0
100
AcDbLine
 10
67.54559999999999
 20
-0.0000000000000016
 30
0.0
 11
68.9865
 21
-0.0000000000000017
 31
0.0
  0
LINE
  5
90
330
1E
100
AcDbEntity
  8
0
100
AcDbLine
 10
67.54559999999999
 20
-0.0000000000000016
 30
0.0
 11
67.9317
 21
-0.0000000000000015
 31
0.0
  0
LINE
  5
91
330
1E
100
AcDbEntity
  8
0
100
AcDbLine
 10
68.9865
 20
-0.0000000000000017
 30
0.0
 11
69.37260000000001
 21
-0.0000000000000016
 31
0.0
  0
LINE
  5
92
330
1E
100
AcDbEntity
  8
0
100
AcDbLine
 10
70.82720000000001
 20
-0.0000000000000009
 30
0.0
 11
72.2681
 21
-0.0000000000000009
 31
0.0
  0
LINE
  5
93
330
1E
100
AcDbEntity
  8
0
100
AcDbLine
 10
70.44119999999999
 20
-0.000000000000001
 30
0.0
 11
71.88200000000001
 21
-0.000000000000001
 31
0.0
  0
LINE
  5
94
330
1E
100
AcDbEntity
  8
0
100
AcDbLine
 10
70.44119999999999
 20
-0.000000000000001
 30
0.0
 11
70.82720000000001
 21
-0.0000000000000009
 31
0.0
  0
LINE
  5
95
330
1E
100
AcDbEntity
  8
0
100
AcDbLine
 10
71.88200000000001
 20
-0.000000000000001
 30
0.0
 11
72.2681
 21
-0.0000000000000009
 31
0.0
  0
LINE
  5
96
330
1E
100
AcDbEntity
  8
0
100
AcDbLine
 10
73.7228
 20
-0.0000000000000002
 30
0.0
 11
75.1636
 21
-0.0000000000000002
 31
0.0
  0
LINE
  5
97
330
1E
100
AcDbEntity
  8
0
100
AcDbLine
 10
73.33669999999999
 20
-0.0000000000000003
 30
0.0
 11
74.7773
 21
-0.0000000000000003
 31
0.0
  0
LINE
  5
98
330
1E
100
AcDbEntity
  8
0
100
AcDbLine
 10
73.33669999999999
 20
-0.0000000000000003
 30
0.0
 11
73.33669999999999
 21
2.0
 31
0.0
  0
LINE
  5
99
330
1E
100
AcDbEntity
  8
0
100
AcDbLine
 10
73.33669999999999
 20
-0.0000000000000003
 30
0.0
 11
73.7228
 21
-0.0000000000000002
 31
0.0
  0
LINE
  5
9A
330
1E
100
AcDbEntity
  8
0
100
AcDbLine
 10
65.9063
 20
0.0000000000000006
 30
0.0
 11
66.6521
 21
0.0000000000000007
 31
0.0
  0
LINE
  5
9B
330
1E
100
AcDbEntity
  8
0
100
AcDbLine
 10
63.6582
 20
0.0000000000000017
 30
0.0
 11
64.71300000000001
 21
0.0000000000000016
 31
0.0
  0
LINE
  5
9C
330
1E
100
AcDbEntity
  8
0
100
AcDbLine
 10
63.6582
 20
0.0000000000000016
 30
0.0
 11
64.71300000000001
 21
0.0000000000000016
 31
0.0
  0
LINE
  5
9D
330
1E
100
AcDbEntity
  8
0
100
AcDbLine
 10
64.09229999999999
 20
0.0000000000000028
 30
0.0
 11
64.4783
 21
0.0000000000000027
 31
0.0
  0
LINE
  5
9E
330
1E
100
AcDbEntity
  8
0
100
AcDbLine
 10
64.09229999999999
 20
0.0000000000000028
 30
0.0
 11
65.5331
 21
0.0000000000000029
 31
0.0
  0
LINE
  5
9F
330
1E
100
AcDbEntity
  8
0
100
AcDbLine
 10
64.4783
 20
0.0000000000000027
 30
0.0
 11
65.9192
 21
0.0000000000000028
 31
0.0
  0
LINE
  5
A0
330
1E
100
AcDbEntity
  8
0
100
AcDbLine
 10
66.5202
 20
0.0000000000000024
 30
0.0
 11
67.26600000000001
 21
0.0000000000000024
 31
0.0
  0
LINE
  5
A1
330
1E
100
AcDbEntity
  8
0
100
AcDbLine
 10
66.5202
 20
0.0000000000000024
 30
0.0
 11
67.8121
 21
0.0000000000000025
 31
0.0
  0
LINE
  5
A2
330
1E
100
AcDbEntity
  8
0
100
AcDbLine
 10
67.26600000000001
 20
0.0000000000000024
 30
0.0
 11
68.5579
 21
0.0000000000000024
 31
0.0
  0
LINE
  5
A3
330
1E
100
AcDbEntity
  8
0
100
AcDbLine
 10
70.5142
 20
0.0000000000000021
 30
0.0
 11
71.569
 21
0.000000000000002
 31
0.0
  0
LINE
  5
A4
330
1E
100
AcDbEntity
  8
0
100
AcDbLine
 10
70.5142
 20
0.0000000000000021
 30
0.0
 11
71.569
 21
0.0000000000000022
 31
0.0
  0
LINE
  5
A5
330
1E
100
AcDbEntity
  8
0
100
AcDbLine
 10
67.8121
 20
0.0000000000000025
 30
0.0
 11
68.5579
 21
0.0000000000000024
 31
0.0
  0
LINE
  5
A6
330
1E
100
AcDbEntity
  8
0
100
AcDbLine
 10
65.5331
 20
0.0000000000000029
 30
0.0
 11
65.9192
 21
0.0000000000000028
 31
0.0
  0
LINE
  5
A7
330
1E
100
AcDbEntity
  8
0
100
AcDbLine
 10
70.9541
 20
0.0000000000000013
 30
0.0
 11
72.2459
 21
0.0000000000000013
 31
0.0
  0
LINE
  5
A8
330
1E
100
AcDbEntity
  8
0
100
AcDbLine
 10
71.569
 20
0.000000000000002
 30
0.0
 11
72.6237
 21
0.0000000000000021
 31
0.0
  0
LINE
  5
A9
330
1E
100
AcDbEntity
  8
0
100
AcDbLine
 10
71.569
 20
0.0000000000000022
 30
0.0
 11
72.6237
 21
0.0000000000000021
 31
0.0
  0
LINE
  5
AA
330
1E
100
AcDbEntity
  8
0
100
AcDbLine
 10
70.2083
 20
0.0000000000000013
 30
0.0
 11
71.5001
 21
0.0000000000000012
 31
0.0
  0
LINE
  5
AB
330
1E
100
AcDbEntity
  8
0
100
AcDbLine
 10
70.2083
 20
0.0000000000000013
 30
0.0
 11
70.2083
 21
2.0
 31
0.0
  0
LINE
  5
AC
330
1E
100
AcDbEntity
  8
0
100
AcDbLine
 10
70.2083
 20
0.0000000000000013
 30
0.0
 11
70.9541
 21
0.0000000000000013
 31
0.0
  0
LINE
  5
AD
330
1E
100
AcDbEntity
  8
0
100
AcDbLine
 10
71.5001
 20
0.0000000000000012
 30
0.0
 11
72.2459
 21
0.0000000000000013
 31
0.0
  0
LINE
  5
AE
330
1E
100
AcDbEntity
  8
0
100
AcDbLine
 10
74.7773
 20
-0.0000000000000003
 30
0.0
 11
75.1636
 21
-0.0000000000000002
 31
0.0
  0
LINE
  5
AF
330
1E
100
AcDbEntity
  8
0
100
AcDbLine
 10
76.61799999999999
 20
0.0000000000000004
 30
0.0
 11
78.05889999999999
 21
0.0000000000000004
 31
0.0
  0
LINE
  5
B0
330
1E
100
AcDbEntity
  8
0
100
AcDbLine
 10
76.2324
 20
0.0000000000000004
 30
0.0
 11
77.6733
 21
0.0000000000000003
 31
0.0
  0
LINE
  5
B1
330
1E
100
AcDbEntity
  8
0
100
AcDbLine
 10
76.2324
 20
0.0000000000000004
 30
0.0
 11
76.61799999999999
 21
0.0000000000000004
 31
0.0
  0
LINE
  5
B2
330
1E
100
AcDbEntity
  8
0
100
AcDbLine
 10
75.2844
 20
0.0000000000000029
 30
0.0
 11
76.72539999999999
 21
0.000000000000003
 31
0.0
  0
LINE
  5
B3
330
1E
100
AcDbEntity
  8
0
100
AcDbLine
 10
74.89879999999999
 20
0.000000000000003
 30
0.0
 11
75.2844
 21
0.0000000000000029
 31
0.0
  0
LINE
  5
B4
330
1E
100
AcDbEntity
  8
0
100
AcDbLine
 10
74.89879999999999
 20
0.000000000000003
 30
0.0
 11
76.3398
 21
0.000000000000003
 31
0.0
  0
LINE
  5
B5
330
1E
100
AcDbEntity
  8
0
100
AcDbLine
 10
76.5479
 20
0.0000000000000019
 30
0.0
 11
77.8396
 21
0.0000000000000019
 31
0.0
  0
LINE
  5
B6
330
1E
100
AcDbEntity
  8
0
100
AcDbLine
 10
76.3398
 20
0.000000000000003
 30
0.0
 11
76.72539999999999
 21
0.000000000000003
 31
0.0
  0
LINE
  5
B7
330
1E
100
AcDbEntity
  8
0
100
AcDbLine
 10
76.2085
 20
0.0000000000000028
 30
0.0
 11
76.9543
 21
0.0000000000000027
 31
0.0
  0
LINE
  5
B8
330
1E
100
AcDbEntity
  8
0
100
AcDbLine
 10
76.2085
 20
0.0000000000000028
 30
0.0
 11
77.501
 21
0.0000000000000028
 31
0.0
  0
LINE
  5
B9
330
1E
100
AcDbEntity
  8
0
100
AcDbLine
 10
76.9543
 20
0.0000000000000027
 30
0.0
 11
78.2469
 21
0.0000000000000028
 31
0.0
  0
LINE
  5
BA
330
1E
100
AcDbEntity
  8
0
100
AcDbLine
 10
75.80199999999999
 20
0.0000000000000018
 30
0.0
 11
77.0938
 21
0.0000000000000018
 31
0.0
  0
LINE
  5
BB
330
1E
100
AcDbEntity
  8
0
100
AcDbLine
 10
75.80199999999999
 20
0.0000000000000018
 30
0.0
 11
76.5479
 21
0.0000000000000019
 31
0.0
  0
LINE
  5
BC
330
1E
100
AcDbEntity
  8
0
100
AcDbLine
 10
77.6733
 20
0.0000000000000003
 30
0.0
 11
78.05889999999999
 21
0.0000000000000004
 31
0.0
  0
LINE
  5
BD
330
1E
100
AcDbEntity
  8
0
100
AcDbLine
 10
79.51399999999999
 20
0.0000000000000011
 30
0.0
 11
80.95499999999999
 21
0.0000000000000011
 31
0.0
  0
LINE
  5
BE
330
1E
100
AcDbEntity
  8
0
100
AcDbLine
 10
79.1277
 20
0.000000000000001
 30
0.0
 11
80.5686
 21
0.000000000000001
 31
0.0
  0
LINE
  5
BF
330
1E
100
AcDbEntity
  8
0
100
AcDbLine
 10
79.1277
 20
0.000000000000001
 30
0.0
 11
79.51399999999999
 21
0.0000000000000011
 31
0.0
  0
LINE
  5
C0
330
1E
100
AcDbEntity
  8
0
100
AcDbLine
 10
80.5686
 20
0.000000000000001
 30
0.0
 11
80.95499999999999
 21
0.0000000000000011
 31
0.0
  0
LINE
  5
C1
330
1E
100
AcDbEntity
  8
0
100
AcDbLine
 10
82.4094
 20
0.0000000000000018
 30
0.0
 11
83.8503
 21
0.0000000000000017
 31
0.0
  0
LINE
  5
C2
330
1E
100
AcDbEntity
  8
0
100
AcDbLine
 10
82.02299999999999
 20
0.0000000000000017
 30
0.0
 11
83.464
 21
0.0000000000000017
 31
0.0
  0
LINE
  5
C3
330
1E
100
AcDbEntity
  8
0
100
AcDbLine
 10
82.02299999999999
 20
0.0000000000000017
 30
0.0
 11
82.4094
 21
0.0000000000000018
 31
0.0
  0
LINE
  5
C4
330
1E
100
AcDbEntity
  8
0
100
AcDbLine
 10
83.464
 20
0.0000000000000017
 30
0.0
 11
83.8503
 21
0.0000000000000017
 31
0.0
  0
LINE
  5
C5
330
1E
100
AcDbEntity
  8
0
100
AcDbLine
 10
77.501
 20
0.0000000000000028
 30
0.0
 11
78.2469
 21
0.0000000000000028
 31
0.0
  0
LINE
  5
C6
330
1E
100
AcDbEntity
  8
0
100
AcDbLine
 10
78.4251
 20
0.0000000000000026
 30
0.0
 11
79.47969999999999
 21
0.0000000000000025
 31
0.0
  0
LINE
  5
C7
330
1E
100
AcDbEntity
  8
0
100
AcDbLine
 10
78.4251
 20
0.0000000000000026
 30
0.0
 11
78.4251
 21
2.0
 31
0.0
  0
LINE
  5
C8
330
1E
100
AcDbEntity
  8
0
100
AcDbLine
 10
78.4251
 20
0.0000000000000026
 30
0.0
 11
79.47969999999999
 21
0.0000000000000027
 31
0.0
  0
LINE
  5
C9
330
1E
100
AcDbEntity
  8
0
100
AcDbLine
 10
79.47969999999999
 20
0.0000000000000027
 30
0.0
 11
80.5343
 21
0.0000000000000026
 31
0.0
  0
LINE
  5
CA
330
1E
100
AcDbEntity
  8
0
100
AcDbLine
 10
79.47969999999999
 20
0.0000000000000025
 30
0.0
 11
80.5343
 21
0.0000000000000026
 31
0.0
  0
LINE
  5
CB
330
1E
100
AcDbEntity
  8
0
100
AcDbLine
 10
82.14159999999999
 20
0.0000000000000025
 30
0.0
 11
83.43340000000001
 21
0.0000000000000025
 31
0.0
  0
LINE
  5
CC
330
1E
100
AcDbEntity
  8
0
100
AcDbLine
 10
81.3958
 20
0.0000000000000024
 30
0.0
 11
82.6876
 21
0.0000000000000024
 31
0.0
  0
LINE
  5
CD
330
1E
100
AcDbEntity
  8
0
100
AcDbLine
 10
81.3958
 20
0.0000000000000024
 30
0.0
 11
81.3958
 21
2.0
 31
0.0
  0
LINE
  5
CE
330
1E
100
AcDbEntity
  8
0
100
AcDbLine
 10
81.3958
 20
0.0000000000000024
 30
0.0
 11
82.14159999999999
 21
0.0000000000000025
 31
0.0
  0
LINE
  5
CF
330
1E
100
AcDbEntity
  8
0
100
AcDbLine
 10
82.6876
 20
0.0000000000000024
 30
0.0
 11
83.43340000000001
 21
0.0000000000000025
 31
0.0
  0
LINE
  5
D0
330
1E
100
AcDbEntity
  8
0
100
AcDbLine
 10
77.0938
 20
0.0000000000000018
 30
0.0
 11
77.8396
 21
0.0000000000000019
 31
0.0
  0
LINE
  5
D1
330
1E
100
AcDbEntity
  8
0
100
AcDbLine
 10
74.5833
 20
0.0000000000000032
 30
0.0
 11
76.075
 21
0.0000000000000032
 31
0.0
  0
LINE
  5
D2
330
1E
100
AcDbEntity
  8
0
100
AcDbLine
 10
74.5833
 20
0.0000000000000033
 30
0.0
 11
76.075
 21
0.0000000000000033
 31
0.0
  0
LINE
  5
D3
330
1E
100
AcDbEntity
  8
0
100
AcDbLine
 10
63.3958
 20
0.0000000000000032
 30
0.0
 11
64.8875
 21
0.0000000000000032
 31
0.0
  0
LINE
  5
D4
330
1E
100
AcDbEntity
  8
0
100
AcDbLine
 10
63.3958
 20
0.0000000000000033
 30
0.0
 11
64.8875
 21
0.0000000000000033
 31
0.0
  0
LINE
  5
D5
330
1E
100
AcDbEntity
  8
0
100
AcDbLine
 10
52.2083
 20
0.0000000000000033
 30
0.0
 11
53.7
 21
0.0000000000000033
 31
0.0
  0
LINE
  5
D6
330
1E
100
AcDbEntity
  8
0
100
AcDbLine
 10
52.2083
 20
0.0000000000000033
 30
0.0
 11
52.2083
 21
2.0
 31
0.0
  0
LINE
  5
D7
330
1E
100
AcDbEntity
  8
0
100
AcDbLine
 10
41.02079999999999
 20
0.0000000000000033
 30
0.0
 11
42.5125
 21
0.0000000000000033
 31
0.0
  0
LINE
  5
D8
330
1E
100
AcDbEntity
  8
0
100
AcDbLine
 10
41.02079999999999
 20
0.0000000000000033
 30
0.0
 11
41.02079999999999
 21
2.0
 31
0.0
  0
LINE
  5
D9
330
1E
100
AcDbEntity
  8
0
100
AcDbLine
 10
10.0608
 20
0.0000000000000045
 30
0.0
 11
10.44689999999999
 21
0.0000000000000046
 31
0.0
  0
LINE
  5
DA
330
1E
100
AcDbEntity
  8
0
100
AcDbLine
 10
10.0608
 20
0.0000000000000045
 30
0.0
 11
10.0608
 21
2.0
 31
0.0
  0
LINE
  5
DB
330
1E
100
AcDbEntity
  8
0
100
AcDbLine
 10
10.0608
 20
0.0000000000000045
 30
0.0
 11
11.5016
 21
0.0000000000000044
 31
0.0
  0
LINE
  5
DC
330
1E
100
AcDbEntity
  8
0
100
AcDbLine
 10
22.3079
 20
0.0000000000000043
 30
0.0
 11
22.694
 21
0.0000000000000044
 31
0.0
  0
LINE
  5
DD
330
1E
100
AcDbEntity
  8
0
100
AcDbLine
 10
20.8671
 20
0.0000000000000043
 30
0.0
 11
21.25319999999999
 21
0.0000000000000044
 31
0.0
  0
LINE
  5
DE
330
1E
100
AcDbEntity
  8
0
100
AcDbLine
 10
20.8671
 20
0.0000000000000043
 30
0.0
 11
20.8671
 21
2.0
 31
0.0
  0
LINE
  5
DF
330
1E
100
AcDbEntity
  8
0
100
AcDbLine
 10
20.8671
 20
0.0000000000000043
 30
0.0
 11
22.3079
 21
0.0000000000000043
 31
0.0
  0
LINE
  5
E0
330
1E
100
AcDbEntity
  8
0
100
AcDbLine
 10
22.694
 20
0.0000000000000044
 30
0.0
 11
22.694
 21
2.0
 31
0.0
  0
LINE
  5
E1
330
1E
100
AcDbEntity
  8
0
100
AcDbLine
 10
21.25319999999999
 20
0.0000000000000044
 30
0.0
 11
22.694
 21
0.0000000000000044
 31
0.0
  0
LINE
  5
E2
330
1E
100
AcDbEntity
  8
0
100
AcDbLine
 10
21.25319999999999
 20
0.0000000000000044
 30
0.0
 11
21.25319999999999
 21
2.0
 31
0.0
  0
LINE
  5
E3
330
1E
100
AcDbEntity
  8
0
100
AcDbLine
 10
11.5016
 20
0.0000000000000044
 30
0.0
 11
11.8877
 21
0.0000000000000045
 31
0.0
  0
LINE
  5
E4
330
1E
100
AcDbEntity
  8
0
100
AcDbLine
 10
27.76559999999999
 20
0.0000000000000053
 30
0.0
 11
28.5114
 21
0.0000000000000054
 31
0.0
  0
LINE
  5
E5
330
1E
100
AcDbEntity
  8
0
100
AcDbLine
 10
27.76559999999999
 20
0.0000000000000053
 30
0.0
 11
27.76559999999999
 21
2.0
 31
0.0
  0
LINE
  5
E6
330
1E
100
AcDbEntity
  8
0
100
AcDbLine
 10
27.76559999999999
 20
0.0000000000000053
 30
0.0
 11
29.0574
 21
0.0000000000000053
 31
0.0
  0
LINE
  5
E7
330
1E
100
AcDbEntity
  8
0
100
AcDbLine
 10
29.0574
 20
0.0000000000000053
 30
0.0
 11
29.8032
 21
0.0000000000000054
 31
0.0
  0
LINE
  5
E8
330
1E
100
AcDbEntity
  8
0
100
AcDbLine
 10
29.8032
 20
0.0000000000000054
 30
0.0
 11
29.8032
 21
2.00000000000001
 31
0.0
  0
LINE
  5
E9
330
1E
100
AcDbEntity
  8
0
100
AcDbLine
 10
28.5114
 20
0.0000000000000054
 30
0.0
 11
29.8032
 21
0.0000000000000054
 31
0.0
  0
LINE
  5
EA
330
1E
100
AcDbEntity
  8
0
100
AcDbLine
 10
28.5114
 20
0.0000000000000054
 30
0.0
 11
28.5114
 21
2.00000000000001
 31
0.0
  0
LINE
  5
EB
330
1E
100
AcDbEntity
  8
0
100
AcDbLine
 10
11.8877
 20
0.0000000000000045
 30
0.0
 11
11.8877
 21
2.0
 31
0.0
  0
LINE
  5
EC
330
1E
100
AcDbEntity
  8
0
100
AcDbLine
 10
10.44689999999999
 20
0.0000000000000046
 30
0.0
 11
11.8877
 21
0.0000000000000045
 31
0.0
  0
LINE
  5
ED
330
1E
100
AcDbEntity
  8
0
100
AcDbLine
 10
10.44689999999999
 20
0.0000000000000046
 30
0.0
 11
10.44689999999999
 21
2.0
 31
0.0
  0
LINE
  5
EE
330
1E
100
AcDbEntity
  8
0
100
AcDbLine
 10
18.0769
 20
0.0000000000000057
 30
0.0
 11
18.8227
 21
0.0000000000000058
 31
0.0
  0
LINE
  5
EF
330
1E
100
AcDbEntity
  8
0
100
AcDbLine
 10
18.0769
 20
0.0000000000000057
 30
0.0
 11
18.0769
 21
2.00000000000001
 31
0.0
  0
LINE
  5
F0
330
1E
100
AcDbEntity
  8
0
100
AcDbLine
 10
18.0769
 20
0.0000000000000057
 30
0.0
 11
19.3688
 21
0.0000000000000056
 31
0.0
  0
LINE
  5
F1
330
1E
100
AcDbEntity
  8
0
100
AcDbLine
 10
19.3688
 20
0.0000000000000056
 30
0.0
 11
20.1146
 21
0.0000000000000057
 31
0.0
  0
LINE
  5
F2
330
1E
100
AcDbEntity
  8
0
100
AcDbLine
 10
30.9604
 20
0.0000000000000067
 30
0.0
 11
32.0152
 21
0.0000000000000068
 31
0.0
  0
LINE
  5
F3
330
1E
100
AcDbEntity
  8
0
100
AcDbLine
 10
30.9604
 20
0.0000000000000067
 30
0.0
 11
30.9604
 21
2.00000000000001
 31
0.0
  0
LINE
  5
F4
330
1E
100
AcDbEntity
  8
0
100
AcDbLine
 10
30.9604
 20
0.0000000000000067
 30
0.0
 11
32.0152
 21
0.0000000000000067
 31
0.0
  0
LINE
  5
F5
330
1E
100
AcDbEntity
  8
0
100
AcDbLine
 10
20.1146
 20
0.0000000000000057
 30
0.0
 11
20.1146
 21
2.00000000000001
 31
0.0
  0
LINE
  5
F6
330
1E
100
AcDbEntity
  8
0
100
AcDbLine
 10
18.8227
 20
0.0000000000000058
 30
0.0
 11
20.1146
 21
0.0000000000000057
 31
0.0
  0
LINE
  5
F7
330
1E
100
AcDbEntity
  8
0
100
AcDbLine
 10
18.8227
 20
0.0000000000000058
 30
0.0
 11
18.8227
 21
2.00000000000001
 31
0.0
  0
LINE
  5
F8
330
1E
100
AcDbEntity
  8
0
100
AcDbLine
 10
53.286
 20
0.0000000000000038
 30
0.0
 11
53.672
 21
0.0000000000000038
 31
0.0
  0
LINE
  5
F9
330
1E
100
AcDbEntity
  8
0
100
AcDbLine
 10
53.286
 20
0.0000000000000038
 30
0.0
 11
53.286
 21
2.0
 31
0.0
  0
LINE
  5
FA
330
1E
100
AcDbEntity
  8
0
100
AcDbLine
 10
53.286
 20
0.0000000000000038
 30
0.0
 11
54.7268
 21
0.0000000000000037
 31
0.0
  0
LINE
  5
FB
330
1E
100
AcDbEntity
  8
0
100
AcDbLine
 10
65.5331
 20
0.0000000000000036
 30
0.0
 11
65.9192
 21
0.0000000000000036
 31
0.0
  0
LINE
  5
FC
330
1E
100
AcDbEntity
  8
0
100
AcDbLine
 10
64.09229999999999
 20
0.0000000000000036
 30
0.0
 11
64.4783
 21
0.0000000000000037
 31
0.0
  0
LINE
  5
FD
330
1E
100
AcDbEntity
  8
0
100
AcDbLine
 10
64.09229999999999
 20
0.0000000000000036
 30
0.0
 11
65.5331
 21
0.0000000000000036
 31
0.0
  0
LINE
  5
FE
330
1E
100
AcDbEntity
  8
0
100
AcDbLine
 10
76.3398
 20
0.0000000000000034
 30
0.0
 11
76.72539999999999
 21
0.0000000000000035
 31
0.0
  0
LINE
  5
FF
330
1E
100
AcDbEntity
  8
0
100
AcDbLine
 10
74.89879999999999
 20
0.0000000000000034
 30
0.0
 11
75.2844
 21
0.0000000000000035
 31
0.0
  0
LINE
  5
100
330
1E
100
AcDbEntity
  8
0
100
AcDbLine
 10
74.89879999999999
 20
0.0000000000000034
 30
0.0
 11
76.3398
 21
0.0000000000000034
 31
0.0
  0
LINE
  5
101
330
1E
100
AcDbEntity
  8
0
100
AcDbLine
 10
77.501
 20
0.0000000000000036
 30
0.0
 11
78.2469
 21
0.0000000000000037
 31
0.0
  0
LINE
  5
102
330
1E
100
AcDbEntity
  8
0
100
AcDbLine
 10
76.2085
 20
0.0000000000000036
 30
0.0
 11
76.9543
 21
0.0000000000000037
 31
0.0
  0
LINE
  5
103
330
1E
100
AcDbEntity
  8
0
100
AcDbLine
 10
76.2085
 20
0.0000000000000036
 30
0.0
 11
77.501
 21
0.0000000000000036
 31
0.0
  0
LINE
  5
104
330
1E
100
AcDbEntity
  8
0
100
AcDbLine
 10
78.2469
 20
0.0000000000000037
 30
0.0
 11
78.2469
 21
2.0
 31
0.0
  0
LINE
  5
105
330
1E
100
AcDbEntity
  8
0
100
AcDbLine
 10
75.2844
 20
0.0000000000000035
 30
0.0
 11
76.72539999999999
 21
0.0000000000000035
 31
0.0
  0
LINE
  5
106
330
1E
100
AcDbEntity
  8
0
100
AcDbLine
 10
75.2844
 20
0.0000000000000035
 30
0.0
 11
75.2844
 21
2.0
 31
0.0
  0
LINE
  5
107
330
1E
100
AcDbEntity
  8
0
100
AcDbLine
 10
79.47969999999999
 20
0.0000000000000038
 30
0.0
 11
80.5343
 21
0.0000000000000038
 31
0.0
  0
LINE
  5
108
330
1E
100
AcDbEntity
  8
0
100
AcDbLine
 10
76.9543
 20
0.0000000000000037
 30
0.0
 11
78.2469
 21
0.0000000000000037
 31
0.0
  0
LINE
  5
109
330
1E
100
AcDbEntity
  8
0
100
AcDbLine
 10
64.4783
 20
0.0000000000000037
 30
0.0
 11
65.9192
 21
0.0000000000000036
 31
0.0
  0
LINE
  5
10A
330
1E
100
AcDbEntity
  8
0
100
AcDbLine
 10
54.7268
 20
0.0000000000000037
 30
0.0
 11
55.1129
 21
0.0000000000000038
 31
0.0
  0
LINE
  5
10B
330
1E
100
AcDbEntity
  8
0
100
AcDbLine
 10
78.4251
 20
0.0000000000000038
 30
0.0
 11
79.47969999999999
 21
0.0000000000000039
 31
0.0
  0
LINE
  5
10C
330
1E
100
AcDbEntity
  8
0
100
AcDbLine
 10
78.4251
 20
0.0000000000000038
 30
0.0
 11
78.4251
 21
2.0
 31
0.0
  0
LINE
  5
10D
330
1E
100
AcDbEntity
  8
0
100
AcDbLine
 10
78.4251
 20
0.0000000000000038
 30
0.0
 11
79.47969999999999
 21
0.0000000000000038
 31
0.0
  0
LINE
  5
10E
330
1E
100
AcDbEntity
  8
0
100
AcDbLine
 10
33.1143
 20
0.0000000000000041
 30
0.0
 11
33.5003
 21
0.0000000000000042
 31
0.0
  0
LINE
  5
10F
330
1E
100
AcDbEntity
  8
0
100
AcDbLine
 10
31.6734
 20
0.0000000000000041
 30
0.0
 11
32.0595
 21
0.0000000000000042
 31
0.0
  0
LINE
  5
110
330
1E
100
AcDbEntity
  8
0
100
AcDbLine
 10
31.6734
 20
0.0000000000000041
 30
0.0
 11
33.1143
 21
0.0000000000000041
 31
0.0
  0
LINE
  5
111
330
1E
100
AcDbEntity
  8
0
100
AcDbLine
 10
43.92059999999999
 20
0.0000000000000039
 30
0.0
 11
44.3066
 21
0.000000000000004
 31
0.0
  0
LINE
  5
112
330
1E
100
AcDbEntity
  8
0
100
AcDbLine
 10
42.4797
 20
0.0000000000000039
 30
0.0
 11
42.8657
 21
0.000000000000004
 31
0.0
  0
LINE
  5
113
330
1E
100
AcDbEntity
  8
0
100
AcDbLine
 10
42.4797
 20
0.0000000000000039
 30
0.0
 11
42.4797
 21
2.0
 31
0.0
  0
LINE
  5
114
330
1E
100
AcDbEntity
  8
0
100
AcDbLine
 10
42.4797
 20
0.0000000000000039
 30
0.0
 11
43.92059999999999
 21
0.0000000000000039
 31
0.0
  0
LINE
  5
115
330
1E
100
AcDbEntity
  8
0
100
AcDbLine
 10
53.672
 20
0.0000000000000038
 30
0.0
 11
55.1129
 21
0.0000000000000038
 31
0.0
  0
LINE
  5
116
330
1E
100
AcDbEntity
  8
0
100
AcDbLine
 10
44.3066
 20
0.000000000000004
 30
0.0
 11
44.3066
 21
2.0
 31
0.0
  0
LINE
  5
117
330
1E
100
AcDbEntity
  8
0
100
AcDbLine
 10
42.8657
 20
0.000000000000004
 30
0.0
 11
44.3066
 21
0.000000000000004
 31
0.0
  0
LINE
  5
118
330
1E
100
AcDbEntity
  8
0
100
AcDbLine
 10
42.8657
 20
0.000000000000004
 30
0.0
 11
42.8657
 21
2.0
 31
0.0
  0
LINE
  5
119
330
1E
100
AcDbEntity
  8
0
100
AcDbLine
 10
33.5003
 20
0.0000000000000042
 30
0.0
 11
33.5003
 21
2.0
 31
0.0
  0
LINE
  5
11A
330
1E
100
AcDbEntity
  8
0
100
AcDbLine
 10
32.0152
 20
0.0000000000000067
 30
0.0
 11
33.07
 21
0.0000000000000067
 31
0.0
  0
LINE
  5
11B
330
1E
100
AcDbEntity
  8
0
100
AcDbLine
 10
32.0152
 20
0.0000000000000068
 30
0.0
 11
33.07
 21
0.0000000000000067
 31
0.0
  0
LINE
  5
11C
330
1E
100
AcDbEntity
  8
0
100
AcDbLine
 10
32.0152
 20
0.0000000000000068
 30
0.0
 11
32.0152
 21
2.00000000000001
 31
0.0
  0
LINE
  5
11D
330
1E
100
AcDbEntity
  8
0
100
AcDbLine
 10
38.746
 20
0.0000000000000049
 30
0.0
 11
39.4919
 21
0.000000000000005
 31
0.0
  0
LINE
  5
11E
330
1E
100
AcDbEntity
  8
0
100
AcDbLine
 10
37.4543
 20
0.000000000000005
 30
0.0
 11
38.20009999999999
 21
0.0000000000000051
 31
0.0
  0
LINE
  5
11F
330
1E
100
AcDbEntity
  8
0
100
AcDbLine
 10
37.4543
 20
0.000000000000005
 30
0.0
 11
37.4543
 21
2.0
 31
0.0
  0
LINE
  5
120
330
1E
100
AcDbEntity
  8
0
100
AcDbLine
 10
37.4543
 20
0.000000000000005
 30
0.0
 11
38.746
 21
0.0000000000000049
 31
0.0
  0
LINE
  5
121
330
1E
100
AcDbEntity
  8
0
100
AcDbLine
 10
48.43469999999999
 20
0.0000000000000046
 30
0.0
 11
49.1805
 21
0.0000000000000047
 31
0.0
  0
LINE
  5
122
330
1E
100
AcDbEntity
  8
0
100
AcDbLine
 10
47.1429
 20
0.0000000000000047
 30
0.0
 11
47.8888
 21
0.0000000000000047
 31
0.0
  0
LINE
  5
123
330
1E
100
AcDbEntity
  8
0
100
AcDbLine
 10
47.1429
 20
0.0000000000000047
 30
0.0
 11
48.43469999999999
 21
0.0000000000000046
 31
0.0
  0
LINE
  5
124
330
1E
100
AcDbEntity
  8
0
100
AcDbLine
 10
47.8888
 20
0.0000000000000047
 30
0.0
 11
49.1805
 21
0.0000000000000047
 31
0.0
  0
LINE
  5
125
330
1E
100
AcDbEntity
  8
0
100
AcDbLine
 10
33.07
 20
0.0000000000000067
 30
0.0
 11
33.07
 21
2.00000000000001
 31
0.0
  0
LINE
  5
126
330
1E
100
AcDbEntity
  8
0
100
AcDbLine
 10
38.87109999999999
 20
0.0000000000000062
 30
0.0
 11
39.92589999999999
 21
0.0000000000000063
 31
0.0
  0
LINE
  5
127
330
1E
100
AcDbEntity
  8
0
100
AcDbLine
 10
38.87109999999999
 20
0.0000000000000062
 30
0.0
 11
38.87109999999999
 21
2.00000000000001
 31
0.0
  0
LINE
  5
128
330
1E
100
AcDbEntity
  8
0
100
AcDbLine
 10
38.87109999999999
 20
0.0000000000000062
 30
0.0
 11
39.92589999999999
 21
0.0000000000000062
 31
0.0
  0
LINE
  5
129
330
1E
100
AcDbEntity
  8
0
100
AcDbLine
 10
54.6927
 20
0.0000000000000053
 30
0.0
 11
55.7475
 21
0.0000000000000053
 31
0.0
  0
LINE
  5
12A
330
1E
100
AcDbEntity
  8
0
100
AcDbLine
 10
54.6927
 20
0.0000000000000053
 30
0.0
 11
55.7475
 21
0.0000000000000052
 31
0.0
  0
LINE
  5
12B
330
1E
100
AcDbEntity
  8
0
100
AcDbLine
 10
39.92589999999999
 20
0.0000000000000062
 30
0.0
 11
40.98069999999999
 21
0.0000000000000062
 31
0.0
  0
LINE
  5
12C
330
1E
100
AcDbEntity
  8
0
100
AcDbLine
 10
47.83669999999999
 20
0.0000000000000057
 30
0.0
 11
48.8915
 21
0.0000000000000058
 31
0.0
  0
LINE
  5
12D
330
1E
100
AcDbEntity
  8
0
100
AcDbLine
 10
46.78189999999999
 20
0.0000000000000058
 30
0.0
 11
47.83669999999999
 21
0.0000000000000058
 31
0.0
  0
LINE
  5
12E
330
1E
100
AcDbEntity
  8
0
100
AcDbLine
 10
46.78189999999999
 20
0.0000000000000058
 30
0.0
 11
46.78189999999999
 21
2.00000000000001
 31
0.0
  0
LINE
  5
12F
330
1E
100
AcDbEntity
  8
0
100
AcDbLine
 10
46.78189999999999
 20
0.0000000000000058
 30
0.0
 11
47.83669999999999
 21
0.0000000000000057
 31
0.0
  0
LINE
  5
130
330
1E
100
AcDbEntity
  8
0
100
AcDbLine
 10
47.83669999999999
 20
0.0000000000000058
 30
0.0
 11
48.8915
 21
0.0000000000000058
 31
0.0
  0
LINE
  5
131
330
1E
100
AcDbEntity
  8
0
100
AcDbLine
 10
40.98069999999999
 20
0.0000000000000062
 30
0.0
 11
40.98069999999999
 21
2.00000000000001
 31
0.0
  0
LINE
  5
132
330
1E
100
AcDbEntity
  8
0
100
AcDbLine
 10
39.92589999999999
 20
0.0000000000000063
 30
0.0
 11
40.98069999999999
 21
0.0000000000000062
 31
0.0
  0
LINE
  5
133
330
1E
100
AcDbEntity
  8
0
100
AcDbLine
 10
39.92589999999999
 20
0.0000000000000063
 30
0.0
 11
39.92589999999999
 21
2.00000000000001
 31
0.0
  0
LINE
  5
134
330
1E
100
AcDbEntity
  8
0
100
AcDbLine
 10
38.20009999999999
 20
0.0000000000000051
 30
0.0
 11
39.4919
 21
0.000000000000005
 31
0.0
  0
LINE
  5
135
330
1E
100
AcDbEntity
  8
0
100
AcDbLine
 10
38.20009999999999
 20
0.0000000000000051
 30
0.0
 11
38.20009999999999
 21
2.0
 31
0.0
  0
LINE
  5
136
330
1E
100
AcDbEntity
  8
0
100
AcDbLine
 10
58.12339999999999
 20
0.0000000000000043
 30
0.0
 11
58.86919999999999
 21
0.0000000000000043
 31
0.0
  0
LINE
  5
137
330
1E
100
AcDbEntity
  8
0
100
AcDbLine
 10
56.8315
 20
0.0000000000000043
 30
0.0
 11
57.5774
 21
0.0000000000000044
 31
0.0
  0
LINE
  5
138
330
1E
100
AcDbEntity
  8
0
100
AcDbLine
 10
56.8315
 20
0.0000000000000043
 30
0.0
 11
56.8315
 21
2.0
 31
0.0
  0
LINE
  5
139
330
1E
100
AcDbEntity
  8
0
100
AcDbLine
 10
56.8315
 20
0.0000000000000043
 30
0.0
 11
58.12339999999999
 21
0.0000000000000043
 31
0.0
  0
LINE
  5
13A
330
1E
100
AcDbEntity
  8
0
100
AcDbLine
 10
58.86919999999999
 20
0.0000000000000043
 30
0.0
 11
58.86919999999999
 21
2.0
 31
0.0
  0
LINE
  5
13B
330
1E
100
AcDbEntity
  8
0
100
AcDbLine
 10
55.7475
 20
0.0000000000000052
 30
0.0
 11
56.8022
 21
0.0000000000000053
 31
0.0
  0
LINE
  5
13C
330
1E
100
AcDbEntity
  8
0
100
AcDbLine
 10
56.8022
 20
0.0000000000000053
 30
0.0
 11
56.8022
 21
2.0
 31
0.0
  0
LINE
  5
13D
330
1E
100
AcDbEntity
  8
0
100
AcDbLine
 10
55.7475
 20
0.0000000000000053
 30
0.0
 11
56.8022
 21
0.0000000000000053
 31
0.0
  0
LINE
  5
13E
330
1E
100
AcDbEntity
  8
0
100
AcDbLine
 10
55.7475
 20
0.0000000000000053
 30
0.0
 11
55.7475
 21
2.0
 31
0.0
  0
LINE
  5
13F
330
1E
100
AcDbEntity
  8
0
100
AcDbLine
 10
59.76659999999999
 20
0.0000000000000063
 30
0.0
 11
61.0584
 21
0.0000000000000063
 31
0.0
  0
LINE
  5
140
330
1E
100
AcDbEntity
  8
0
100
AcDbLine
 10
59.0208
 20
0.0000000000000063
 30
0.0
 11
60.3126
 21
0.0000000000000064
 31
0.0
  0
LINE
  5
141
330
1E
100
AcDbEntity
  8
0
100
AcDbLine
 10
59.0208
 20
0.0000000000000063
 30
0.0
 11
59.76659999999999
 21
0.0000000000000063
 31
0.0
  0
LINE
  5
142
330
1E
100
AcDbEntity
  8
0
100
AcDbLine
 10
59.0208
 20
0.0000000000000063
 30
0.0
 11
59.0208
 21
2.00000000000001
 31
0.0
  0
LINE
  5
143
330
1E
100
AcDbEntity
  8
0
100
AcDbLine
 10
60.3126
 20
0.0000000000000064
 30
0.0
 11
61.0584
 21
0.0000000000000063
 31
0.0
  0
LINE
  5
144
330
1E
100
AcDbEntity
  8
0
100
AcDbLine
 10
60.3126
 20
0.0000000000000064
 30
0.0
 11
60.3126
 21
2.00000000000001
 31
0.0
  0
LINE
  5
145
330
1E
100
AcDbEntity
  8
0
100
AcDbLine
 10
62.60349999999999
 20
0.0000000000000048
 30
0.0
 11
63.6582
 21
0.0000000000000049
 31
0.0
  0
LINE
  5
146
330
1E
100
AcDbEntity
  8
0
100
AcDbLine
 10
62.60349999999999
 20
0.0000000000000048
 30
0.0
 11
62.60349999999999
 21
2.0
 31
0.0
  0
LINE
  5
147
330
1E
100
AcDbEntity
  8
0
100
AcDbLine
 10
62.60349999999999
 20
0.0000000000000048
 30
0.0
 11
63.6582
 21
0.0000000000000047
 31
0.0
  0
LINE
  5
148
330
1E
100
AcDbEntity
  8
0
100
AcDbLine
 10
61.0584
 20
0.0000000000000063
 30
0.0
 11
61.0584
 21
2.00000000000001
 31
0.0
  0
LINE
  5
149
330
1E
100
AcDbEntity
  8
0
100
AcDbLine
 10
57.5774
 20
0.0000000000000044
 30
0.0
 11
58.86919999999999
 21
0.0000000000000043
 31
0.0
  0
LINE
  5
14A
330
1E
100
AcDbEntity
  8
0
100
AcDbLine
 10
57.5774
 20
0.0000000000000044
 30
0.0
 11
57.5774
 21
2.0
 31
0.0
  0
LINE
  5
14B
330
1E
100
AcDbEntity
  8
0
100
AcDbLine
 10
48.5791
 20
0.0000000000000075
 30
0.0
 11
49.8709
 21
0.0000000000000075
 31
0.0
  0
LINE
  5
14C
330
1E
100
AcDbEntity
  8
0
100
AcDbLine
 10
47.8333
 20
0.0000000000000075
 30
0.0
 11
49.12510000000001
 21
0.0000000000000076
 31
0.0
  0
LINE
  5
14D
330
1E
100
AcDbEntity
  8
0
100
AcDbLine
 10
47.8333
 20
0.0000000000000075
 30
0.0
 11
48.5791
 21
0.0000000000000075
 31
0.0
  0
LINE
  5
14E
330
1E
100
AcDbEntity
  8
0
100
AcDbLine
 10
47.8333
 20
0.0000000000000075
 30
0.0
 11
47.8333
 21
2.00000000000001
 31
0.0
  0
LINE
  5
14F
330
1E
100
AcDbEntity
  8
0
100
AcDbLine
 10
49.12510000000001
 20
0.0000000000000076
 30
0.0
 11
49.8709
 21
0.0000000000000075
 31
0.0
  0
LINE
  5
150
330
1E
100
AcDbEntity
  8
0
100
AcDbLine
 10
49.12510000000001
 20
0.0000000000000076
 30
0.0
 11
49.12510000000001
 21
2.00000000000001
 31
0.0
  0
LINE
  5
151
330
1E
100
AcDbEntity
  8
0
100
AcDbLine
 10
54.1729
 20
0.0000000000000069
 30
0.0
 11
55.46459999999999
 21
0.0000000000000069
 31
0.0
  0
LINE
  5
152
330
1E
100
AcDbEntity
  8
0
100
AcDbLine
 10
53.427
 20
0.0000000000000069
 30
0.0
 11
54.7188
 21
0.000000000000007
 31
0.0
  0
LINE
  5
153
330
1E
100
AcDbEntity
  8
0
100
AcDbLine
 10
53.427
 20
0.0000000000000069
 30
0.0
 11
54.1729
 21
0.0000000000000069
 31
0.0
  0
LINE
  5
154
330
1E
100
AcDbEntity
  8
0
100
AcDbLine
 10
53.427
 20
0.0000000000000069
 30
0.0
 11
53.427
 21
2.00000000000001
 31
0.0
  0
LINE
  5
155
330
1E
100
AcDbEntity
  8
0
100
AcDbLine
 10
54.7188
 20
0.000000000000007
 30
0.0
 11
55.46459999999999
 21
0.0000000000000069
 31
0.0
  0
LINE
  5
156
330
1E
100
AcDbEntity
  8
0
100
AcDbLine
 10
54.7188
 20
0.000000000000007
 30
0.0
 11
54.7188
 21
2.00000000000001
 31
0.0
  0
LINE
  5
157
330
1E
100
AcDbEntity
  8
0
100
AcDbLine
 10
55.46459999999999
 20
0.0000000000000069
 30
0.0
 11
55.46459999999999
 21
2.00000000000001
 31
0.0
  0
LINE
  5
158
330
1E
100
AcDbEntity
  8
0
100
AcDbLine
 10
49.8709
 20
0.0000000000000075
 30
0.0
 11
49.8709
 21
2.00000000000001
 31
0.0
  0
LINE
  5
159
330
1E
100
AcDbEntity
  8
0
100
AcDbLine
 10
32.0595
 20
0.0000000000000042
 30
0.0
 11
33.5003
 21
0.0000000000000042
 31
0.0
  0
LINE
  5
15A
330
1E
100
AcDbEntity
  8
0
100
AcDbLine
 10
63.6582
 20
0.0000000000000047
 30
0.0
 11
64.71300000000001
 21
0.0000000000000048
 31
0.0
  0
LINE
  5
15B
330
1E
100
AcDbEntity
  8
0
100
AcDbLine
 10
63.6582
 20
0.0000000000000049
 30
0.0
 11
64.71300000000001
 21
0.0000000000000048
 31
0.0
  0
LINE
  5
15C
330
1E
100
AcDbEntity
  8
0
100
AcDbLine
 10
63.6582
 20
0.0000000000000049
 30
0.0
 11
63.6582
 21
2.0
 31
0.0
  0
LINE
  5
15D
330
1E
100
AcDbEntity
  8
0
100
AcDbLine
 10
65.36039999999999
 20
0.0000000000000057
 30
0.0
 11
66.6521
 21
0.0000000000000057
 31
0.0
  0
LINE
  5
15E
330
1E
100
AcDbEntity
  8
0
100
AcDbLine
 10
64.61450000000001
 20
0.0000000000000058
 30
0.0
 11
65.9063
 21
0.0000000000000058
 31
0.0
  0
LINE
  5
15F
330
1E
100
AcDbEntity
  8
0
100
AcDbLine
 10
64.61450000000001
 20
0.0000000000000058
 30
0.0
 11
65.36039999999999
 21
0.0000000000000057
 31
0.0
  0
LINE
  5
160
330
1E
100
AcDbEntity
  8
0
100
AcDbLine
 10
64.61450000000001
 20
0.0000000000000058
 30
0.0
 11
64.61450000000001
 21
2.00000000000001
 31
0.0
  0
LINE
  5
161
330
1E
100
AcDbEntity
  8
0
100
AcDbLine
 10
66.6521
 20
0.0000000000000057
 30
0.0
 11
66.6521
 21
2.00000000000001
 31
0.0
  0
LINE
  5
162
330
1E
100
AcDbEntity
  8
0
100
AcDbLine
 10
66.5202
 20
0.000000000000004
 30
0.0
 11
67.26600000000001
 21
0.000000000000004
 31
0.0
  0
LINE
  5
163
330
1E
100
AcDbEntity
  8
0
100
AcDbLine
 10
66.5202
 20
0.000000000000004
 30
0.0
 11
67.8121
 21
0.0000000000000039
 31
0.0
  0
LINE
  5
164
330
1E
100
AcDbEntity
  8
0
100
AcDbLine
 10
79.47969999999999
 20
0.0000000000000039
 30
0.0
 11
80.5343
 21
0.0000000000000038
 31
0.0
  0
LINE
  5
165
330
1E
100
AcDbEntity
  8
0
100
AcDbLine
 10
82.14159999999999
 20
0.0000000000000039
 30
0.0
 11
83.43340000000001
 21
0.0000000000000039
 31
0.0
  0
LINE
  5
166
330
1E
100
AcDbEntity
  8
0
100
AcDbLine
 10
81.3958
 20
0.000000000000004
 30
0.0
 11
82.6876
 21
0.000000000000004
 31
0.0
  0
LINE
  5
167
330
1E
100
AcDbEntity
  8
0
100
AcDbLine
 10
81.3958
 20
0.000000000000004
 30
0.0
 11
82.14159999999999
 21
0.0000000000000039
 31
0.0
  0
LINE
  5
168
330
1E
100
AcDbEntity
  8
0
100
AcDbLine
 10
81.3958
 20
0.000000000000004
 30
0.0
 11
81.3958
 21
2.0
 31
0.0
  0
LINE
  5
169
330
1E
100
AcDbEntity
  8
0
100
AcDbLine
 10
67.8121
 20
0.0000000000000039
 30
0.0
 11
68.5579
 21
0.000000000000004
 31
0.0
  0
LINE
  5
16A
330
1E
100
AcDbEntity
  8
0
100
AcDbLine
 10
71.569
 20
0.0000000000000042
 30
0.0
 11
72.6237
 21
0.0000000000000043
 31
0.0
  0
LINE
  5
16B
330
1E
100
AcDbEntity
  8
0
100
AcDbLine
 10
70.5142
 20
0.0000000000000043
 30
0.0
 11
71.569
 21
0.0000000000000044
 31
0.0
  0
LINE
  5
16C
330
1E
100
AcDbEntity
  8
0
100
AcDbLine
 10
70.5142
 20
0.0000000000000043
 30
0.0
 11
71.569
 21
0.0000000000000042
 31
0.0
  0
LINE
  5
16D
330
1E
100
AcDbEntity
  8
0
100
AcDbLine
 10
72.6237
 20
0.0000000000000043
 30
0.0
 11
72.6237
 21
2.0
 31
0.0
  0
LINE
  5
16E
330
1E
100
AcDbEntity
  8
0
100
AcDbLine
 10
71.569
 20
0.0000000000000044
 30
0.0
 11
72.6237
 21
0.0000000000000043
 31
0.0
  0
LINE
  5
16F
330
1E
100
AcDbEntity
  8
0
100
AcDbLine
 10
70.9541
 20
0.0000000000000051
 30
0.0
 11
72.2459
 21
0.0000000000000051
 31
0.0
  0
LINE
  5
170
330
1E
100
AcDbEntity
  8
0
100
AcDbLine
 10
70.2083
 20
0.0000000000000052
 30
0.0
 11
71.5001
 21
0.0000000000000052
 31
0.0
  0
LINE
  5
171
330
1E
100
AcDbEntity
  8
0
100
AcDbLine
 10
70.2083
 20
0.0000000000000052
 30
0.0
 11
70.9541
 21
0.0000000000000051
 31
0.0
  0
LINE
  5
172
330
1E
100
AcDbEntity
  8
0
100
AcDbLine
 10
70.2083
 20
0.0000000000000052
 30
0.0
 11
70.2083
 21
2.0
 31
0.0
  0
LINE
  5
173
330
1E
100
AcDbEntity
  8
0
100
AcDbLine
 10
71.5001
 20
0.0000000000000052
 30
0.0
 11
72.2459
 21
0.0000000000000051
 31
0.0
  0
LINE
  5
174
330
1E
100
AcDbEntity
  8
0
100
AcDbLine
 10
76.5479
 20
0.0000000000000045
 30
0.0
 11
77.8396
 21
0.0000000000000045
 31
0.0
  0
LINE
  5
175
330
1E
100
AcDbEntity
  8
0
100
AcDbLine
 10
75.80199999999999
 20
0.0000000000000046
 30
0.0
 11
77.0938
 21
0.0000000000000046
 31
0.0
  0
LINE
  5
176
330
1E
100
AcDbEntity
  8
0
100
AcDbLine
 10
75.80199999999999
 20
0.0000000000000046
 30
0.0
 11
76.5479
 21
0.0000000000000045
 31
0.0
  0
LINE
  5
177
330
1E
100
AcDbEntity
  8
0
100
AcDbLine
 10
75.80199999999999
 20
0.0000000000000046
 30
0.0
 11
75.80199999999999
 21
2.0
 31
0.0
  0
LINE
  5
178
330
1E
100
AcDbEntity
  8
0
100
AcDbLine
 10
82.6876
 20
0.000000000000004
 30
0.0
 11
83.43340000000001
 21
0.0000000000000039
 31
0.0
  0
LINE
  5
179
330
1E
100
AcDbEntity
  8
0
100
AcDbLine
 10
82.4094
 20
0.0000000000000047
 30
0.0
 11
83.8503
 21
0.0000000000000047
 31
0.0
  0
LINE
  5
17A
330
1E
100
AcDbEntity
  8
0
100
AcDbLine
 10
82.02299999999999
 20
0.0000000000000047
 30
0.0
 11
83.464
 21
0.0000000000000048
 31
0.0
  0
LINE
  5
17B
330
1E
100
AcDbEntity
  8
0
100
AcDbLine
 10
82.02299999999999
 20
0.0000000000000047
 30
0.0
 11
82.4094
 21
0.0000000000000047
 31
0.0
  0
LINE
  5
17C
330
1E
100
AcDbEntity
  8
0
100
AcDbLine
 10
82.02299999999999
 20
0.0000000000000047
 30
0.0
 11
82.02299999999999
 21
2.0
 31
0.0
  0
LINE
  5
17D
330
1E
100
AcDbEntity
  8
0
100
AcDbLine
 10
83.464
 20
0.0000000000000048
 30
0.0
 11
83.8503
 21
0.0000000000000047
 31
0.0
  0
LINE
  5
17E
330
1E
100
AcDbEntity
  8
0
100
AcDbLine
 10
83.464
 20
0.0000000000000048
 30
0.0
 11
83.464
 21
2.0
 31
0.0
  0
LINE
  5
17F
330
1E
100
AcDbEntity
  8
0
100
AcDbLine
 10
83.8503
 20
0.0000000000000047
 30
0.0
 11
83.8503
 21
2.0
 31
0.0
  0
LINE
  5
180
330
1E
100
AcDbEntity
  8
0
100
AcDbLine
 10
79.51399999999999
 20
0.0000000000000053
 30
0.0
 11
80.95499999999999
 21
0.0000000000000053
 31
0.0
  0
LINE
  5
181
330
1E
100
AcDbEntity
  8
0
100
AcDbLine
 10
79.1277
 20
0.0000000000000054
 30
0.0
 11
80.5686
 21
0.0000000000000054
 31
0.0
  0
LINE
  5
182
330
1E
100
AcDbEntity
  8
0
100
AcDbLine
 10
79.1277
 20
0.0000000000000054
 30
0.0
 11
79.51399999999999
 21
0.0000000000000053
 31
0.0
  0
LINE
  5
183
330
1E
100
AcDbEntity
  8
0
100
AcDbLine
 10
79.1277
 20
0.0000000000000054
 30
0.0
 11
79.1277
 21
2.00000000000001
 31
0.0
  0
LINE
  5
184
330
1E
100
AcDbEntity
  8
0
100
AcDbLine
 10
80.5686
 20
0.0000000000000054
 30
0.0
 11
80.95499999999999
 21
0.0000000000000053
 31
0.0
  0
LINE
  5
185
330
1E
100
AcDbEntity
  8
0
100
AcDbLine
 10
80.5686
 20
0.0000000000000054
 30
0.0
 11
80.5686
 21
2.00000000000001
 31
0.0
  0
LINE
  5
186
330
1E
100
AcDbEntity
  8
0
100
AcDbLine
 10
80.95499999999999
 20
0.0000000000000053
 30
0.0
 11
80.95499999999999
 21
2.0
 31
0.0
  0
LINE
  5
187
330
1E
100
AcDbEntity
  8
0
100
AcDbLine
 10
77.0938
 20
0.0000000000000046
 30
0.0
 11
77.8396
 21
0.0000000000000045
 31
0.0
  0
LINE
  5
188
330
1E
100
AcDbEntity
  8
0
100
AcDbLine
 10
67.26600000000001
 20
0.000000000000004
 30
0.0
 11
68.5579
 21
0.000000000000004
 31
0.0
  0
LINE
  5
189
330
1E
100
AcDbEntity
  8
0
100
AcDbLine
 10
67.26600000000001
 20
0.000000000000004
 30
0.0
 11
67.26600000000001
 21
2.0
 31
0.0
  0
LINE
  5
18A
330
1E
100
AcDbEntity
  8
0
100
AcDbLine
 10
65.9063
 20
0.0000000000000058
 30
0.0
 11
66.6521
 21
0.0000000000000057
 31
0.0
  0
LINE
  5
18B
330
1E
100
AcDbEntity
  8
0
100
AcDbLine
 10
65.9063
 20
0.0000000000000058
 30
0.0
 11
65.9063
 21
2.00000000000001
 31
0.0
  0
LINE
  5
18C
330
1E
100
AcDbEntity
  8
0
100
AcDbLine
 10
73.7228
 20
0.0000000000000066
 30
0.0
 11
75.1636
 21
0.0000000000000067
 31
0.0
  0
LINE
  5
18D
330
1E
100
AcDbEntity
  8
0
100
AcDbLine
 10
76.61799999999999
 20
0.000000000000006
 30
0.0
 11
78.05889999999999
 21
0.000000000000006
 31
0.0
  0
LINE
  5
18E
330
1E
100
AcDbEntity
  8
0
100
AcDbLine
 10
76.2324
 20
0.0000000000000061
 30
0.0
 11
77.6733
 21
0.0000000000000061
 31
0.0
  0
LINE
  5
18F
330
1E
100
AcDbEntity
  8
0
100
AcDbLine
 10
76.2324
 20
0.0000000000000061
 30
0.0
 11
76.61799999999999
 21
0.000000000000006
 31
0.0
  0
LINE
  5
190
330
1E
100
AcDbEntity
  8
0
100
AcDbLine
 10
76.2324
 20
0.0000000000000061
 30
0.0
 11
76.2324
 21
2.00000000000001
 31
0.0
  0
LINE
  5
191
330
1E
100
AcDbEntity
  8
0
100
AcDbLine
 10
77.6733
 20
0.0000000000000061
 30
0.0
 11
78.05889999999999
 21
0.000000000000006
 31
0.0
  0
LINE
  5
192
330
1E
100
AcDbEntity
  8
0
100
AcDbLine
 10
77.6733
 20
0.0000000000000061
 30
0.0
 11
77.6733
 21
2.00000000000001
 31
0.0
  0
LINE
  5
193
330
1E
100
AcDbEntity
  8
0
100
AcDbLine
 10
78.05889999999999
 20
0.000000000000006
 30
0.0
 11
78.05889999999999
 21
2.00000000000001
 31
0.0
  0
LINE
  5
194
330
1E
100
AcDbEntity
  8
0
100
AcDbLine
 10
75.1636
 20
0.0000000000000067
 30
0.0
 11
75.1636
 21
2.00000000000001
 31
0.0
  0
LINE
  5
195
330
1E
100
AcDbEntity
  8
0
100
AcDbLine
 10
67.9317
 20
0.000000000000008
 30
0.0
 11
69.37260000000001
 21
0.000000000000008
 31
0.0
  0
LINE
  5
196
330
1E
100
AcDbEntity
  8
0
100
AcDbLine
 10
67.54559999999999
 20
0.000000000000008
 30
0.0
 11
68.9865
 21
0.0000000000000081
 31
0.0
  0
LINE
  5
197
330
1E
100
AcDbEntity
  8
0
100
AcDbLine
 10
67.54559999999999
 20
0.000000000000008
 30
0.0
 11
67.9317
 21
0.000000000000008
 31
0.0
  0
LINE
  5
198
330
1E
100
AcDbEntity
  8
0
100
AcDbLine
 10
67.54559999999999
 20
0.000000000000008
 30
0.0
 11
67.54559999999999
 21
2.00000000000001
 31
0.0
  0
LINE
  5
199
330
1E
100
AcDbEntity
  8
0
100
AcDbLine
 10
70.82720000000001
 20
0.0000000000000073
 30
0.0
 11
72.2681
 21
0.0000000000000073
 31
0.0
  0
LINE
  5
19A
330
1E
100
AcDbEntity
  8
0
100
AcDbLine
 10
70.44119999999999
 20
0.0000000000000074
 30
0.0
 11
71.88200000000001
 21
0.0000000000000074
 31
0.0
  0
LINE
  5
19B
330
1E
100
AcDbEntity
  8
0
100
AcDbLine
 10
70.44119999999999
 20
0.0000000000000074
 30
0.0
 11
70.82720000000001
 21
0.0000000000000073
 31
0.0
  0
LINE
  5
19C
330
1E
100
AcDbEntity
  8
0
100
AcDbLine
 10
70.44119999999999
 20
0.0000000000000074
 30
0.0
 11
70.44119999999999
 21
2.00000000000001
 31
0.0
  0
LINE
  5
19D
330
1E
100
AcDbEntity
  8
0
100
AcDbLine
 10
71.88200000000001
 20
0.0000000000000074
 30
0.0
 11
72.2681
 21
0.0000000000000073
 31
0.0
  0
LINE
  5
19E
330
1E
100
AcDbEntity
  8
0
100
AcDbLine
 10
71.88200000000001
 20
0.0000000000000074
 30
0.0
 11
71.88200000000001
 21
2.00000000000001
 31
0.0
  0
LINE
  5
19F
330
1E
100
AcDbEntity
  8
0
100
AcDbLine
 10
73.33669999999999
 20
0.0000000000000067
 30
0.0
 11
74.7773
 21
0.0000000000000067
 31
0.0
  0
LINE
  5
1A0
330
1E
100
AcDbEntity
  8
0
100
AcDbLine
 10
73.33669999999999
 20
0.0000000000000067
 30
0.0
 11
73.7228
 21
0.0000000000000066
 31
0.0
  0
LINE
  5
1A1
330
1E
100
AcDbEntity
  8
0
100
AcDbLine
 10
73.33669999999999
 20
0.0000000000000067
 30
0.0
 11
73.33669999999999
 21
2.00000000000001
 31
0.0
  0
LINE
  5
1A2
330
1E
100
AcDbEntity
  8
0
100
AcDbLine
 10
74.7773
 20
0.0000000000000067
 30
0.0
 11
75.1636
 21
0.0000000000000067
 31
0.0
  0
LINE
  5
1A3
330
1E
100
AcDbEntity
  8
0
100
AcDbLine
 10
74.7773
 20
0.0000000000000067
 30
0.0
 11
74.7773
 21
2.00000000000001
 31
0.0
  0
LINE
  5
1A4
330
1E
100
AcDbEntity
  8
0
100
AcDbLine
 10
72.2681
 20
0.0000000000000073
 30
0.0
 11
72.2681
 21
2.00000000000001
 31
0.0
  0
LINE
  5
1A5
330
1E
100
AcDbEntity
  8
0
100
AcDbLine
 10
68.9865
 20
0.0000000000000081
 30
0.0
 11
69.37260000000001
 21
0.000000000000008
 31
0.0
  0
LINE
  5
1A6
330
1E
100
AcDbEntity
  8
0
100
AcDbLine
 10
68.9865
 20
0.0000000000000081
 30
0.0
 11
68.9865
 21
2.00000000000001
 31
0.0
  0
LINE
  5
1A7
330
1E
100
AcDbEntity
  8
0
100
AcDbLine
 10
69.37260000000001
 20
0.000000000000008
 30
0.0
 11
69.37260000000001
 21
2.00000000000001
 31
0.0
  0
LINE
  5
1A8
330
1E
100
AcDbEntity
  8
0
100
AcDbLine
 10
29.8333
 20
0.0000000000000033
 30
0.0
 11
31.325
 21
0.0000000000000033
 31
0.0
  0
LINE
  5
1A9
330
1E
100
AcDbEntity
  8
0
100
AcDbLine
 10
29.8333
 20
0.0000000000000033
 30
0.0
 11
29.8333
 21
2.0
 31
0.0
  0
LINE
  5
1AA
330
1E
100
AcDbEntity
  8
0
100
AcDbLine
 10
85.30469999999999
 20
0.0000000000000024
 30
0.0
 11
86.74559999999999
 21
0.0000000000000024
 31
0.0
  0
LINE
  5
1AB
330
1E
100
AcDbEntity
  8
0
100
AcDbLine
 10
84.9191
 20
0.0000000000000023
 30
0.0
 11
86.36000000000001
 21
0.0000000000000023
 31
0.0
  0
LINE
  5
1AC
330
1E
100
AcDbEntity
  8
0
100
AcDbLine
 10
84.9191
 20
0.0000000000000023
 30
0.0
 11
84.9191
 21
2.0
 31
0.0
  0
LINE
  5
1AD
330
1E
100
AcDbEntity
  8
0
100
AcDbLine
 10
84.9191
 20
0.0000000000000023
 30
0.0
 11
85.30469999999999
 21
0.0000000000000024
 31
0.0
  0
LINE
  5
1AE
330
1E
100
AcDbEntity
  8
0
100
AcDbLine
 10
88.7542
 20
-0.0000000000000017
 30
0.0
 11
90.2458
 21
-0.0000000000000017
 31
0.0
  0
LINE
  5
1AF
330
1E
100
AcDbEntity
  8
0
100
AcDbLine
 10
88.7542
 20
-0.0000000000000017
 30
0.0
 11
88.7542
 21
2.0
 31
0.0
  0
LINE
  5
1B0
330
1E
100
AcDbEntity
  8
0
100
AcDbLine
 10
88.7542
 20
-0.0000000000000018
 30
0.0
 11
90.2458
 21
-0.0000000000000018
 31
0.0
  0
LINE
  5
1B1
330
1E
100
AcDbEntity
  8
0
100
AcDbLine
 10
88.7542
 20
-0.0000000000000018
 30
0.0
 11
88.7542
 21
2.0
 31
0.0
  0
LINE
  5
1B2
330
1E
100
AcDbEntity
  8
0
100
AcDbLine
 10
88.7542
 20
-0.000000000000001
 30
0.0
 11
90.2458
 21
-0.000000000000001
 31
0.0
  0
LINE
  5
1B3
330
1E
100
AcDbEntity
  8
0
100
AcDbLine
 10
88.7542
 20
-0.000000000000001
 30
0.0
 11
88.7542
 21
2.0
 31
0.0
  0
LINE
  5
1B4
330
1E
100
AcDbEntity
  8
0
100
AcDbLine
 10
88.7542
 20
-0.0000000000000011
 30
0.0
 11
90.2458
 21
-0.0000000000000011
 31
0.0
  0
LINE
  5
1B5
330
1E
100
AcDbEntity
  8
0
100
AcDbLine
 10
88.7542
 20
-0.0000000000000011
 30
0.0
 11
88.7542
 21
2.0
 31
0.0
  0
LINE
  5
1B6
330
1E
100
AcDbEntity
  8
0
100
AcDbLine
 10
88.7542
 20
-0.0000000000000004
 30
0.0
 11
90.2458
 21
-0.0000000000000004
 31
0.0
  0
LINE
  5
1B7
330
1E
100
AcDbEntity
  8
0
100
AcDbLine
 10
88.7542
 20
-0.0000000000000004
 30
0.0
 11
88.7542
 21
2.0
 31
0.0
  0
LINE
  5
1B8
330
1E
100
AcDbEntity
  8
0
100
AcDbLine
 10
88.7542
 20
-0.0000000000000004
 30
0.0
 11
90.2458
 21
-0.0000000000000004
 31
0.0
  0
LINE
  5
1B9
330
1E
100
AcDbEntity
  8
0
100
AcDbLine
 10
88.7542
 20
-0.0000000000000004
 30
0.0
 11
88.7542
 21
2.0
 31
0.0
  0
LINE
  5
1BA
330
1E
100
AcDbEntity
  8
0
100
AcDbLine
 10
88.7542
 20
0.0000000000000003
 30
0.0
 11
90.2458
 21
0.0000000000000003
 31
0.0
  0
LINE
  5
1BB
330
1E
100
AcDbEntity
  8
0
100
AcDbLine
 10
88.7542
 20
0.0000000000000003
 30
0.0
 11
88.7542
 21
2.0
 31
0.0
  0
LINE
  5
1BC
330
1E
100
AcDbEntity
  8
0
100
AcDbLine
 10
88.7542
 20
0.0000000000000002
 30
0.0
 11
90.2458
 21
0.0000000000000002
 31
0.0
  0
LINE
  5
1BD
330
1E
100
AcDbEntity
  8
0
100
AcDbLine
 10
88.7542
 20
0.0000000000000002
 30
0.0
 11
88.7542
 21
2.0
 31
0.0
  0
LINE
  5
1BE
330
1E
100
AcDbEntity
  8
0
100
AcDbLine
 10
88.7542
 20
0.000000000000001
 30
0.0
 11
90.2458
 21
0.000000000000001
 31
0.0
  0
LINE
  5
1BF
330
1E
100
AcDbEntity
  8
0
100
AcDbLine
 10
88.7542
 20
0.000000000000001
 30
0.0
 11
88.7542
 21
2.0
 31
0.0
  0
LINE
  5
1C0
330
1E
100
AcDbEntity
  8
0
100
AcDbLine
 10
88.7542
 20
0.0000000000000009
 30
0.0
 11
90.2458
 21
0.0000000000000009
 31
0.0
  0
LINE
  5
1C1
330
1E
100
AcDbEntity
  8
0
100
AcDbLine
 10
88.7542
 20
0.0000000000000009
 30
0.0
 11
88.7542
 21
2.0
 31
0.0
  0
LINE
  5
1C2
330
1E
100
AcDbEntity
  8
0
100
AcDbLine
 10
88.7542
 20
0.0000000000000017
 30
0.0
 11
90.2458
 21
0.0000000000000017
 31
0.0
  0
LINE
  5
1C3
330
1E
100
AcDbEntity
  8
0
100
AcDbLine
 10
88.7542
 20
0.0000000000000017
 30
0.0
 11
88.7542
 21
2.0
 31
0.0
  0
LINE
  5
1C4
330
1E
100
AcDbEntity
  8
0
100
AcDbLine
 10
88.7542
 20
0.0000000000000016
 30
0.0
 11
90.2458
 21
0.0000000000000016
 31
0.0
  0
LINE
  5
1C5
330
1E
100
AcDbEntity
  8
0
100
AcDbLine
 10
88.7542
 20
0.0000000000000016
 30
0.0
 11
88.7542
 21
2.0
 31
0.0
  0
LINE
  5
1C6
330
1E
100
AcDbEntity
  8
0
100
AcDbLine
 10
88.7542
 20
0.0000000000000024
 30
0.0
 11
90.2458
 21
0.0000000000000024
 31
0.0
  0
LINE
  5
1C7
330
1E
100
AcDbEntity
  8
0
100
AcDbLine
 10
88.7542
 20
0.0000000000000024
 30
0.0
 11
88.7542
 21
2.0
 31
0.0
  0
LINE
  5
1C8
330
1E
100
AcDbEntity
  8
0
100
AcDbLine
 10
88.7542
 20
0.0000000000000023
 30
0.0
 11
90.2458
 21
0.0000000000000023
 31
0.0
  0
LINE
  5
1C9
330
1E
100
AcDbEntity
  8
0
100
AcDbLine
 10
88.7542
 20
0.0000000000000023
 30
0.0
 11
88.7542
 21
2.0
 31
0.0
  0
LINE
  5
1CA
330
1E
100
AcDbEntity
  8
0
100
AcDbLine
 10
86.36000000000001
 20
0.0000000000000023
 30
0.0
 11
86.74559999999999
 21
0.0000000000000024
 31
0.0
  0
LINE
  5
1CB
330
1E
100
AcDbEntity
  8
0
100
AcDbLine
 10
92.2544
 20
0.0000000000000024
 30
0.0
 11
92.64000000000001
 21
0.0000000000000023
 31
0.0
  0
LINE
  5
1CC
330
1E
100
AcDbEntity
  8
0
100
AcDbLine
 10
92.2544
 20
0.0000000000000024
 30
0.0
 11
93.69530000000001
 21
0.0000000000000024
 31
0.0
  0
LINE
  5
1CD
330
1E
100
AcDbEntity
  8
0
100
AcDbLine
 10
92.2544
 20
0.0000000000000024
 30
0.0
 11
92.2544
 21
2.0
 31
0.0
  0
LINE
  5
1CE
330
1E
100
AcDbEntity
  8
0
100
AcDbLine
 10
92.64000000000001
 20
0.0000000000000023
 30
0.0
 11
94.08089999999999
 21
0.0000000000000023
 31
0.0
  0
LINE
  5
1CF
330
1E
100
AcDbEntity
  8
0
100
AcDbLine
 10
92.2544
 20
0.000000000000004
 30
0.0
 11
92.64000000000001
 21
0.0000000000000041
 31
0.0
  0
LINE
  5
1D0
330
1E
100
AcDbEntity
  8
0
100
AcDbLine
 10
92.2544
 20
0.000000000000004
 30
0.0
 11
93.69530000000001
 21
0.000000000000004
 31
0.0
  0
LINE
  5
1D1
330
1E
100
AcDbEntity
  8
0
100
AcDbLine
 10
92.2544
 20
0.000000000000004
 30
0.0
 11
92.2544
 21
2.0
 31
0.0
  0
LINE
  5
1D2
330
1E
100
AcDbEntity
  8
0
100
AcDbLine
 10
93.69530000000001
 20
0.000000000000004
 30
0.0
 11
94.08089999999999
 21
0.0000000000000041
 31
0.0
  0
LINE
  5
1D3
330
1E
100
AcDbEntity
  8
0
100
AcDbLine
 10
93.69530000000001
 20
0.0000000000000024
 30
0.0
 11
94.08089999999999
 21
0.0000000000000023
 31
0.0
  0
LINE
  5
1D4
330
1E
100
AcDbEntity
  8
0
100
AcDbLine
 10
85.30469999999999
 20
0.000000000000004
 30
0.0
 11
86.74559999999999
 21
0.000000000000004
 31
0.0
  0
LINE
  5
1D5
330
1E
100
AcDbEntity
  8
0
100
AcDbLine
 10
84.9191
 20
0.0000000000000041
 30
0.0
 11
86.36000000000001
 21
0.0000000000000041
 31
0.0
  0
LINE
  5
1D6
330
1E
100
AcDbEntity
  8
0
100
AcDbLine
 10
84.9191
 20
0.0000000000000041
 30
0.0
 11
85.30469999999999
 21
0.000000000000004
 31
0.0
  0
LINE
  5
1D7
330
1E
100
AcDbEntity
  8
0
100
AcDbLine
 10
84.9191
 20
0.0000000000000041
 30
0.0
 11
84.9191
 21
2.0
 31
0.0
  0
LINE
  5
1D8
330
1E
100
AcDbEntity
  8
0
100
AcDbLine
 10
88.7542
 20
0.000000000000004
 30
0.0
 11
90.2458
 21
0.000000000000004
 31
0.0
  0
LINE
  5
1D9
330
1E
100
AcDbEntity
  8
0
100
AcDbLine
 10
88.7542
 20
0.000000000000004
 30
0.0
 11
88.7542
 21
2.0
 31
0.0
  0
LINE
  5
1DA
330
1E
100
AcDbEntity
  8
0
100
AcDbLine
 10
88.7542
 20
0.0000000000000041
 30
0.0
 11
90.2458
 21
0.0000000000000041
 31
0.0
  0
LINE
  5
1DB
330
1E
100
AcDbEntity
  8
0
100
AcDbLine
 10
88.7542
 20
0.0000000000000041
 30
0.0
 11
88.7542
 21
2.0
 31
0.0
  0
LINE
  5
1DC
330
1E
100
AcDbEntity
  8
0
100
AcDbLine
 10
94.08089999999999
 20
0.0000000000000041
 30
0.0
 11
94.08089999999999
 21
2.0
 31
0.0
  0
LINE
  5
1DD
330
1E
100
AcDbEntity
  8
0
100
AcDbLine
 10
92.64000000000001
 20
0.0000000000000041
 30
0.0
 11
94.08089999999999
 21
0.0000000000000041
 31
0.0
  0
LINE
  5
1DE
330
1E
100
AcDbEntity
  8
0
100
AcDbLine
 10
92.64000000000001
 20
0.0000000000000041
 30
0.0
 11
92.64000000000001
 21
2.0
 31
0.0
  0
LINE
  5
1DF
330
1E
100
AcDbEntity
  8
0
100
AcDbLine
 10
88.7542
 20
0.0000000000000047
 30
0.0
 11
90.2458
 21
0.0000000000000047
 31
0.0
  0
LINE
  5
1E0
330
1E
100
AcDbEntity
  8
0
100
AcDbLine
 10
88.7542
 20
0.0000000000000047
 30
0.0
 11
88.7542
 21
2.0
 31
0.0
  0
LINE
  5
1E1
330
1E
100
AcDbEntity
  8
0
100
AcDbLine
 10
88.7542
 20
0.0000000000000048
 30
0.0
 11
90.2458
 21
0.0000000000000048
 31
0.0
  0
LINE
  5
1E2
330
1E
100
AcDbEntity
  8
0
100
AcDbLine
 10
88.7542
 20
0.0000000000000048
 30
0.0
 11
88.7542
 21
2.0
 31
0.0
  0
LINE
  5
1E3
330
1E
100
AcDbEntity
  8
0
100
AcDbLine
 10
88.7542
 20
0.0000000000000054
 30
0.0
 11
90.2458
 21
0.0000000000000054
 31
0.0
  0
LINE
  5
1E4
330
1E
100
AcDbEntity
  8
0
100
AcDbLine
 10
88.7542
 20
0.0000000000000054
 30
0.0
 11
88.7542
 21
2.00000000000001
 31
0.0
  0
LINE
  5
1E5
330
1E
100
AcDbEntity
  8
0
100
AcDbLine
 10
88.7542
 20
0.0000000000000055
 30
0.0
 11
90.2458
 21
0.0000000000000055
 31
0.0
  0
LINE
  5
1E6
330
1E
100
AcDbEntity
  8
0
100
AcDbLine
 10
88.7542
 20
0.0000000000000055
 30
0.0
 11
88.7542
 21
2.00000000000001
 31
0.0
  0
LINE
  5
1E7
330
1E
100
AcDbEntity
  8
0
100
AcDbLine
 10
88.7542
 20
0.0000000000000061
 30
0.0
 11
90.2458
 21
0.0000000000000061
 31
0.0
  0
LINE
  5
1E8
330
1E
100
AcDbEntity
  8
0
100
AcDbLine
 10
88.7542
 20
0.0000000000000061
 30
0.0
 11
88.7542
 21
2.00000000000001
 31
0.0
  0
LINE
  5
1E9
330
1E
100
AcDbEntity
  8
0
100
AcDbLine
 10
88.7542
 20
0.0000000000000068
 30
0.0
 11
90.2458
 21
0.0000000000000068
 31
0.0
  0
LINE
  5
1EA
330
1E
100
AcDbEntity
  8
0
100
AcDbLine
 10
88.7542
 20
0.0000000000000068
 30
0.0
 11
88.7542
 21
2.00000000000001
 31
0.0
  0
LINE
  5
1EB
330
1E
100
AcDbEntity
  8
0
100
AcDbLine
 10
88.7542
 20
0.0000000000000069
 30
0.0
 11
90.2458
 21
0.0000000000000069
 31
0.0
  0
LINE
  5
1EC
330
1E
100
AcDbEntity
  8
0
100
AcDbLine
 10
88.7542
 20
0.0000000000000069
 30
0.0
 11
88.7542
 21
2.00000000000001
 31
0.0
  0
LINE
  5
1ED
330
1E
100
AcDbEntity
  8
0
100
AcDbLine
 10
88.7542
 20
0.0000000000000075
 30
0.0
 11
90.2458
 21
0.0000000000000075
 31
0.0
  0
LINE
  5
1EE
330
1E
100
AcDbEntity
  8
0
100
AcDbLine
 10
88.7542
 20
0.0000000000000075
 30
0.0
 11
88.7542
 21
2.00000000000001
 31
0.0
  0
LINE
  5
1EF
330
1E
100
AcDbEntity
  8
0
100
AcDbLine
 10
88.7542
 20
0.0000000000000075
 30
0.0
 11
90.2458
 21
0.0000000000000075
 31
0.0
  0
LINE
  5
1F0
330
1E
100
AcDbEntity
  8
0
100
AcDbLine
 10
88.7542
 20
0.0000000000000075
 30
0.0
 11
88.7542
 21
2.00000000000001
 31
0.0
  0
LINE
  5
1F1
330
1E
100
AcDbEntity
  8
0
100
AcDbLine
 10
88.7542
 20
0.0000000000000081
 30
0.0
 11
90.2458
 21
0.0000000000000081
 31
0.0
  0
LINE
  5
1F2
330
1E
100
AcDbEntity
  8
0
100
AcDbLine
 10
88.7542
 20
0.0000000000000081
 30
0.0
 11
88.7542
 21
2.00000000000001
 31
0.0
  0
LINE
  5
1F3
330
1E
100
AcDbEntity
  8
0
100
AcDbLine
 10
88.7542
 20
0.0000000000000082
 30
0.0
 11
90.2458
 21
0.0000000000000082
 31
0.0
  0
LINE
  5
1F4
330
1E
100
AcDbEntity
  8
0
100
AcDbLine
 10
88.7542
 20
0.0000000000000082
 30
0.0
 11
88.7542
 21
2.00000000000001
 31
0.0
  0
LINE
  5
1F5
330
1E
100
AcDbEntity
  8
0
100
AcDbLine
 10
90.2458
 20
0.0000000000000082
 30
0.0
 11
90.2458
 21
2.00000000000001
 31
0.0
  0
LINE
  5
1F6
330
1E
100
AcDbEntity
  8
0
100
AcDbLine
 10
88.7542
 20
0.0000000000000062
 30
0.0
 11
90.2458
 21
0.0000000000000062
 31
0.0
  0
LINE
  5
1F7
330
1E
100
AcDbEntity
  8
0
100
AcDbLine
 10
88.7542
 20
0.0000000000000062
 30
0.0
 11
88.7542
 21
2.00000000000001
 31
0.0
  0
LINE
  5
1F8
330
1E
100
AcDbEntity
  8
0
100
AcDbLine
 10
86.36000000000001
 20
0.0000000000000041
 30
0.0
 11
86.74559999999999
 21
0.000000000000004
 31
0.0
  0
LINE
  5
1F9
330
1E
100
AcDbEntity
  8
0
100
AcDbLine
 10
86.36000000000001
 20
0.0000000000000041
 30
0.0
 11
86.36000000000001
 21
2.0
 31
0.0
  0
LINE
  5
1FA
330
1E
100
AcDbEntity
  8
0
100
AcDbLine
 10
86.74559999999999
 20
0.000000000000004
 30
0.0
 11
86.74559999999999
 21
2.0
 31
0.0
  0
LINE
  5
1FB
330
1E
100
AcDbEntity
  8
0
100
AcDbLine
 10
83.8503
 20
2.0
 30
0.0
 11
84.9191
 21
2.0
 31
0.0
  0
LINE
  5
1FC
330
1E
100
AcDbEntity
  8
0
100
AcDbLine
 10
86.74559999999999
 20
2.0
 30
0.0
 11
88.7542
 21
2.0
 31
0.0
  0
LINE
  5
1FD
330
1E
100
AcDbEntity
  8
0
100
AcDbLine
 10
95.14969999999999
 20
0.0000000000000017
 30
0.0
 11
95.53600000000001
 21
0.0000000000000017
 31
0.0
  0
LINE
  5
1FE
330
1E
100
AcDbEntity
  8
0
100
AcDbLine
 10
95.14969999999999
 20
0.0000000000000017
 30
0.0
 11
96.5906
 21
0.0000000000000018
 31
0.0
  0
LINE
  5
1FF
330
1E
100
AcDbEntity
  8
0
100
AcDbLine
 10
95.14969999999999
 20
0.0000000000000017
 30
0.0
 11
95.14969999999999
 21
2.0
 31
0.0
  0
LINE
  5
200
330
1E
100
AcDbEntity
  8
0
100
AcDbLine
 10
95.53600000000001
 20
0.0000000000000017
 30
0.0
 11
96.97700000000001
 21
0.0000000000000017
 31
0.0
  0
LINE
  5
201
330
1E
100
AcDbEntity
  8
0
100
AcDbLine
 10
95.56659999999999
 20
0.0000000000000025
 30
0.0
 11
96.3124
 21
0.0000000000000024
 31
0.0
  0
LINE
  5
202
330
1E
100
AcDbEntity
  8
0
100
AcDbLine
 10
95.56659999999999
 20
0.0000000000000025
 30
0.0
 11
96.8584
 21
0.0000000000000025
 31
0.0
  0
LINE
  5
203
330
1E
100
AcDbEntity
  8
0
100
AcDbLine
 10
98.045
 20
0.0000000000000011
 30
0.0
 11
98.4314
 21
0.000000000000001
 31
0.0
  0
LINE
  5
204
330
1E
100
AcDbEntity
  8
0
100
AcDbLine
 10
98.045
 20
0.0000000000000011
 30
0.0
 11
99.486
 21
0.0000000000000011
 31
0.0
  0
LINE
  5
205
330
1E
100
AcDbEntity
  8
0
100
AcDbLine
 10
98.045
 20
0.0000000000000011
 30
0.0
 11
98.045
 21
2.0
 31
0.0
  0
LINE
  5
206
330
1E
100
AcDbEntity
  8
0
100
AcDbLine
 10
98.4314
 20
0.000000000000001
 30
0.0
 11
99.8723
 21
0.000000000000001
 31
0.0
  0
LINE
  5
207
330
1E
100
AcDbEntity
  8
0
100
AcDbLine
 10
99.486
 20
0.0000000000000011
 30
0.0
 11
99.8723
 21
0.000000000000001
 31
0.0
  0
LINE
  5
208
330
1E
100
AcDbEntity
  8
0
100
AcDbLine
 10
96.5906
 20
0.0000000000000018
 30
0.0
 11
96.97700000000001
 21
0.0000000000000017
 31
0.0
  0
LINE
  5
209
330
1E
100
AcDbEntity
  8
0
100
AcDbLine
 10
96.3124
 20
0.0000000000000024
 30
0.0
 11
97.60420000000001
 21
0.0000000000000024
 31
0.0
  0
LINE
  5
20A
330
1E
100
AcDbEntity
  8
0
100
AcDbLine
 10
95.56659999999999
 20
0.0000000000000039
 30
0.0
 11
96.3124
 21
0.000000000000004
 31
0.0
  0
LINE
  5
20B
330
1E
100
AcDbEntity
  8
0
100
AcDbLine
 10
95.56659999999999
 20
0.0000000000000039
 30
0.0
 11
96.8584
 21
0.0000000000000039
 31
0.0
  0
LINE
  5
20C
330
1E
100
AcDbEntity
  8
0
100
AcDbLine
 10
96.3124
 20
0.000000000000004
 30
0.0
 11
97.60420000000001
 21
0.000000000000004
 31
0.0
  0
LINE
  5
20D
330
1E
100
AcDbEntity
  8
0
100
AcDbLine
 10
96.8584
 20
0.0000000000000039
 30
0.0
 11
97.60420000000001
 21
0.000000000000004
 31
0.0
  0
LINE
  5
20E
330
1E
100
AcDbEntity
  8
0
100
AcDbLine
 10
97.60420000000001
 20
0.000000000000004
 30
0.0
 11
97.60420000000001
 21
2.0
 31
0.0
  0
LINE
  5
20F
330
1E
100
AcDbEntity
  8
0
100
AcDbLine
 10
95.14969999999999
 20
0.0000000000000047
 30
0.0
 11
95.53600000000001
 21
0.0000000000000048
 31
0.0
  0
LINE
  5
210
330
1E
100
AcDbEntity
  8
0
100
AcDbLine
 10
95.14969999999999
 20
0.0000000000000047
 30
0.0
 11
96.5906
 21
0.0000000000000047
 31
0.0
  0
LINE
  5
211
330
1E
100
AcDbEntity
  8
0
100
AcDbLine
 10
95.14969999999999
 20
0.0000000000000047
 30
0.0
 11
95.14969999999999
 21
2.0
 31
0.0
  0
LINE
  5
212
330
1E
100
AcDbEntity
  8
0
100
AcDbLine
 10
95.53600000000001
 20
0.0000000000000048
 30
0.0
 11
96.97700000000001
 21
0.0000000000000047
 31
0.0
  0
LINE
  5
213
330
1E
100
AcDbEntity
  8
0
100
AcDbLine
 10
95.53600000000001
 20
0.0000000000000048
 30
0.0
 11
95.53600000000001
 21
2.0
 31
0.0
  0
LINE
  5
214
330
1E
100
AcDbEntity
  8
0
100
AcDbLine
 10
96.97700000000001
 20
0.0000000000000047
 30
0.0
 11
96.97700000000001
 21
2.0
 31
0.0
  0
LINE
  5
215
330
1E
100
AcDbEntity
  8
0
100
AcDbLine
 10
96.5906
 20
0.0000000000000047
 30
0.0
 11
96.97700000000001
 21
0.0000000000000047
 31
0.0
  0
LINE
  5
216
330
1E
100
AcDbEntity
  8
0
100
AcDbLine
 10
98.46569999999999
 20
0.0000000000000026
 30
0.0
 11
99.5203
 21
0.0000000000000025
 31
0.0
  0
LINE
  5
217
330
1E
100
AcDbEntity
  8
0
100
AcDbLine
 10
98.46569999999999
 20
0.0000000000000026
 30
0.0
 11
99.5203
 21
0.0000000000000027
 31
0.0
  0
LINE
  5
218
330
1E
100
AcDbEntity
  8
0
100
AcDbLine
 10
99.5203
 20
0.0000000000000025
 30
0.0
 11
100.575
 21
0.0000000000000026
 31
0.0
  0
LINE
  5
219
330
1E
100
AcDbEntity
  8
0
100
AcDbLine
 10
98.46569999999999
 20
0.0000000000000038
 30
0.0
 11
99.5203
 21
0.0000000000000039
 31
0.0
  0
LINE
  5
21A
330
1E
100
AcDbEntity
  8
0
100
AcDbLine
 10
98.46569999999999
 20
0.0000000000000038
 30
0.0
 11
99.5203
 21
0.0000000000000038
 31
0.0
  0
LINE
  5
21B
330
1E
100
AcDbEntity
  8
0
100
AcDbLine
 10
99.5203
 20
0.0000000000000039
 30
0.0
 11
100.575
 21
0.0000000000000038
 31
0.0
  0
LINE
  5
21C
330
1E
100
AcDbEntity
  8
0
100
AcDbLine
 10
99.5203
 20
0.0000000000000038
 30
0.0
 11
100.575
 21
0.0000000000000038
 31
0.0
  0
LINE
  5
21D
330
1E
100
AcDbEntity
  8
0
100
AcDbLine
 10
98.045
 20
0.0000000000000053
 30
0.0
 11
98.4314
 21
0.0000000000000054
 31
0.0
  0
LINE
  5
21E
330
1E
100
AcDbEntity
  8
0
100
AcDbLine
 10
98.045
 20
0.0000000000000053
 30
0.0
 11
99.486
 21
0.0000000000000053
 31
0.0
  0
LINE
  5
21F
330
1E
100
AcDbEntity
  8
0
100
AcDbLine
 10
98.045
 20
0.0000000000000053
 30
0.0
 11
98.045
 21
2.0
 31
0.0
  0
LINE
  5
220
330
1E
100
AcDbEntity
  8
0
100
AcDbLine
 10
98.4314
 20
0.0000000000000054
 30
0.0
 11
99.8723
 21
0.0000000000000054
 31
0.0
  0
LINE
  5
221
330
1E
100
AcDbEntity
  8
0
100
AcDbLine
 10
98.4314
 20
0.0000000000000054
 30
0.0
 11
98.4314
 21
2.00000000000001
 31
0.0
  0
LINE
  5
222
330
1E
100
AcDbEntity
  8
0
100
AcDbLine
 10
99.486
 20
0.0000000000000053
 30
0.0
 11
99.8723
 21
0.0000000000000054
 31
0.0
  0
LINE
  5
223
330
1E
100
AcDbEntity
  8
0
100
AcDbLine
 10
100.575
 20
0.0000000000000038
 30
0.0
 11
100.575
 21
2.0
 31
0.0
  0
LINE
  5
224
330
1E
100
AcDbEntity
  8
0
100
AcDbLine
 10
99.8723
 20
0.0000000000000054
 30
0.0
 11
99.8723
 21
2.00000000000001
 31
0.0
  0
LINE
  5
225
330
1E
100
AcDbEntity
  8
0
100
AcDbLine
 10
99.5203
 20
0.0000000000000027
 30
0.0
 11
100.575
 21
0.0000000000000026
 31
0.0
  0
LINE
  5
226
330
1E
100
AcDbEntity
  8
0
100
AcDbLine
 10
96.8584
 20
0.0000000000000025
 30
0.0
 11
97.60420000000001
 21
0.0000000000000024
 31
0.0
  0
LINE
  5
227
330
1E
100
AcDbEntity
  8
0
100
AcDbLine
 10
94.08089999999999
 20
2.0
 30
0.0
 11
95.14969999999999
 21
2.0
 31
0.0
  0
LINE
  5
228
330
1E
100
AcDbEntity
  8
0
100
AcDbLine
 10
58.86919999999999
 20
2.0
 30
0.0
 11
59.0208
 21
2.0
 31
0.0
  0
LINE
  5
229
330
1E
100
AcDbEntity
  8
0
100
AcDbLine
 10
61.0584
 20
2.0
 30
0.0
 11
62.60349999999999
 21
2.0
 31
0.0
  0
LINE
  5
22A
330
1E
100
AcDbEntity
  8
0
100
AcDbLine
 10
69.37260000000001
 20
2.0
 30
0.0
 11
70.2083
 21
2.0
 31
0.0
  0
LINE
  5
22B
330
1E
100
AcDbEntity
  8
0
100
AcDbLine
 10
72.6237
 20
2.0
 30
0.0
 11
73.33669999999999
 21
2.0
 31
0.0
  0
LINE
  5
22C
330
1E
100
AcDbEntity
  8
0
100
AcDbLine
 10
88.7542
 20
2.0
 30
0.0
 11
88.7542
 21
-0.000000000000002
 31
0.0
  0
LINE
  5
22D
330
1E
100
AcDbEntity
  8
0
100
AcDbLine
 10
80.95499999999999
 20
2.0
 30
0.0
 11
81.3958
 21
2.0
 31
0.0
  0
LINE
  5
22E
330
1E
100
AcDbEntity
  8
0
100
AcDbLine
 10
44.3066
 20
2.0
 30
0.0
 11
45.3467
 21
2.0
 31
0.0
  0
LINE
  5
22F
330
1E
100
AcDbEntity
  8
0
100
AcDbLine
 10
26.85
 20
2.0
 30
0.0
 11
27.76559999999999
 21
2.0
 31
0.0
  0
LINE
  5
230
330
1E
100
AcDbEntity
  8
0
100
AcDbLine
 10
33.5003
 20
2.0
 30
0.0
 11
35.5762
 21
2.0
 31
0.0
  0
LINE
  5
231
330
1E
100
AcDbEntity
  8
0
100
AcDbLine
 10
35.5762
 20
2.0
 30
0.0
 11
37.4543
 21
2.0
 31
0.0
  0
LINE
  5
232
330
1E
100
AcDbEntity
  8
0
100
AcDbLine
 10
45.3467
 20
2.0
 30
0.0
 11
46.78189999999999
 21
2.0
 31
0.0
  0
LINE
  5
233
330
1E
100
AcDbEntity
  8
0
100
AcDbLine
 10
88.7542
 20
2.0
 30
0.0
 11
88.7542
 21
-0.0000000000000016
 31
0.0
  0
LINE
  5
234
330
1E
100
AcDbEntity
  8
0
100
AcDbLine
 10
88.7542
 20
2.0
 30
0.0
 11
88.7542
 21
-0.0000000000000012
 31
0.0
  0
LINE
  5
235
330
1E
100
AcDbEntity
  8
0
100
AcDbLine
 10
49.8709
 20
2.0
 30
0.0
 11
52.2083
 21
2.0
 31
0.0
  0
LINE
  5
236
330
1E
100
AcDbEntity
  8
0
100
AcDbLine
 10
78.2469
 20
2.0
 30
0.0
 11
78.4251
 21
2.0
 31
0.0
  0
LINE
  5
237
330
1E
100
AcDbEntity
  8
0
100
AcDbLine
 10
97.60420000000001
 20
2.0
 30
0.0
 11
98.045
 21
2.0
 31
0.0
  0
LINE
  5
238
330
1E
100
AcDbEntity
  8
0
100
AcDbLine
 10
90.2458
 20
2.0
 30
0.0
 11
92.2544
 21
2.0
 31
0.0
  0
LINE
  5
239
330
1E
100
AcDbEntity
  8
0
100
AcDbLine
 10
100.941
 20
0.0000000000000004
 30
0.0
 11
101.327
 21
0.0000000000000003
 31
0.0
  0
LINE
  5
23A
330
1E
100
AcDbEntity
  8
0
100
AcDbLine
 10
100.941
 20
0.0000000000000004
 30
0.0
 11
102.382
 21
0.0000000000000004
 31
0.0
  0
LINE
  5
23B
330
1E
100
AcDbEntity
  8
0
100
AcDbLine
 10
101.327
 20
0.0000000000000003
 30
0.0
 11
102.7679999999999
 21
0.0000000000000004
 31
0.0
  0
LINE
  5
23C
330
1E
100
AcDbEntity
  8
0
100
AcDbLine
 10
101.16
 20
0.0000000000000019
 30
0.0
 11
101.906
 21
0.0000000000000018
 31
0.0
  0
LINE
  5
23D
330
1E
100
AcDbEntity
  8
0
100
AcDbLine
 10
101.16
 20
0.0000000000000019
 30
0.0
 11
102.452
 21
0.0000000000000019
 31
0.0
  0
LINE
  5
23E
330
1E
100
AcDbEntity
  8
0
100
AcDbLine
 10
101.906
 20
0.0000000000000018
 30
0.0
 11
103.1979999999999
 21
0.0000000000000018
 31
0.0
  0
LINE
  5
23F
330
1E
100
AcDbEntity
  8
0
100
AcDbLine
 10
100.7529999999999
 20
0.0000000000000028
 30
0.0
 11
102.046
 21
0.0000000000000027
 31
0.0
  0
LINE
  5
240
330
1E
100
AcDbEntity
  8
0
100
AcDbLine
 10
100.7529999999999
 20
0.0000000000000028
 30
0.0
 11
101.499
 21
0.0000000000000028
 31
0.0
  0
LINE
  5
241
330
1E
100
AcDbEntity
  8
0
100
AcDbLine
 10
100.7529999999999
 20
0.0000000000000028
 30
0.0
 11
100.7529999999999
 21
2.0
 31
0.0
  0
LINE
  5
242
330
1E
100
AcDbEntity
  8
0
100
AcDbLine
 10
102.046
 20
0.0000000000000027
 30
0.0
 11
102.7909999999999
 21
0.0000000000000028
 31
0.0
  0
LINE
  5
243
330
1E
100
AcDbEntity
  8
0
100
AcDbLine
 10
101.499
 20
0.0000000000000028
 30
0.0
 11
102.7909999999999
 21
0.0000000000000028
 31
0.0
  0
LINE
  5
244
330
1E
100
AcDbEntity
  8
0
100
AcDbLine
 10
102.382
 20
0.0000000000000004
 30
0.0
 11
102.7679999999999
 21
0.0000000000000004
 31
0.0
  0
LINE
  5
245
330
1E
100
AcDbEntity
  8
0
100
AcDbLine
 10
102.452
 20
0.0000000000000019
 30
0.0
 11
103.1979999999999
 21
0.0000000000000018
 31
0.0
  0
LINE
  5
246
330
1E
100
AcDbEntity
  8
0
100
AcDbLine
 10
102.275
 20
0.000000000000003
 30
0.0
 11
103.716
 21
0.0000000000000029
 31
0.0
  0
LINE
  5
247
330
1E
100
AcDbEntity
  8
0
100
AcDbLine
 10
102.275
 20
0.000000000000003
 30
0.0
 11
102.6599999999999
 21
0.000000000000003
 31
0.0
  0
LINE
  5
248
330
1E
100
AcDbEntity
  8
0
100
AcDbLine
 10
102.6599999999999
 20
0.000000000000003
 30
0.0
 11
104.1009999999999
 21
0.000000000000003
 31
0.0
  0
LINE
  5
249
330
1E
100
AcDbEntity
  8
0
100
AcDbLine
 10
103.8359999999999
 20
-0.0000000000000002
 30
0.0
 11
104.2229999999999
 21
-0.0000000000000003
 31
0.0
  0
LINE
  5
24A
330
1E
100
AcDbEntity
  8
0
100
AcDbLine
 10
103.8359999999999
 20
-0.0000000000000002
 30
0.0
 11
105.2769999999999
 21
-0.0000000000000002
 31
0.0
  0
LINE
  5
24B
330
1E
100
AcDbEntity
  8
0
100
AcDbLine
 10
104.2229999999999
 20
-0.0000000000000003
 30
0.0
 11
105.6629999999999
 21
-0.0000000000000003
 31
0.0
  0
LINE
  5
24C
330
1E
100
AcDbEntity
  8
0
100
AcDbLine
 10
103.716
 20
0.0000000000000029
 30
0.0
 11
104.1009999999999
 21
0.000000000000003
 31
0.0
  0
LINE
  5
24D
330
1E
100
AcDbEntity
  8
0
100
AcDbLine
 10
102.9249999999999
 20
0.0000000000000032
 30
0.0
 11
104.417
 21
0.0000000000000032
 31
0.0
  0
LINE
  5
24E
330
1E
100
AcDbEntity
  8
0
100
AcDbLine
 10
106.732
 20
-0.0000000000000009
 30
0.0
 11
107.118
 21
-0.000000000000001
 31
0.0
  0
LINE
  5
24F
330
1E
100
AcDbEntity
  8
0
100
AcDbLine
 10
106.732
 20
-0.0000000000000009
 30
0.0
 11
108.1729999999999
 21
-0.0000000000000009
 31
0.0
  0
LINE
  5
250
330
1E
100
AcDbEntity
  8
0
100
AcDbLine
 10
105.2769999999999
 20
-0.0000000000000002
 30
0.0
 11
105.6629999999999
 21
-0.0000000000000003
 31
0.0
  0
LINE
  5
251
330
1E
100
AcDbEntity
  8
0
100
AcDbLine
 10
107.118
 20
-0.000000000000001
 30
0.0
 11
108.559
 21
-0.000000000000001
 31
0.0
  0
LINE
  5
252
330
1E
100
AcDbEntity
  8
0
100
AcDbLine
 10
106.7539999999999
 20
0.0000000000000013
 30
0.0
 11
107.4999999999999
 21
0.0000000000000012
 31
0.0
  0
LINE
  5
253
330
1E
100
AcDbEntity
  8
0
100
AcDbLine
 10
106.7539999999999
 20
0.0000000000000013
 30
0.0
 11
108.046
 21
0.0000000000000013
 31
0.0
  0
LINE
  5
254
330
1E
100
AcDbEntity
  8
0
100
AcDbLine
 10
106.376
 20
0.0000000000000021
 30
0.0
 11
107.431
 21
0.000000000000002
 31
0.0
  0
LINE
  5
255
330
1E
100
AcDbEntity
  8
0
100
AcDbLine
 10
106.376
 20
0.0000000000000021
 30
0.0
 11
107.431
 21
0.0000000000000022
 31
0.0
  0
LINE
  5
256
330
1E
100
AcDbEntity
  8
0
100
AcDbLine
 10
106.376
 20
0.0000000000000021
 30
0.0
 11
106.376
 21
2.0
 31
0.0
  0
LINE
  5
257
330
1E
100
AcDbEntity
  8
0
100
AcDbLine
 10
107.4999999999999
 20
0.0000000000000012
 30
0.0
 11
108.7919999999999
 21
0.0000000000000013
 31
0.0
  0
LINE
  5
258
330
1E
100
AcDbEntity
  8
0
100
AcDbLine
 10
108.1729999999999
 20
-0.0000000000000009
 30
0.0
 11
108.559
 21
-0.000000000000001
 31
0.0
  0
LINE
  5
259
330
1E
100
AcDbEntity
  8
0
100
AcDbLine
 10
108.046
 20
0.0000000000000013
 30
0.0
 11
108.7919999999999
 21
0.0000000000000013
 31
0.0
  0
LINE
  5
25A
330
1E
100
AcDbEntity
  8
0
100
AcDbLine
 10
107.431
 20
0.000000000000002
 30
0.0
 11
108.486
 21
0.0000000000000021
 31
0.0
  0
LINE
  5
25B
330
1E
100
AcDbEntity
  8
0
100
AcDbLine
 10
107.431
 20
0.0000000000000022
 30
0.0
 11
108.486
 21
0.0000000000000021
 31
0.0
  0
LINE
  5
25C
330
1E
100
AcDbEntity
  8
0
100
AcDbLine
 10
101.499
 20
0.0000000000000036
 30
0.0
 11
102.7909999999999
 21
0.0000000000000036
 31
0.0
  0
LINE
  5
25D
330
1E
100
AcDbEntity
  8
0
100
AcDbLine
 10
102.275
 20
0.0000000000000035
 30
0.0
 11
103.716
 21
0.0000000000000035
 31
0.0
  0
LINE
  5
25E
330
1E
100
AcDbEntity
  8
0
100
AcDbLine
 10
102.275
 20
0.0000000000000035
 30
0.0
 11
102.6599999999999
 21
0.0000000000000034
 31
0.0
  0
LINE
  5
25F
330
1E
100
AcDbEntity
  8
0
100
AcDbLine
 10
103.716
 20
0.0000000000000035
 30
0.0
 11
104.1009999999999
 21
0.0000000000000034
 31
0.0
  0
LINE
  5
260
330
1E
100
AcDbEntity
  8
0
100
AcDbLine
 10
103.716
 20
0.0000000000000035
 30
0.0
 11
103.716
 21
2.0
 31
0.0
  0
LINE
  5
261
330
1E
100
AcDbEntity
  8
0
100
AcDbLine
 10
102.6599999999999
 20
0.0000000000000034
 30
0.0
 11
104.1009999999999
 21
0.0000000000000034
 31
0.0
  0
LINE
  5
262
330
1E
100
AcDbEntity
  8
0
100
AcDbLine
 10
100.7529999999999
 20
0.0000000000000037
 30
0.0
 11
102.046
 21
0.0000000000000037
 31
0.0
  0
LINE
  5
263
330
1E
100
AcDbEntity
  8
0
100
AcDbLine
 10
100.7529999999999
 20
0.0000000000000037
 30
0.0
 11
101.499
 21
0.0000000000000036
 31
0.0
  0
LINE
  5
264
330
1E
100
AcDbEntity
  8
0
100
AcDbLine
 10
100.7529999999999
 20
0.0000000000000037
 30
0.0
 11
100.7529999999999
 21
2.0
 31
0.0
  0
LINE
  5
265
330
1E
100
AcDbEntity
  8
0
100
AcDbLine
 10
102.046
 20
0.0000000000000037
 30
0.0
 11
102.7909999999999
 21
0.0000000000000036
 31
0.0
  0
LINE
  5
266
330
1E
100
AcDbEntity
  8
0
100
AcDbLine
 10
101.16
 20
0.0000000000000045
 30
0.0
 11
101.906
 21
0.0000000000000046
 31
0.0
  0
LINE
  5
267
330
1E
100
AcDbEntity
  8
0
100
AcDbLine
 10
101.16
 20
0.0000000000000045
 30
0.0
 11
102.452
 21
0.0000000000000045
 31
0.0
  0
LINE
  5
268
330
1E
100
AcDbEntity
  8
0
100
AcDbLine
 10
101.906
 20
0.0000000000000046
 30
0.0
 11
103.1979999999999
 21
0.0000000000000046
 31
0.0
  0
LINE
  5
269
330
1E
100
AcDbEntity
  8
0
100
AcDbLine
 10
100.941
 20
0.000000000000006
 30
0.0
 11
101.327
 21
0.0000000000000061
 31
0.0
  0
LINE
  5
26A
330
1E
100
AcDbEntity
  8
0
100
AcDbLine
 10
100.941
 20
0.000000000000006
 30
0.0
 11
102.382
 21
0.000000000000006
 31
0.0
  0
LINE
  5
26B
330
1E
100
AcDbEntity
  8
0
100
AcDbLine
 10
100.941
 20
0.000000000000006
 30
0.0
 11
100.941
 21
2.00000000000001
 31
0.0
  0
LINE
  5
26C
330
1E
100
AcDbEntity
  8
0
100
AcDbLine
 10
101.327
 20
0.0000000000000061
 30
0.0
 11
102.7679999999999
 21
0.0000000000000061
 31
0.0
  0
LINE
  5
26D
330
1E
100
AcDbEntity
  8
0
100
AcDbLine
 10
101.327
 20
0.0000000000000061
 30
0.0
 11
101.327
 21
2.00000000000001
 31
0.0
  0
LINE
  5
26E
330
1E
100
AcDbEntity
  8
0
100
AcDbLine
 10
103.1979999999999
 20
0.0000000000000046
 30
0.0
 11
103.1979999999999
 21
2.0
 31
0.0
  0
LINE
  5
26F
330
1E
100
AcDbEntity
  8
0
100
AcDbLine
 10
102.452
 20
0.0000000000000045
 30
0.0
 11
103.1979999999999
 21
0.0000000000000046
 31
0.0
  0
LINE
  5
270
330
1E
100
AcDbEntity
  8
0
100
AcDbLine
 10
102.7679999999999
 20
0.0000000000000061
 30
0.0
 11
102.7679999999999
 21
2.00000000000001
 31
0.0
  0
LINE
  5
271
330
1E
100
AcDbEntity
  8
0
100
AcDbLine
 10
102.382
 20
0.000000000000006
 30
0.0
 11
102.7679999999999
 21
0.0000000000000061
 31
0.0
  0
LINE
  5
272
330
1E
100
AcDbEntity
  8
0
100
AcDbLine
 10
103.8359999999999
 20
0.0000000000000067
 30
0.0
 11
104.2229999999999
 21
0.0000000000000067
 31
0.0
  0
LINE
  5
273
330
1E
100
AcDbEntity
  8
0
100
AcDbLine
 10
103.8359999999999
 20
0.0000000000000067
 30
0.0
 11
105.2769999999999
 21
0.0000000000000066
 31
0.0
  0
LINE
  5
274
330
1E
100
AcDbEntity
  8
0
100
AcDbLine
 10
103.8359999999999
 20
0.0000000000000067
 30
0.0
 11
103.8359999999999
 21
2.00000000000001
 31
0.0
  0
LINE
  5
275
330
1E
100
AcDbEntity
  8
0
100
AcDbLine
 10
104.2229999999999
 20
0.0000000000000067
 30
0.0
 11
105.6629999999999
 21
0.0000000000000067
 31
0.0
  0
LINE
  5
276
330
1E
100
AcDbEntity
  8
0
100
AcDbLine
 10
104.2229999999999
 20
0.0000000000000067
 30
0.0
 11
104.2229999999999
 21
2.00000000000001
 31
0.0
  0
LINE
  5
277
330
1E
100
AcDbEntity
  8
0
100
AcDbLine
 10
105.2769999999999
 20
0.0000000000000066
 30
0.0
 11
105.6629999999999
 21
0.0000000000000067
 31
0.0
  0
LINE
  5
278
330
1E
100
AcDbEntity
  8
0
100
AcDbLine
 10
106.376
 20
0.0000000000000043
 30
0.0
 11
107.431
 21
0.0000000000000044
 31
0.0
  0
LINE
  5
279
330
1E
100
AcDbEntity
  8
0
100
AcDbLine
 10
106.376
 20
0.0000000000000043
 30
0.0
 11
107.431
 21
0.0000000000000042
 31
0.0
  0
LINE
  5
27A
330
1E
100
AcDbEntity
  8
0
100
AcDbLine
 10
106.376
 20
0.0000000000000043
 30
0.0
 11
106.376
 21
2.0
 31
0.0
  0
LINE
  5
27B
330
1E
100
AcDbEntity
  8
0
100
AcDbLine
 10
107.431
 20
0.0000000000000044
 30
0.0
 11
108.486
 21
0.0000000000000043
 31
0.0
  0
LINE
  5
27C
330
1E
100
AcDbEntity
  8
0
100
AcDbLine
 10
107.431
 20
0.0000000000000042
 30
0.0
 11
108.486
 21
0.0000000000000043
 31
0.0
  0
LINE
  5
27D
330
1E
100
AcDbEntity
  8
0
100
AcDbLine
 10
106.7539999999999
 20
0.0000000000000051
 30
0.0
 11
107.4999999999999
 21
0.0000000000000052
 31
0.0
  0
LINE
  5
27E
330
1E
100
AcDbEntity
  8
0
100
AcDbLine
 10
106.7539999999999
 20
0.0000000000000051
 30
0.0
 11
108.046
 21
0.0000000000000051
 31
0.0
  0
LINE
  5
27F
330
1E
100
AcDbEntity
  8
0
100
AcDbLine
 10
108.7919999999999
 20
0.0000000000000052
 30
0.0
 11
108.7919999999999
 21
2.0
 31
0.0
  0
LINE
  5
280
330
1E
100
AcDbEntity
  8
0
100
AcDbLine
 10
107.4999999999999
 20
0.0000000000000052
 30
0.0
 11
108.7919999999999
 21
0.0000000000000052
 31
0.0
  0
LINE
  5
281
330
1E
100
AcDbEntity
  8
0
100
AcDbLine
 10
108.046
 20
0.0000000000000051
 30
0.0
 11
108.7919999999999
 21
0.0000000000000052
 31
0.0
  0
LINE
  5
282
330
1E
100
AcDbEntity
  8
0
100
AcDbLine
 10
105.6629999999999
 20
0.0000000000000067
 30
0.0
 11
105.6629999999999
 21
2.00000000000001
 31
0.0
  0
LINE
  5
283
330
1E
100
AcDbEntity
  8
0
100
AcDbLine
 10
106.732
 20
0.0000000000000073
 30
0.0
 11
107.118
 21
0.0000000000000074
 31
0.0
  0
LINE
  5
284
330
1E
100
AcDbEntity
  8
0
100
AcDbLine
 10
106.732
 20
0.0000000000000073
 30
0.0
 11
108.1729999999999
 21
0.0000000000000073
 31
0.0
  0
LINE
  5
285
330
1E
100
AcDbEntity
  8
0
100
AcDbLine
 10
106.732
 20
0.0000000000000073
 30
0.0
 11
106.732
 21
2.00000000000001
 31
0.0
  0
LINE
  5
286
330
1E
100
AcDbEntity
  8
0
100
AcDbLine
 10
107.118
 20
0.0000000000000074
 30
0.0
 11
108.559
 21
0.0000000000000074
 31
0.0
  0
LINE
  5
287
330
1E
100
AcDbEntity
  8
0
100
AcDbLine
 10
107.118
 20
0.0000000000000074
 30
0.0
 11
107.118
 21
2.00000000000001
 31
0.0
  0
LINE
  5
288
330
1E
100
AcDbEntity
  8
0
100
AcDbLine
 10
108.559
 20
0.0000000000000074
 30
0.0
 11
108.559
 21
2.00000000000001
 31
0.0
  0
LINE
  5
289
330
1E
100
AcDbEntity
  8
0
100
AcDbLine
 10
108.1729999999999
 20
0.0000000000000073
 30
0.0
 11
108.559
 21
0.0000000000000074
 31
0.0
  0
LINE
  5
28A
330
1E
100
AcDbEntity
  8
0
100
AcDbLine
 10
102.9249999999999
 20
0.0000000000000033
 30
0.0
 11
104.417
 21
0.0000000000000033
 31
0.0
  0
LINE
  5
28B
330
1E
100
AcDbEntity
  8
0
100
AcDbLine
 10
109.6279999999999
 20
-0.0000000000000016
 30
0.0
 11
110.0129999999999
 21
-0.0000000000000017
 31
0.0
  0
LINE
  5
28C
330
1E
100
AcDbEntity
  8
0
100
AcDbLine
 10
109.6279999999999
 20
-0.0000000000000016
 30
0.0
 11
111.068
 21
-0.0000000000000015
 31
0.0
  0
LINE
  5
28D
330
1E
100
AcDbEntity
  8
0
100
AcDbLine
 10
109.6279999999999
 20
-0.0000000000000016
 30
0.0
 11
109.6279999999999
 21
2.0
 31
0.0
  0
LINE
  5
28E
330
1E
100
AcDbEntity
  8
0
100
AcDbLine
 10
110.0129999999999
 20
-0.0000000000000017
 30
0.0
 11
111.4539999999999
 21
-0.0000000000000016
 31
0.0
  0
LINE
  5
28F
330
1E
100
AcDbEntity
  8
0
100
AcDbLine
 10
111.068
 20
-0.0000000000000015
 30
0.0
 11
111.4539999999999
 21
-0.0000000000000016
 31
0.0
  0
LINE
  5
290
330
1E
100
AcDbEntity
  8
0
100
AcDbLine
 10
110.442
 20
0.0000000000000024
 30
0.0
 11
111.7339999999999
 21
0.0000000000000024
 31
0.0
  0
LINE
  5
291
330
1E
100
AcDbEntity
  8
0
100
AcDbLine
 10
110.442
 20
0.0000000000000024
 30
0.0
 11
111.1879999999999
 21
0.0000000000000025
 31
0.0
  0
LINE
  5
292
330
1E
100
AcDbEntity
  8
0
100
AcDbLine
 10
112.348
 20
0.0000000000000007
 30
0.0
 11
113.094
 21
0.0000000000000006
 31
0.0
  0
LINE
  5
293
330
1E
100
AcDbEntity
  8
0
100
AcDbLine
 10
112.348
 20
0.0000000000000007
 30
0.0
 11
113.64
 21
0.0000000000000007
 31
0.0
  0
LINE
  5
294
330
1E
100
AcDbEntity
  8
0
100
AcDbLine
 10
113.094
 20
0.0000000000000006
 30
0.0
 11
114.385
 21
0.0000000000000007
 31
0.0
  0
LINE
  5
295
330
1E
100
AcDbEntity
  8
0
100
AcDbLine
 10
111.7339999999999
 20
0.0000000000000024
 30
0.0
 11
112.48
 21
0.0000000000000024
 31
0.0
  0
LINE
  5
296
330
1E
100
AcDbEntity
  8
0
100
AcDbLine
 10
111.1879999999999
 20
0.0000000000000025
 30
0.0
 11
112.48
 21
0.0000000000000024
 31
0.0
  0
LINE
  5
297
330
1E
100
AcDbEntity
  8
0
100
AcDbLine
 10
113.081
 20
0.0000000000000028
 30
0.0
 11
114.522
 21
0.0000000000000027
 31
0.0
  0
LINE
  5
298
330
1E
100
AcDbEntity
  8
0
100
AcDbLine
 10
113.081
 20
0.0000000000000028
 30
0.0
 11
113.467
 21
0.0000000000000029
 31
0.0
  0
LINE
  5
299
330
1E
100
AcDbEntity
  8
0
100
AcDbLine
 10
113.64
 20
0.0000000000000007
 30
0.0
 11
114.385
 21
0.0000000000000007
 31
0.0
  0
LINE
  5
29A
330
1E
100
AcDbEntity
  8
0
100
AcDbLine
 10
113.467
 20
0.0000000000000029
 30
0.0
 11
114.9079999999999
 21
0.0000000000000028
 31
0.0
  0
LINE
  5
29B
330
1E
100
AcDbEntity
  8
0
100
AcDbLine
 10
111.1879999999999
 20
0.0000000000000039
 30
0.0
 11
112.48
 21
0.000000000000004
 31
0.0
  0
LINE
  5
29C
330
1E
100
AcDbEntity
  8
0
100
AcDbLine
 10
113.081
 20
0.0000000000000036
 30
0.0
 11
114.522
 21
0.0000000000000037
 31
0.0
  0
LINE
  5
29D
330
1E
100
AcDbEntity
  8
0
100
AcDbLine
 10
113.081
 20
0.0000000000000036
 30
0.0
 11
113.467
 21
0.0000000000000036
 31
0.0
  0
LINE
  5
29E
330
1E
100
AcDbEntity
  8
0
100
AcDbLine
 10
110.442
 20
0.000000000000004
 30
0.0
 11
111.7339999999999
 21
0.000000000000004
 31
0.0
  0
LINE
  5
29F
330
1E
100
AcDbEntity
  8
0
100
AcDbLine
 10
110.442
 20
0.000000000000004
 30
0.0
 11
111.1879999999999
 21
0.0000000000000039
 31
0.0
  0
LINE
  5
2A0
330
1E
100
AcDbEntity
  8
0
100
AcDbLine
 10
109.6279999999999
 20
0.000000000000008
 30
0.0
 11
110.0129999999999
 21
0.0000000000000081
 31
0.0
  0
LINE
  5
2A1
330
1E
100
AcDbEntity
  8
0
100
AcDbLine
 10
109.6279999999999
 20
0.000000000000008
 30
0.0
 11
111.068
 21
0.000000000000008
 31
0.0
  0
LINE
  5
2A2
330
1E
100
AcDbEntity
  8
0
100
AcDbLine
 10
109.6279999999999
 20
0.000000000000008
 30
0.0
 11
109.6279999999999
 21
2.00000000000001
 31
0.0
  0
LINE
  5
2A3
330
1E
100
AcDbEntity
  8
0
100
AcDbLine
 10
110.0129999999999
 20
0.0000000000000081
 30
0.0
 11
111.4539999999999
 21
0.000000000000008
 31
0.0
  0
LINE
  5
2A4
330
1E
100
AcDbEntity
  8
0
100
AcDbLine
 10
110.0129999999999
 20
0.0000000000000081
 30
0.0
 11
110.0129999999999
 21
2.00000000000001
 31
0.0
  0
LINE
  5
2A5
330
1E
100
AcDbEntity
  8
0
100
AcDbLine
 10
111.7339999999999
 20
0.000000000000004
 30
0.0
 11
112.48
 21
0.000000000000004
 31
0.0
  0
LINE
  5
2A6
330
1E
100
AcDbEntity
  8
0
100
AcDbLine
 10
111.7339999999999
 20
0.000000000000004
 30
0.0
 11
111.7339999999999
 21
2.0
 31
0.0
  0
LINE
  5
2A7
330
1E
100
AcDbEntity
  8
0
100
AcDbLine
 10
112.348
 20
0.0000000000000057
 30
0.0
 11
113.094
 21
0.0000000000000058
 31
0.0
  0
LINE
  5
2A8
330
1E
100
AcDbEntity
  8
0
100
AcDbLine
 10
112.348
 20
0.0000000000000057
 30
0.0
 11
113.64
 21
0.0000000000000057
 31
0.0
  0
LINE
  5
2A9
330
1E
100
AcDbEntity
  8
0
100
AcDbLine
 10
112.348
 20
0.0000000000000057
 30
0.0
 11
112.348
 21
2.00000000000001
 31
0.0
  0
LINE
  5
2AA
330
1E
100
AcDbEntity
  8
0
100
AcDbLine
 10
111.4539999999999
 20
0.000000000000008
 30
0.0
 11
111.4539999999999
 21
2.00000000000001
 31
0.0
  0
LINE
  5
2AB
330
1E
100
AcDbEntity
  8
0
100
AcDbLine
 10
111.068
 20
0.000000000000008
 30
0.0
 11
111.4539999999999
 21
0.000000000000008
 31
0.0
  0
LINE
  5
2AC
330
1E
100
AcDbEntity
  8
0
100
AcDbLine
 10
113.467
 20
0.0000000000000036
 30
0.0
 11
114.9079999999999
 21
0.0000000000000036
 31
0.0
  0
LINE
  5
2AD
330
1E
100
AcDbEntity
  8
0
100
AcDbLine
 10
113.094
 20
0.0000000000000058
 30
0.0
 11
114.385
 21
0.0000000000000058
 31
0.0
  0
LINE
  5
2AE
330
1E
100
AcDbEntity
  8
0
100
AcDbLine
 10
113.094
 20
0.0000000000000058
 30
0.0
 11
113.094
 21
2.00000000000001
 31
0.0
  0
LINE
  5
2AF
330
1E
100
AcDbEntity
  8
0
100
AcDbLine
 10
113.64
 20
0.0000000000000057
 30
0.0
 11
114.385
 21
0.0000000000000058
 31
0.0
  0
LINE
  5
2B0
330
1E
100
AcDbEntity
  8
0
100
AcDbLine
 10
114.1129999999999
 20
0.0000000000000032
 30
0.0
 11
115.6039999999999
 21
0.0000000000000032
 31
0.0
  0
LINE
  5
2B1
330
1E
100
AcDbEntity
  8
0
100
AcDbLine
 10
114.287
 20
0.0000000000000016
 30
0.0
 11
115.342
 21
0.0000000000000016
 31
0.0
  0
LINE
  5
2B2
330
1E
100
AcDbEntity
  8
0
100
AcDbLine
 10
114.287
 20
0.0000000000000016
 30
0.0
 11
115.342
 21
0.0000000000000017
 31
0.0
  0
LINE
  5
2B3
330
1E
100
AcDbEntity
  8
0
100
AcDbLine
 10
115.342
 20
0.0000000000000016
 30
0.0
 11
116.396
 21
0.0000000000000016
 31
0.0
  0
LINE
  5
2B4
330
1E
100
AcDbEntity
  8
0
100
AcDbLine
 10
115.342
 20
0.0000000000000017
 30
0.0
 11
116.396
 21
0.0000000000000016
 31
0.0
  0
LINE
  5
2B5
330
1E
100
AcDbEntity
  8
0
100
AcDbLine
 10
114.522
 20
0.0000000000000027
 30
0.0
 11
114.9079999999999
 21
0.0000000000000028
 31
0.0
  0
LINE
  5
2B6
330
1E
100
AcDbEntity
  8
0
100
AcDbLine
 10
114.522
 20
0.0000000000000037
 30
0.0
 11
114.9079999999999
 21
0.0000000000000036
 31
0.0
  0
LINE
  5
2B7
330
1E
100
AcDbEntity
  8
0
100
AcDbLine
 10
117.942
 20
0.0000000000000001
 30
0.0
 11
118.687
 21
0.0
 31
0.0
  0
LINE
  5
2B8
330
1E
100
AcDbEntity
  8
0
100
AcDbLine
 10
117.942
 20
0.0000000000000001
 30
0.0
 11
119.2329999999999
 21
0.0000000000000001
 31
0.0
  0
LINE
  5
2B9
330
1E
100
AcDbEntity
  8
0
100
AcDbLine
 10
117.942
 20
0.0000000000000001
 30
0.0
 11
118.687
 21
0.0
 31
0.0
  0
LINE
  5
2BA
330
1E
100
AcDbEntity
  8
0
100
AcDbLine
 10
117.942
 20
0.0000000000000001
 30
0.0
 11
117.942
 21
2.0
 31
0.0
  0
LINE
  5
2BB
330
1E
100
AcDbEntity
  8
0
100
AcDbLine
 10
118.687
 20
0.0
 30
0.0
 11
119.9789999999999
 21
0.0000000000000001
 31
0.0
  0
LINE
  5
2BC
330
1E
100
AcDbEntity
  8
0
100
AcDbLine
 10
119.2329999999999
 20
0.0000000000000001
 30
0.0
 11
119.9789999999999
 21
0.0000000000000001
 31
0.0
  0
LINE
  5
2BD
330
1E
100
AcDbEntity
  8
0
100
AcDbLine
 10
114.287
 20
0.0000000000000048
 30
0.0
 11
115.342
 21
0.0000000000000049
 31
0.0
  0
LINE
  5
2BE
330
1E
100
AcDbEntity
  8
0
100
AcDbLine
 10
114.287
 20
0.0000000000000048
 30
0.0
 11
115.342
 21
0.0000000000000047
 31
0.0
  0
LINE
  5
2BF
330
1E
100
AcDbEntity
  8
0
100
AcDbLine
 10
116.396
 20
0.0000000000000048
 30
0.0
 11
116.396
 21
2.0
 31
0.0
  0
LINE
  5
2C0
330
1E
100
AcDbEntity
  8
0
100
AcDbLine
 10
115.342
 20
0.0000000000000049
 30
0.0
 11
116.396
 21
0.0000000000000048
 31
0.0
  0
LINE
  5
2C1
330
1E
100
AcDbEntity
  8
0
100
AcDbLine
 10
115.342
 20
0.0000000000000049
 30
0.0
 11
115.342
 21
2.0
 31
0.0
  0
LINE
  5
2C2
330
1E
100
AcDbEntity
  8
0
100
AcDbLine
 10
115.342
 20
0.0000000000000047
 30
0.0
 11
116.396
 21
0.0000000000000048
 31
0.0
  0
LINE
  5
2C3
330
1E
100
AcDbEntity
  8
0
100
AcDbLine
 10
114.385
 20
0.0000000000000058
 30
0.0
 11
114.385
 21
2.00000000000001
 31
0.0
  0
LINE
  5
2C4
330
1E
100
AcDbEntity
  8
0
100
AcDbLine
 10
117.942
 20
0.0000000000000063
 30
0.0
 11
118.687
 21
0.0000000000000064
 31
0.0
  0
LINE
  5
2C5
330
1E
100
AcDbEntity
  8
0
100
AcDbLine
 10
117.942
 20
0.0000000000000063
 30
0.0
 11
119.2329999999999
 21
0.0000000000000063
 31
0.0
  0
LINE
  5
2C6
330
1E
100
AcDbEntity
  8
0
100
AcDbLine
 10
117.942
 20
0.0000000000000063
 30
0.0
 11
117.942
 21
2.00000000000001
 31
0.0
  0
LINE
  5
2C7
330
1E
100
AcDbEntity
  8
0
100
AcDbLine
 10
118.687
 20
0.0000000000000064
 30
0.0
 11
119.9789999999999
 21
0.0000000000000063
 31
0.0
  0
LINE
  5
2C8
330
1E
100
AcDbEntity
  8
0
100
AcDbLine
 10
118.687
 20
0.0000000000000064
 30
0.0
 11
118.687
 21
2.00000000000001
 31
0.0
  0
LINE
  5
2C9
330
1E
100
AcDbEntity
  8
0
100
AcDbLine
 10
119.9789999999999
 20
0.0000000000000063
 30
0.0
 11
119.9789999999999
 21
2.00000000000001
 31
0.0
  0
LINE
  5
2CA
330
1E
100
AcDbEntity
  8
0
100
AcDbLine
 10
119.2329999999999
 20
0.0000000000000063
 30
0.0
 11
119.9789999999999
 21
0.0000000000000063
 31
0.0
  0
LINE
  5
2CB
330
1E
100
AcDbEntity
  8
0
100
AcDbLine
 10
114.1129999999999
 20
0.0000000000000033
 30
0.0
 11
115.6039999999999
 21
0.0000000000000033
 31
0.0
  0
LINE
  5
2CC
330
1E
100
AcDbEntity
  8
0
100
AcDbLine
 10
116.396
 20
2.0
 30
0.0
 11
117.942
 21
2.0
 31
0.0
  0
LINE
  5
2CD
330
1E
100
AcDbEntity
  8
0
100
AcDbLine
 10
120.131
 20
0.0000000000000021
 30
0.0
 11
121.422
 21
0.000000000000002
 31
0.0
  0
LINE
  5
2CE
330
1E
100
AcDbEntity
  8
0
100
AcDbLine
 10
120.131
 20
0.0000000000000021
 30
0.0
 11
120.876
 21
0.0000000000000022
 31
0.0
  0
LINE
  5
2CF
330
1E
100
AcDbEntity
  8
0
100
AcDbLine
 10
120.131
 20
0.0000000000000021
 30
0.0
 11
120.131
 21
2.0
 31
0.0
  0
LINE
  5
2D0
330
1E
100
AcDbEntity
  8
0
100
AcDbLine
 10
122.198
 20
0.0000000000000011
 30
0.0
 11
123.2529999999999
 21
0.0000000000000011
 31
0.0
  0
LINE
  5
2D1
330
1E
100
AcDbEntity
  8
0
100
AcDbLine
 10
122.198
 20
0.0000000000000011
 30
0.0
 11
123.2529999999999
 21
0.0000000000000012
 31
0.0
  0
LINE
  5
2D2
330
1E
100
AcDbEntity
  8
0
100
AcDbLine
 10
122.198
 20
0.0000000000000011
 30
0.0
 11
122.198
 21
2.0
 31
0.0
  0
LINE
  5
2D3
330
1E
100
AcDbEntity
  8
0
100
AcDbLine
 10
123.2529999999999
 20
0.0000000000000011
 30
0.0
 11
124.307
 21
0.0000000000000011
 31
0.0
  0
LINE
  5
2D4
330
1E
100
AcDbEntity
  8
0
100
AcDbLine
 10
123.5349999999999
 20
-0.0000000000000005
 30
0.0
 11
124.281
 21
-0.0000000000000006
 31
0.0
  0
LINE
  5
2D5
330
1E
100
AcDbEntity
  8
0
100
AcDbLine
 10
123.5349999999999
 20
-0.0000000000000005
 30
0.0
 11
124.827
 21
-0.0000000000000004
 31
0.0
  0
LINE
  5
2D6
330
1E
100
AcDbEntity
  8
0
100
AcDbLine
 10
123.2529999999999
 20
0.0000000000000012
 30
0.0
 11
124.307
 21
0.0000000000000011
 31
0.0
  0
LINE
  5
2D7
330
1E
100
AcDbEntity
  8
0
100
AcDbLine
 10
121.422
 20
0.000000000000002
 30
0.0
 11
122.1679999999999
 21
0.0000000000000021
 31
0.0
  0
LINE
  5
2D8
330
1E
100
AcDbEntity
  8
0
100
AcDbLine
 10
120.876
 20
0.0000000000000022
 30
0.0
 11
122.1679999999999
 21
0.0000000000000021
 31
0.0
  0
LINE
  5
2D9
330
1E
100
AcDbEntity
  8
0
100
AcDbLine
 10
123.887
 20
0.0000000000000026
 30
0.0
 11
125.3279999999999
 21
0.0000000000000026
 31
0.0
  0
LINE
  5
2DA
330
1E
100
AcDbEntity
  8
0
100
AcDbLine
 10
123.887
 20
0.0000000000000026
 30
0.0
 11
124.2729999999999
 21
0.0000000000000027
 31
0.0
  0
LINE
  5
2DB
330
1E
100
AcDbEntity
  8
0
100
AcDbLine
 10
124.281
 20
-0.0000000000000006
 30
0.0
 11
125.573
 21
-0.0000000000000005
 31
0.0
  0
LINE
  5
2DC
330
1E
100
AcDbEntity
  8
0
100
AcDbLine
 10
124.827
 20
-0.0000000000000004
 30
0.0
 11
125.573
 21
-0.0000000000000005
 31
0.0
  0
LINE
  5
2DD
330
1E
100
AcDbEntity
  8
0
100
AcDbLine
 10
125.3279999999999
 20
0.0000000000000026
 30
0.0
 11
125.7139999999999
 21
0.0000000000000027
 31
0.0
  0
LINE
  5
2DE
330
1E
100
AcDbEntity
  8
0
100
AcDbLine
 10
124.2729999999999
 20
0.0000000000000027
 30
0.0
 11
125.7139999999999
 21
0.0000000000000027
 31
0.0
  0
LINE
  5
2DF
330
1E
100
AcDbEntity
  8
0
100
AcDbLine
 10
125.2999999999999
 20
0.0000000000000032
 30
0.0
 11
126.7919999999999
 21
0.0000000000000032
 31
0.0
  0
LINE
  5
2E0
330
1E
100
AcDbEntity
  8
0
100
AcDbLine
 10
129.1289999999999
 20
-0.0000000000000011
 30
0.0
 11
129.875
 21
-0.0000000000000012
 31
0.0
  0
LINE
  5
2E1
330
1E
100
AcDbEntity
  8
0
100
AcDbLine
 10
129.1289999999999
 20
-0.0000000000000011
 30
0.0
 11
130.4209999999999
 21
-0.000000000000001
 31
0.0
  0
LINE
  5
2E2
330
1E
100
AcDbEntity
  8
0
100
AcDbLine
 10
129.1289999999999
 20
-0.0000000000000011
 30
0.0
 11
129.1289999999999
 21
2.0
 31
0.0
  0
LINE
  5
2E3
330
1E
100
AcDbEntity
  8
0
100
AcDbLine
 10
129.875
 20
-0.0000000000000012
 30
0.0
 11
131.167
 21
-0.0000000000000011
 31
0.0
  0
LINE
  5
2E4
330
1E
100
AcDbEntity
  8
0
100
AcDbLine
 10
130.4209999999999
 20
-0.000000000000001
 30
0.0
 11
131.167
 21
-0.0000000000000011
 31
0.0
  0
LINE
  5
2E5
330
1E
100
AcDbEntity
  8
0
100
AcDbLine
 10
130.108
 20
0.0000000000000007
 30
0.0
 11
131.1629999999999
 21
0.0000000000000006
 31
0.0
  0
LINE
  5
2E6
330
1E
100
AcDbEntity
  8
0
100
AcDbLine
 10
130.108
 20
0.0000000000000007
 30
0.0
 11
131.1629999999999
 21
0.0000000000000007
 31
0.0
  0
LINE
  5
2E7
330
1E
100
AcDbEntity
  8
0
100
AcDbLine
 10
129.82
 20
0.0000000000000017
 30
0.0
 11
131.112
 21
0.0000000000000017
 31
0.0
  0
LINE
  5
2E8
330
1E
100
AcDbEntity
  8
0
100
AcDbLine
 10
129.82
 20
0.0000000000000017
 30
0.0
 11
130.566
 21
0.0000000000000018
 31
0.0
  0
LINE
  5
2E9
330
1E
100
AcDbEntity
  8
0
100
AcDbLine
 10
131.1629999999999
 20
0.0000000000000006
 30
0.0
 11
132.2179999999999
 21
0.0000000000000007
 31
0.0
  0
LINE
  5
2EA
330
1E
100
AcDbEntity
  8
0
100
AcDbLine
 10
131.1629999999999
 20
0.0000000000000007
 30
0.0
 11
132.2179999999999
 21
0.0000000000000007
 31
0.0
  0
LINE
  5
2EB
330
1E
100
AcDbEntity
  8
0
100
AcDbLine
 10
131.112
 20
0.0000000000000017
 30
0.0
 11
131.857
 21
0.0000000000000018
 31
0.0
  0
LINE
  5
2EC
330
1E
100
AcDbEntity
  8
0
100
AcDbLine
 10
130.566
 20
0.0000000000000018
 30
0.0
 11
131.857
 21
0.0000000000000018
 31
0.0
  0
LINE
  5
2ED
330
1E
100
AcDbEntity
  8
0
100
AcDbLine
 10
134.6939999999999
 20
0.0000000000000024
 30
0.0
 11
136.1339999999999
 21
0.0000000000000024
 31
0.0
  0
LINE
  5
2EE
330
1E
100
AcDbEntity
  8
0
100
AcDbLine
 10
134.6939999999999
 20
0.0000000000000024
 30
0.0
 11
135.079
 21
0.0000000000000025
 31
0.0
  0
LINE
  5
2EF
330
1E
100
AcDbEntity
  8
0
100
AcDbLine
 10
134.6939999999999
 20
0.0000000000000024
 30
0.0
 11
134.6939999999999
 21
2.0
 31
0.0
  0
LINE
  5
2F0
330
1E
100
AcDbEntity
  8
0
100
AcDbLine
 10
136.1339999999999
 20
0.0000000000000024
 30
0.0
 11
136.52
 21
0.0000000000000025
 31
0.0
  0
LINE
  5
2F1
330
1E
100
AcDbEntity
  8
0
100
AcDbLine
 10
135.079
 20
0.0000000000000025
 30
0.0
 11
136.52
 21
0.0000000000000025
 31
0.0
  0
LINE
  5
2F2
330
1E
100
AcDbEntity
  8
0
100
AcDbLine
 10
126.7919999999999
 20
0.0000000000000033
 30
0.0
 11
126.7919999999999
 21
2.0
 31
0.0
  0
LINE
  5
2F3
330
1E
100
AcDbEntity
  8
0
100
AcDbLine
 10
120.131
 20
0.0000000000000043
 30
0.0
 11
121.422
 21
0.0000000000000044
 31
0.0
  0
LINE
  5
2F4
330
1E
100
AcDbEntity
  8
0
100
AcDbLine
 10
120.131
 20
0.0000000000000043
 30
0.0
 11
120.876
 21
0.0000000000000043
 31
0.0
  0
LINE
  5
2F5
330
1E
100
AcDbEntity
  8
0
100
AcDbLine
 10
120.131
 20
0.0000000000000043
 30
0.0
 11
120.131
 21
2.0
 31
0.0
  0
LINE
  5
2F6
330
1E
100
AcDbEntity
  8
0
100
AcDbLine
 10
120.876
 20
0.0000000000000043
 30
0.0
 11
122.1679999999999
 21
0.0000000000000043
 31
0.0
  0
LINE
  5
2F7
330
1E
100
AcDbEntity
  8
0
100
AcDbLine
 10
123.887
 20
0.0000000000000038
 30
0.0
 11
125.3279999999999
 21
0.0000000000000038
 31
0.0
  0
LINE
  5
2F8
330
1E
100
AcDbEntity
  8
0
100
AcDbLine
 10
123.887
 20
0.0000000000000038
 30
0.0
 11
124.2729999999999
 21
0.0000000000000037
 31
0.0
  0
LINE
  5
2F9
330
1E
100
AcDbEntity
  8
0
100
AcDbLine
 10
124.2729999999999
 20
0.0000000000000037
 30
0.0
 11
125.7139999999999
 21
0.0000000000000038
 31
0.0
  0
LINE
  5
2FA
330
1E
100
AcDbEntity
  8
0
100
AcDbLine
 10
121.422
 20
0.0000000000000044
 30
0.0
 11
122.1679999999999
 21
0.0000000000000043
 31
0.0
  0
LINE
  5
2FB
330
1E
100
AcDbEntity
  8
0
100
AcDbLine
 10
121.422
 20
0.0000000000000044
 30
0.0
 11
121.422
 21
2.0
 31
0.0
  0
LINE
  5
2FC
330
1E
100
AcDbEntity
  8
0
100
AcDbLine
 10
122.1679999999999
 20
0.0000000000000043
 30
0.0
 11
122.1679999999999
 21
2.0
 31
0.0
  0
LINE
  5
2FD
330
1E
100
AcDbEntity
  8
0
100
AcDbLine
 10
123.2529999999999
 20
0.0000000000000052
 30
0.0
 11
124.307
 21
0.0000000000000053
 31
0.0
  0
LINE
  5
2FE
330
1E
100
AcDbEntity
  8
0
100
AcDbLine
 10
122.198
 20
0.0000000000000053
 30
0.0
 11
123.2529999999999
 21
0.0000000000000053
 31
0.0
  0
LINE
  5
2FF
330
1E
100
AcDbEntity
  8
0
100
AcDbLine
 10
122.198
 20
0.0000000000000053
 30
0.0
 11
123.2529999999999
 21
0.0000000000000052
 31
0.0
  0
LINE
  5
300
330
1E
100
AcDbEntity
  8
0
100
AcDbLine
 10
122.198
 20
0.0000000000000053
 30
0.0
 11
122.198
 21
2.0
 31
0.0
  0
LINE
  5
301
330
1E
100
AcDbEntity
  8
0
100
AcDbLine
 10
123.2529999999999
 20
0.0000000000000053
 30
0.0
 11
124.307
 21
0.0000000000000053
 31
0.0
  0
LINE
  5
302
330
1E
100
AcDbEntity
  8
0
100
AcDbLine
 10
123.2529999999999
 20
0.0000000000000053
 30
0.0
 11
123.2529999999999
 21
2.0
 31
0.0
  0
LINE
  5
303
330
1E
100
AcDbEntity
  8
0
100
AcDbLine
 10
123.5349999999999
 20
0.0000000000000069
 30
0.0
 11
124.281
 21
0.000000000000007
 31
0.0
  0
LINE
  5
304
330
1E
100
AcDbEntity
  8
0
100
AcDbLine
 10
123.5349999999999
 20
0.0000000000000069
 30
0.0
 11
124.827
 21
0.0000000000000069
 31
0.0
  0
LINE
  5
305
330
1E
100
AcDbEntity
  8
0
100
AcDbLine
 10
123.5349999999999
 20
0.0000000000000069
 30
0.0
 11
123.5349999999999
 21
2.00000000000001
 31
0.0
  0
LINE
  5
306
330
1E
100
AcDbEntity
  8
0
100
AcDbLine
 10
124.281
 20
0.000000000000007
 30
0.0
 11
125.573
 21
0.0000000000000069
 31
0.0
  0
LINE
  5
307
330
1E
100
AcDbEntity
  8
0
100
AcDbLine
 10
124.281
 20
0.000000000000007
 30
0.0
 11
124.281
 21
2.00000000000001
 31
0.0
  0
LINE
  5
308
330
1E
100
AcDbEntity
  8
0
100
AcDbLine
 10
124.827
 20
0.0000000000000069
 30
0.0
 11
125.573
 21
0.0000000000000069
 31
0.0
  0
LINE
  5
309
330
1E
100
AcDbEntity
  8
0
100
AcDbLine
 10
125.3279999999999
 20
0.0000000000000038
 30
0.0
 11
125.7139999999999
 21
0.0000000000000038
 31
0.0
  0
LINE
  5
30A
330
1E
100
AcDbEntity
  8
0
100
AcDbLine
 10
135.079
 20
0.0000000000000039
 30
0.0
 11
136.52
 21
0.0000000000000039
 31
0.0
  0
LINE
  5
30B
330
1E
100
AcDbEntity
  8
0
100
AcDbLine
 10
125.7139999999999
 20
0.0000000000000038
 30
0.0
 11
125.7139999999999
 21
2.0
 31
0.0
  0
LINE
  5
30C
330
1E
100
AcDbEntity
  8
0
100
AcDbLine
 10
129.82
 20
0.0000000000000047
 30
0.0
 11
131.112
 21
0.0000000000000047
 31
0.0
  0
LINE
  5
30D
330
1E
100
AcDbEntity
  8
0
100
AcDbLine
 10
129.82
 20
0.0000000000000047
 30
0.0
 11
130.566
 21
0.0000000000000046
 31
0.0
  0
LINE
  5
30E
330
1E
100
AcDbEntity
  8
0
100
AcDbLine
 10
130.566
 20
0.0000000000000046
 30
0.0
 11
131.857
 21
0.0000000000000047
 31
0.0
  0
LINE
  5
30F
330
1E
100
AcDbEntity
  8
0
100
AcDbLine
 10
130.108
 20
0.0000000000000058
 30
0.0
 11
131.1629999999999
 21
0.0000000000000058
 31
0.0
  0
LINE
  5
310
330
1E
100
AcDbEntity
  8
0
100
AcDbLine
 10
130.108
 20
0.0000000000000058
 30
0.0
 11
131.1629999999999
 21
0.0000000000000057
 31
0.0
  0
LINE
  5
311
330
1E
100
AcDbEntity
  8
0
100
AcDbLine
 10
129.1289999999999
 20
0.0000000000000075
 30
0.0
 11
129.875
 21
0.0000000000000076
 31
0.0
  0
LINE
  5
312
330
1E
100
AcDbEntity
  8
0
100
AcDbLine
 10
129.1289999999999
 20
0.0000000000000075
 30
0.0
 11
130.4209999999999
 21
0.0000000000000075
 31
0.0
  0
LINE
  5
313
330
1E
100
AcDbEntity
  8
0
100
AcDbLine
 10
129.1289999999999
 20
0.0000000000000075
 30
0.0
 11
129.1289999999999
 21
2.00000000000001
 31
0.0
  0
LINE
  5
314
330
1E
100
AcDbEntity
  8
0
100
AcDbLine
 10
130.4209999999999
 20
0.0000000000000075
 30
0.0
 11
131.167
 21
0.0000000000000075
 31
0.0
  0
LINE
  5
315
330
1E
100
AcDbEntity
  8
0
100
AcDbLine
 10
125.573
 20
0.0000000000000069
 30
0.0
 11
125.573
 21
2.00000000000001
 31
0.0
  0
LINE
  5
316
330
1E
100
AcDbEntity
  8
0
100
AcDbLine
 10
131.112
 20
0.0000000000000047
 30
0.0
 11
131.857
 21
0.0000000000000047
 31
0.0
  0
LINE
  5
317
330
1E
100
AcDbEntity
  8
0
100
AcDbLine
 10
131.1629999999999
 20
0.0000000000000058
 30
0.0
 11
132.2179999999999
 21
0.0000000000000058
 31
0.0
  0
LINE
  5
318
330
1E
100
AcDbEntity
  8
0
100
AcDbLine
 10
131.1629999999999
 20
0.0000000000000057
 30
0.0
 11
132.2179999999999
 21
0.0000000000000058
 31
0.0
  0
LINE
  5
319
330
1E
100
AcDbEntity
  8
0
100
AcDbLine
 10
131.167
 20
0.0000000000000075
 30
0.0
 11
131.167
 21
2.00000000000001
 31
0.0
  0
LINE
  5
31A
330
1E
100
AcDbEntity
  8
0
100
AcDbLine
 10
129.875
 20
0.0000000000000076
 30
0.0
 11
131.167
 21
0.0000000000000075
 31
0.0
  0
LINE
  5
31B
330
1E
100
AcDbEntity
  8
0
100
AcDbLine
 10
129.875
 20
0.0000000000000076
 30
0.0
 11
129.875
 21
2.00000000000001
 31
0.0
  0
LINE
  5
31C
330
1E
100
AcDbEntity
  8
0
100
AcDbLine
 10
134.6939999999999
 20
0.000000000000004
 30
0.0
 11
136.1339999999999
 21
0.000000000000004
 31
0.0
  0
LINE
  5
31D
330
1E
100
AcDbEntity
  8
0
100
AcDbLine
 10
134.6939999999999
 20
0.000000000000004
 30
0.0
 11
135.079
 21
0.0000000000000039
 31
0.0
  0
LINE
  5
31E
330
1E
100
AcDbEntity
  8
0
100
AcDbLine
 10
134.6939999999999
 20
0.000000000000004
 30
0.0
 11
134.6939999999999
 21
2.0
 31
0.0
  0
LINE
  5
31F
330
1E
100
AcDbEntity
  8
0
100
AcDbLine
 10
136.1339999999999
 20
0.000000000000004
 30
0.0
 11
136.52
 21
0.0000000000000039
 31
0.0
  0
LINE
  5
320
330
1E
100
AcDbEntity
  8
0
100
AcDbLine
 10
136.1339999999999
 20
0.000000000000004
 30
0.0
 11
136.1339999999999
 21
2.0
 31
0.0
  0
LINE
  5
321
330
1E
100
AcDbEntity
  8
0
100
AcDbLine
 10
132.2179999999999
 20
0.0000000000000058
 30
0.0
 11
132.2179999999999
 21
2.00000000000001
 31
0.0
  0
LINE
  5
322
330
1E
100
AcDbEntity
  8
0
100
AcDbLine
 10
125.2999999999999
 20
0.0000000000000033
 30
0.0
 11
126.7919999999999
 21
0.0000000000000033
 31
0.0
  0
LINE
  5
323
330
1E
100
AcDbEntity
  8
0
100
AcDbLine
 10
136.488
 20
0.0000000000000032
 30
0.0
 11
137.9789999999999
 21
0.0000000000000032
 31
0.0
  0
LINE
  5
324
330
1E
100
AcDbEntity
  8
0
100
AcDbLine
 10
138.019
 20
0.0000000000000002
 30
0.0
 11
139.0739999999999
 21
0.0000000000000001
 31
0.0
  0
LINE
  5
325
330
1E
100
AcDbEntity
  8
0
100
AcDbLine
 10
138.019
 20
0.0000000000000002
 30
0.0
 11
139.0739999999999
 21
0.0000000000000002
 31
0.0
  0
LINE
  5
326
330
1E
100
AcDbEntity
  8
0
100
AcDbLine
 10
138.019
 20
0.0000000000000002
 30
0.0
 11
138.019
 21
2.0
 31
0.0
  0
LINE
  5
327
330
1E
100
AcDbEntity
  8
0
100
AcDbLine
 10
139.0739999999999
 20
0.0000000000000001
 30
0.0
 11
140.1289999999999
 21
0.0000000000000002
 31
0.0
  0
LINE
  5
328
330
1E
100
AcDbEntity
  8
0
100
AcDbLine
 10
139.0739999999999
 20
0.0000000000000002
 30
0.0
 11
140.1289999999999
 21
0.0000000000000002
 31
0.0
  0
LINE
  5
329
330
1E
100
AcDbEntity
  8
0
100
AcDbLine
 10
139.5079999999999
 20
0.0000000000000014
 30
0.0
 11
140.8
 21
0.0000000000000013
 31
0.0
  0
LINE
  5
32A
330
1E
100
AcDbEntity
  8
0
100
AcDbLine
 10
139.5079999999999
 20
0.0000000000000014
 30
0.0
 11
140.2539999999999
 21
0.0000000000000015
 31
0.0
  0
LINE
  5
32B
330
1E
100
AcDbEntity
  8
0
100
AcDbLine
 10
145.9299999999999
 20
-0.0000000000000003
 30
0.0
 11
146.985
 21
-0.0000000000000004
 31
0.0
  0
LINE
  5
32C
330
1E
100
AcDbEntity
  8
0
100
AcDbLine
 10
145.9299999999999
 20
-0.0000000000000003
 30
0.0
 11
146.985
 21
-0.0000000000000002
 31
0.0
  0
LINE
  5
32D
330
1E
100
AcDbEntity
  8
0
100
AcDbLine
 10
140.8
 20
0.0000000000000013
 30
0.0
 11
141.5459999999999
 21
0.0000000000000014
 31
0.0
  0
LINE
  5
32E
330
1E
100
AcDbEntity
  8
0
100
AcDbLine
 10
140.2539999999999
 20
0.0000000000000015
 30
0.0
 11
141.5459999999999
 21
0.0000000000000014
 31
0.0
  0
LINE
  5
32F
330
1E
100
AcDbEntity
  8
0
100
AcDbLine
 10
145.499
 20
0.0000000000000022
 30
0.0
 11
146.94
 21
0.0000000000000022
 31
0.0
  0
LINE
  5
330
330
1E
100
AcDbEntity
  8
0
100
AcDbLine
 10
145.499
 20
0.0000000000000022
 30
0.0
 11
145.886
 21
0.0000000000000023
 31
0.0
  0
LINE
  5
331
330
1E
100
AcDbEntity
  8
0
100
AcDbLine
 10
145.499
 20
0.0000000000000022
 30
0.0
 11
145.499
 21
2.0
 31
0.0
  0
LINE
  5
332
330
1E
100
AcDbEntity
  8
0
100
AcDbLine
 10
146.985
 20
-0.0000000000000004
 30
0.0
 11
148.0399999999999
 21
-0.0000000000000003
 31
0.0
  0
LINE
  5
333
330
1E
100
AcDbEntity
  8
0
100
AcDbLine
 10
146.985
 20
-0.0000000000000002
 30
0.0
 11
148.0399999999999
 21
-0.0000000000000003
 31
0.0
  0
LINE
  5
334
330
1E
100
AcDbEntity
  8
0
100
AcDbLine
 10
146.94
 20
0.0000000000000022
 30
0.0
 11
147.327
 21
0.0000000000000023
 31
0.0
  0
LINE
  5
335
330
1E
100
AcDbEntity
  8
0
100
AcDbLine
 10
145.886
 20
0.0000000000000023
 30
0.0
 11
147.327
 21
0.0000000000000023
 31
0.0
  0
LINE
  5
336
330
1E
100
AcDbEntity
  8
0
100
AcDbLine
 10
147.675
 20
0.0000000000000032
 30
0.0
 11
149.167
 21
0.0000000000000032
 31
0.0
  0
LINE
  5
337
330
1E
100
AcDbEntity
  8
0
100
AcDbLine
 10
149.197
 20
0.000000000000001
 30
0.0
 11
150.4879999999999
 21
0.000000000000001
 31
0.0
  0
LINE
  5
338
330
1E
100
AcDbEntity
  8
0
100
AcDbLine
 10
149.197
 20
0.000000000000001
 30
0.0
 11
149.942
 21
0.0000000000000011
 31
0.0
  0
LINE
  5
339
330
1E
100
AcDbEntity
  8
0
100
AcDbLine
 10
149.197
 20
0.000000000000001
 30
0.0
 11
149.197
 21
2.0
 31
0.0
  0
LINE
  5
33A
330
1E
100
AcDbEntity
  8
0
100
AcDbLine
 10
150.4879999999999
 20
0.000000000000001
 30
0.0
 11
151.234
 21
0.0000000000000011
 31
0.0
  0
LINE
  5
33B
330
1E
100
AcDbEntity
  8
0
100
AcDbLine
 10
149.942
 20
0.0000000000000011
 30
0.0
 11
151.234
 21
0.0000000000000011
 31
0.0
  0
LINE
  5
33C
330
1E
100
AcDbEntity
  8
0
100
AcDbLine
 10
156.306
 20
0.0000000000000021
 30
0.0
 11
157.747
 21
0.000000000000002
 31
0.0
  0
LINE
  5
33D
330
1E
100
AcDbEntity
  8
0
100
AcDbLine
 10
156.306
 20
0.0000000000000021
 30
0.0
 11
156.692
 21
0.0000000000000022
 31
0.0
  0
LINE
  5
33E
330
1E
100
AcDbEntity
  8
0
100
AcDbLine
 10
156.306
 20
0.0000000000000021
 30
0.0
 11
156.306
 21
2.0
 31
0.0
  0
LINE
  5
33F
330
1E
100
AcDbEntity
  8
0
100
AcDbLine
 10
157.747
 20
0.000000000000002
 30
0.0
 11
158.1329999999999
 21
0.0000000000000021
 31
0.0
  0
LINE
  5
340
330
1E
100
AcDbEntity
  8
0
100
AcDbLine
 10
156.692
 20
0.0000000000000022
 30
0.0
 11
158.1329999999999
 21
0.0000000000000021
 31
0.0
  0
LINE
  5
341
330
1E
100
AcDbEntity
  8
0
100
AcDbLine
 10
136.52
 20
0.0000000000000039
 30
0.0
 11
136.52
 21
2.0
 31
0.0
  0
LINE
  5
342
330
1E
100
AcDbEntity
  8
0
100
AcDbLine
 10
149.167
 20
0.0000000000000033
 30
0.0
 11
149.167
 21
2.0
 31
0.0
  0
LINE
  5
343
330
1E
100
AcDbEntity
  8
0
100
AcDbLine
 10
145.886
 20
0.0000000000000041
 30
0.0
 11
147.327
 21
0.0000000000000041
 31
0.0
  0
LINE
  5
344
330
1E
100
AcDbEntity
  8
0
100
AcDbLine
 10
139.5079999999999
 20
0.000000000000005
 30
0.0
 11
140.8
 21
0.0000000000000051
 31
0.0
  0
LINE
  5
345
330
1E
100
AcDbEntity
  8
0
100
AcDbLine
 10
139.5079999999999
 20
0.000000000000005
 30
0.0
 11
140.2539999999999
 21
0.0000000000000049
 31
0.0
  0
LINE
  5
346
330
1E
100
AcDbEntity
  8
0
100
AcDbLine
 10
140.2539999999999
 20
0.0000000000000049
 30
0.0
 11
141.5459999999999
 21
0.000000000000005
 31
0.0
  0
LINE
  5
347
330
1E
100
AcDbEntity
  8
0
100
AcDbLine
 10
138.019
 20
0.0000000000000062
 30
0.0
 11
139.0739999999999
 21
0.0000000000000063
 31
0.0
  0
LINE
  5
348
330
1E
100
AcDbEntity
  8
0
100
AcDbLine
 10
138.019
 20
0.0000000000000062
 30
0.0
 11
139.0739999999999
 21
0.0000000000000062
 31
0.0
  0
LINE
  5
349
330
1E
100
AcDbEntity
  8
0
100
AcDbLine
 10
138.019
 20
0.0000000000000062
 30
0.0
 11
138.019
 21
2.00000000000001
 31
0.0
  0
LINE
  5
34A
330
1E
100
AcDbEntity
  8
0
100
AcDbLine
 10
140.1289999999999
 20
0.0000000000000062
 30
0.0
 11
140.1289999999999
 21
2.00000000000001
 31
0.0
  0
LINE
  5
34B
330
1E
100
AcDbEntity
  8
0
100
AcDbLine
 10
139.0739999999999
 20
0.0000000000000062
 30
0.0
 11
140.1289999999999
 21
0.0000000000000062
 31
0.0
  0
LINE
  5
34C
330
1E
100
AcDbEntity
  8
0
100
AcDbLine
 10
140.8
 20
0.0000000000000051
 30
0.0
 11
141.5459999999999
 21
0.000000000000005
 31
0.0
  0
LINE
  5
34D
330
1E
100
AcDbEntity
  8
0
100
AcDbLine
 10
140.8
 20
0.0000000000000051
 30
0.0
 11
140.8
 21
2.0
 31
0.0
  0
LINE
  5
34E
330
1E
100
AcDbEntity
  8
0
100
AcDbLine
 10
141.5459999999999
 20
0.000000000000005
 30
0.0
 11
141.5459999999999
 21
2.0
 31
0.0
  0
LINE
  5
34F
330
1E
100
AcDbEntity
  8
0
100
AcDbLine
 10
139.0739999999999
 20
0.0000000000000063
 30
0.0
 11
140.1289999999999
 21
0.0000000000000062
 31
0.0
  0
LINE
  5
350
330
1E
100
AcDbEntity
  8
0
100
AcDbLine
 10
139.0739999999999
 20
0.0000000000000063
 30
0.0
 11
139.0739999999999
 21
2.00000000000001
 31
0.0
  0
LINE
  5
351
330
1E
100
AcDbEntity
  8
0
100
AcDbLine
 10
145.499
 20
0.0000000000000042
 30
0.0
 11
146.94
 21
0.0000000000000042
 31
0.0
  0
LINE
  5
352
330
1E
100
AcDbEntity
  8
0
100
AcDbLine
 10
145.499
 20
0.0000000000000042
 30
0.0
 11
145.886
 21
0.0000000000000041
 31
0.0
  0
LINE
  5
353
330
1E
100
AcDbEntity
  8
0
100
AcDbLine
 10
145.499
 20
0.0000000000000042
 30
0.0
 11
145.499
 21
2.0
 31
0.0
  0
LINE
  5
354
330
1E
100
AcDbEntity
  8
0
100
AcDbLine
 10
146.94
 20
0.0000000000000042
 30
0.0
 11
147.327
 21
0.0000000000000041
 31
0.0
  0
LINE
  5
355
330
1E
100
AcDbEntity
  8
0
100
AcDbLine
 10
145.9299999999999
 20
0.0000000000000067
 30
0.0
 11
146.985
 21
0.0000000000000068
 31
0.0
  0
LINE
  5
356
330
1E
100
AcDbEntity
  8
0
100
AcDbLine
 10
145.9299999999999
 20
0.0000000000000067
 30
0.0
 11
146.985
 21
0.0000000000000067
 31
0.0
  0
LINE
  5
357
330
1E
100
AcDbEntity
  8
0
100
AcDbLine
 10
145.9299999999999
 20
0.0000000000000067
 30
0.0
 11
145.9299999999999
 21
2.00000000000001
 31
0.0
  0
LINE
  5
358
330
1E
100
AcDbEntity
  8
0
100
AcDbLine
 10
146.985
 20
0.0000000000000068
 30
0.0
 11
148.0399999999999
 21
0.0000000000000067
 31
0.0
  0
LINE
  5
359
330
1E
100
AcDbEntity
  8
0
100
AcDbLine
 10
146.985
 20
0.0000000000000068
 30
0.0
 11
146.985
 21
2.00000000000001
 31
0.0
  0
LINE
  5
35A
330
1E
100
AcDbEntity
  8
0
100
AcDbLine
 10
146.985
 20
0.0000000000000067
 30
0.0
 11
148.0399999999999
 21
0.0000000000000067
 31
0.0
  0
LINE
  5
35B
330
1E
100
AcDbEntity
  8
0
100
AcDbLine
 10
149.197
 20
0.0000000000000054
 30
0.0
 11
150.4879999999999
 21
0.0000000000000054
 31
0.0
  0
LINE
  5
35C
330
1E
100
AcDbEntity
  8
0
100
AcDbLine
 10
149.197
 20
0.0000000000000054
 30
0.0
 11
149.942
 21
0.0000000000000053
 31
0.0
  0
LINE
  5
35D
330
1E
100
AcDbEntity
  8
0
100
AcDbLine
 10
149.197
 20
0.0000000000000054
 30
0.0
 11
149.197
 21
2.00000000000001
 31
0.0
  0
LINE
  5
35E
330
1E
100
AcDbEntity
  8
0
100
AcDbLine
 10
150.4879999999999
 20
0.0000000000000054
 30
0.0
 11
151.234
 21
0.0000000000000053
 31
0.0
  0
LINE
  5
35F
330
1E
100
AcDbEntity
  8
0
100
AcDbLine
 10
150.4879999999999
 20
0.0000000000000054
 30
0.0
 11
150.4879999999999
 21
2.00000000000001
 31
0.0
  0
LINE
  5
360
330
1E
100
AcDbEntity
  8
0
100
AcDbLine
 10
151.234
 20
0.0000000000000053
 30
0.0
 11
151.234
 21
2.0
 31
0.0
  0
LINE
  5
361
330
1E
100
AcDbEntity
  8
0
100
AcDbLine
 10
149.942
 20
0.0000000000000053
 30
0.0
 11
151.234
 21
0.0000000000000053
 31
0.0
  0
LINE
  5
362
330
1E
100
AcDbEntity
  8
0
100
AcDbLine
 10
148.0399999999999
 20
0.0000000000000067
 30
0.0
 11
148.0399999999999
 21
2.00000000000001
 31
0.0
  0
LINE
  5
363
330
1E
100
AcDbEntity
  8
0
100
AcDbLine
 10
156.306
 20
0.0000000000000044
 30
0.0
 11
157.747
 21
0.0000000000000044
 31
0.0
  0
LINE
  5
364
330
1E
100
AcDbEntity
  8
0
100
AcDbLine
 10
156.306
 20
0.0000000000000044
 30
0.0
 11
156.692
 21
0.0000000000000043
 31
0.0
  0
LINE
  5
365
330
1E
100
AcDbEntity
  8
0
100
AcDbLine
 10
156.306
 20
0.0000000000000044
 30
0.0
 11
156.306
 21
2.0
 31
0.0
  0
LINE
  5
366
330
1E
100
AcDbEntity
  8
0
100
AcDbLine
 10
157.747
 20
0.0000000000000044
 30
0.0
 11
158.1329999999999
 21
0.0000000000000043
 31
0.0
  0
LINE
  5
367
330
1E
100
AcDbEntity
  8
0
100
AcDbLine
 10
157.747
 20
0.0000000000000044
 30
0.0
 11
157.747
 21
2.0
 31
0.0
  0
LINE
  5
368
330
1E
100
AcDbEntity
  8
0
100
AcDbLine
 10
158.1329999999999
 20
0.0000000000000043
 30
0.0
 11
158.1329999999999
 21
2.0
 31
0.0
  0
LINE
  5
369
330
1E
100
AcDbEntity
  8
0
100
AcDbLine
 10
156.692
 20
0.0000000000000043
 30
0.0
 11
158.1329999999999
 21
0.0000000000000043
 31
0.0
  0
LINE
  5
36A
330
1E
100
AcDbEntity
  8
0
100
AcDbLine
 10
147.675
 20
0.0000000000000033
 30
0.0
 11
149.167
 21
0.0000000000000033
 31
0.0
  0
LINE
  5
36B
330
1E
100
AcDbEntity
  8
0
100
AcDbLine
 10
137.9789999999999
 20
0.0000000000000033
 30
0.0
 11
137.9789999999999
 21
2.0
 31
0.0
  0
LINE
  5
36C
330
1E
100
AcDbEntity
  8
0
100
AcDbLine
 10
136.488
 20
0.0000000000000033
 30
0.0
 11
137.9789999999999
 21
0.0000000000000033
 31
0.0
  0
LINE
  5
36D
330
1E
100
AcDbEntity
  8
0
100
AcDbLine
 10
126.7919999999999
 20
2.0
 30
0.0
 11
129.1289999999999
 21
2.0
 31
0.0
  0
LINE
  5
36E
330
1E
100
AcDbEntity
  8
0
100
AcDbLine
 10
119.9789999999999
 20
2.0
 30
0.0
 11
120.131
 21
2.0
 31
0.0
  0
LINE
  5
36F
330
1E
100
AcDbEntity
  8
0
100
AcDbLine
 10
108.7919999999999
 20
2.0
 30
0.0
 11
109.6279999999999
 21
2.0
 31
0.0
  0
LINE
  5
370
330
1E
100
AcDbEntity
  8
0
100
AcDbLine
 10
129.1289999999999
 20
2.0
 30
0.0
 11
129.1289999999999
 21
-0.0000000000000012
 31
0.0
  0
LINE
  5
371
330
1E
100
AcDbEntity
  8
0
100
AcDbLine
 10
109.6279999999999
 20
2.0
 30
0.0
 11
109.6279999999999
 21
-0.0000000000000016
 31
0.0
  0
LINE
  5
372
330
1E
100
AcDbEntity
  8
0
100
AcDbLine
 10
143.424
 20
2.0
 30
0.0
 11
145.499
 21
2.0
 31
0.0
  0
LINE
  5
373
330
1E
100
AcDbEntity
  8
0
100
AcDbLine
 10
133.6529999999999
 20
2.0
 30
0.0
 11
134.6939999999999
 21
2.0
 31
0.0
  0
LINE
  5
374
330
1E
100
AcDbEntity
  8
0
100
AcDbLine
 10
151.234
 20
2.0
 30
0.0
 11
152.15
 21
2.0
 31
0.0
  0
LINE
  5
375
330
1E
100
AcDbEntity
  8
0
100
AcDbLine
 10
141.5459999999999
 20
2.0
 30
0.0
 11
143.424
 21
2.0
 31
0.0
  0
LINE
  5
376
330
1E
100
AcDbEntity
  8
0
100
AcDbLine
 10
132.2179999999999
 20
2.0
 30
0.0
 11
133.6529999999999
 21
2.0
 31
0.0
  0
LINE
  5
377
330
1E
100
AcDbEntity
  8
0
100
AcDbLine
 10
105.6629999999999
 20
2.0
 30
0.0
 11
106.376
 21
2.0
 31
0.0
  0
LINE
  5
378
330
1E
100
AcDbEntity
  8
0
100
AcDbLine
 10
100.575
 20
2.0
 30
0.0
 11
100.7529999999999
 21
2.0
 31
0.0
  0
LINE
  5
379
330
1E
100
AcDbEntity
  8
0
100
AcDbLine
 10
20.13749999999999
 20
2.0
 30
0.0
 11
20.8671
 21
2.0
 31
0.0
  0
LINE
  5
37A
330
1E
100
AcDbEntity
  8
0
100
AcDbLine
 10
88.7542
 20
2.0
 30
0.0
 11
88.7542
 21
-0.0000000000000004
 31
0.0
  0
LINE
  5
37B
330
1E
100
AcDbEntity
  8
0
100
AcDbLine
 10
73.33669999999999
 20
2.0
 30
0.0
 11
73.33669999999999
 21
-0.0000000000000004
 31
0.0
  0
LINE
  5
37C
330
1E
100
AcDbEntity
  8
0
100
AcDbLine
 10
59.0208
 20
2.0
 30
0.0
 11
59.0208
 21
0.0
 31
0.0
  0
LINE
  5
37D
330
1E
100
AcDbEntity
  8
0
100
AcDbLine
 10
138.019
 20
2.0
 30
0.0
 11
138.019
 21
0.0
 31
0.0
  0
LINE
  5
37E
330
1E
100
AcDbEntity
  8
0
100
AcDbLine
 10
117.942
 20
2.0
 30
0.0
 11
117.942
 21
0.0
 31
0.0
  0
LINE
  5
37F
330
1E
100
AcDbEntity
  8
0
100
AcDbLine
 10
22.694
 20
2.0
 30
0.0
 11
26.85
 21
2.0
 31
0.0
  0
LINE
  5
380
330
1E
100
AcDbEntity
  8
0
100
AcDbLine
 10
152.15
 20
2.0
 30
0.0
 11
156.306
 21
2.0
 31
0.0
  0
LINE
  5
381
330
1E
100
AcDbEntity
  8
0
100
AcDbLine
 10
158.8859999999999
 20
0.0000000000000007
 30
0.0
 11
160.177
 21
0.0000000000000007
 31
0.0
  0
LINE
  5
382
330
1E
100
AcDbEntity
  8
0
100
AcDbLine
 10
158.8859999999999
 20
0.0000000000000007
 30
0.0
 11
159.631
 21
0.0000000000000008
 31
0.0
  0
LINE
  5
383
330
1E
100
AcDbEntity
  8
0
100
AcDbLine
 10
160.177
 20
0.0000000000000007
 30
0.0
 11
160.923
 21
0.0000000000000007
 31
0.0
  0
LINE
  5
384
330
1E
100
AcDbEntity
  8
0
100
AcDbLine
 10
159.631
 20
0.0000000000000008
 30
0.0
 11
160.923
 21
0.0000000000000007
 31
0.0
  0
LINE
  5
385
330
1E
100
AcDbEntity
  8
0
100
AcDbLine
 10
158.863
 20
0.0000000000000032
 30
0.0
 11
160.3539999999999
 21
0.0000000000000032
 31
0.0
  0
LINE
  5
386
330
1E
100
AcDbEntity
  8
0
100
AcDbLine
 10
158.863
 20
0.0000000000000032
 30
0.0
 11
158.863
 21
2.0
 31
0.0
  0
LINE
  5
387
330
1E
100
AcDbEntity
  8
0
100
AcDbLine
 10
158.8859999999999
 20
0.0000000000000057
 30
0.0
 11
160.177
 21
0.0000000000000058
 31
0.0
  0
LINE
  5
388
330
1E
100
AcDbEntity
  8
0
100
AcDbLine
 10
158.8859999999999
 20
0.0000000000000057
 30
0.0
 11
159.631
 21
0.0000000000000056
 31
0.0
  0
LINE
  5
389
330
1E
100
AcDbEntity
  8
0
100
AcDbLine
 10
158.8859999999999
 20
0.0000000000000057
 30
0.0
 11
158.8859999999999
 21
2.00000000000001
 31
0.0
  0
LINE
  5
38A
330
1E
100
AcDbEntity
  8
0
100
AcDbLine
 10
160.177
 20
0.0000000000000058
 30
0.0
 11
160.923
 21
0.0000000000000057
 31
0.0
  0
LINE
  5
38B
330
1E
100
AcDbEntity
  8
0
100
AcDbLine
 10
160.177
 20
0.0000000000000058
 30
0.0
 11
160.177
 21
2.00000000000001
 31
0.0
  0
LINE
  5
38C
330
1E
100
AcDbEntity
  8
0
100
AcDbLine
 10
159.631
 20
0.0000000000000056
 30
0.0
 11
160.923
 21
0.0000000000000057
 31
0.0
  0
LINE
  5
38D
330
1E
100
AcDbEntity
  8
0
100
AcDbLine
 10
160.923
 20
0.0000000000000057
 30
0.0
 11
160.923
 21
2.00000000000001
 31
0.0
  0
LINE
  5
38E
330
1E
100
AcDbEntity
  8
0
100
AcDbLine
 10
158.863
 20
0.0000000000000033
 30
0.0
 11
158.863
 21
2.0
 31
0.0
  0
LINE
  5
38F
330
1E
100
AcDbEntity
  8
0
100
AcDbLine
 10
158.863
 20
0.0000000000000033
 30
0.0
 11
160.3539999999999
 21
0.0000000000000033
 31
0.0
  0
LINE
  5
390
330
1E
100
AcDbEntity
  8
0
100
AcDbLine
 10
158.1329999999999
 20
2.0
 30
0.0
 11
158.863
 21
2.0
 31
0.0
  0
LINE
  5
391
330
1E
100
AcDbEntity
  8
0
100
AcDbLine
 10
8.949999999999999
 20
2.0
 30
0.0
 11
10.0608
 21
2.0
 31
0.0
  0
LINE
  5
392
330
1E
100
AcDbEntity
  8
0
100
AcDbLine
 10
88.7542
 20
2.0
 30
0.0
 11
88.7542
 21
0.0000000000000004
 31
0.0
  0
LINE
  5
393
330
1E
100
AcDbEntity
  8
0
100
AcDbLine
 10
46.78189999999999
 20
2.0
 30
0.0
 11
46.78189999999999
 21
0.0000000000000008
 31
0.0
  0
LINE
  5
394
330
1E
100
AcDbEntity
  8
0
100
AcDbLine
 10
18.0769
 20
2.0
 30
0.0
 11
18.0769
 21
0.0000000000000008
 31
0.0
  0
LINE
  5
395
330
1E
100
AcDbEntity
  8
0
100
AcDbLine
 10
88.7542
 20
2.0
 30
0.0
 11
88.7542
 21
0.0000000000000008
 31
0.0
  0
LINE
  5
396
330
1E
100
AcDbEntity
  8
0
100
AcDbLine
 10
12.6046
 20
2.0
 30
0.0
 11
18.0769
 21
2.0
 31
0.0
  0
LINE
  5
397
330
1E
100
AcDbEntity
  8
0
100
AcDbLine
 10
11.8877
 20
2.0
 30
0.0
 11
12.6046
 21
2.0
 31
0.0
  0
LINE
  5
398
330
1E
100
AcDbEntity
  8
0
100
AcDbLine
 10
160.923
 20
2.0
 30
0.0
 11
166.3949999999999
 21
2.0
 31
0.0
  0
LINE
  5
399
330
1E
100
AcDbEntity
  8
0
100
AcDbLine
 10
167.1119999999999
 20
0.0000000000000019
 30
0.0
 11
168.5529999999999
 21
0.0000000000000019
 31
0.0
  0
LINE
  5
39A
330
1E
100
AcDbEntity
  8
0
100
AcDbLine
 10
167.1119999999999
 20
0.0000000000000019
 30
0.0
 11
167.499
 21
0.000000000000002
 31
0.0
  0
LINE
  5
39B
330
1E
100
AcDbEntity
  8
0
100
AcDbLine
 10
167.1119999999999
 20
0.0000000000000019
 30
0.0
 11
167.1119999999999
 21
2.0
 31
0.0
  0
LINE
  5
39C
330
1E
100
AcDbEntity
  8
0
100
AcDbLine
 10
168.5529999999999
 20
0.0000000000000019
 30
0.0
 11
168.939
 21
0.000000000000002
 31
0.0
  0
LINE
  5
39D
330
1E
100
AcDbEntity
  8
0
100
AcDbLine
 10
167.499
 20
0.000000000000002
 30
0.0
 11
168.939
 21
0.000000000000002
 31
0.0
  0
LINE
  5
39E
330
1E
100
AcDbEntity
  8
0
100
AcDbLine
 10
170.05
 20
0.0000000000000032
 30
0.0
 11
171.5419999999999
 21
0.0000000000000032
 31
0.0
  0
LINE
  5
39F
330
1E
100
AcDbEntity
  8
0
100
AcDbLine
 10
170.05
 20
0.0000000000000032
 30
0.0
 11
170.05
 21
2.0
 31
0.0
  0
LINE
  5
3A0
330
1E
100
AcDbEntity
  8
0
100
AcDbLine
 10
171.5419999999999
 20
0.0000000000000033
 30
0.0
 11
171.5419999999999
 21
2.0
 31
0.0
  0
LINE
  5
3A1
330
1E
100
AcDbEntity
  8
0
100
AcDbLine
 10
167.1119999999999
 20
0.0000000000000045
 30
0.0
 11
168.5529999999999
 21
0.0000000000000046
 31
0.0
  0
LINE
  5
3A2
330
1E
100
AcDbEntity
  8
0
100
AcDbLine
 10
167.1119999999999
 20
0.0000000000000045
 30
0.0
 11
167.499
 21
0.0000000000000044
 31
0.0
  0
LINE
  5
3A3
330
1E
100
AcDbEntity
  8
0
100
AcDbLine
 10
167.1119999999999
 20
0.0000000000000045
 30
0.0
 11
167.1119999999999
 21
2.0
 31
0.0
  0
LINE
  5
3A4
330
1E
100
AcDbEntity
  8
0
100
AcDbLine
 10
168.5529999999999
 20
0.0000000000000046
 30
0.0
 11
168.939
 21
0.0000000000000045
 31
0.0
  0
LINE
  5
3A5
330
1E
100
AcDbEntity
  8
0
100
AcDbLine
 10
168.5529999999999
 20
0.0000000000000046
 30
0.0
 11
168.5529999999999
 21
2.0
 31
0.0
  0
LINE
  5
3A6
330
1E
100
AcDbEntity
  8
0
100
AcDbLine
 10
168.939
 20
0.0000000000000045
 30
0.0
 11
168.939
 21
2.0
 31
0.0
  0
LINE
  5
3A7
330
1E
100
AcDbEntity
  8
0
100
AcDbLine
 10
167.499
 20
0.0000000000000044
 30
0.0
 11
168.939
 21
0.0000000000000045
 31
0.0
  0
LINE
  5
3A8
330
1E
100
AcDbEntity
  8
0
100
AcDbLine
 10
170.05
 20
0.0000000000000033
 30
0.0
 11
170.05
 21
2.0
 31
0.0
  0
LINE
  5
3A9
330
1E
100
AcDbEntity
  8
0
100
AcDbLine
 10
170.05
 20
0.0000000000000033
 30
0.0
 11
171.5419999999999
 21
0.0000000000000033
 31
0.0
  0
LINE
  5
3AA
330
1E
100
AcDbEntity
  8
0
100
AcDbLine
 10
166.3949999999999
 20
2.0
 30
0.0
 11
167.1119999999999
 21
2.0
 31
0.0
  0
LINE
  5
3AB
330
1E
100
AcDbEntity
  8
0
100
AcDbLine
 10
27.76559999999999
 20
2.0
 30
0.0
 11
27.76559999999999
 21
0.0000000000000012
 31
0.0
  0
LINE
  5
3AC
330
1E
100
AcDbEntity
  8
0
100
AcDbLine
 10
88.7542
 20
2.0
 30
0.0
 11
88.7542
 21
0.0000000000000012
 31
0.0
  0
LINE
  5
3AD
330
1E
100
AcDbEntity
  8
0
100
AcDbLine
 10
62.60349999999999
 20
2.0
 30
0.0
 11
62.60349999999999
 21
0.0000000000000016
 31
0.0
  0
LINE
  5
3AE
330
1E
100
AcDbEntity
  8
0
100
AcDbLine
 10
37.4543
 20
2.0
 30
0.0
 11
37.4543
 21
0.0000000000000016
 31
0.0
  0
LINE
  5
3AF
330
1E
100
AcDbEntity
  8
0
100
AcDbLine
 10
56.8315
 20
2.0
 30
0.0
 11
56.8315
 21
0.000000000000002
 31
0.0
  0
LINE
  5
3B0
330
1E
100
AcDbEntity
  8
0
100
AcDbLine
 10
20.8671
 20
2.0
 30
0.0
 11
20.8671
 21
0.000000000000002
 31
0.0
  0
LINE
  5
3B1
330
1E
100
AcDbEntity
  8
0
100
AcDbLine
 10
10.0608
 20
2.0
 30
0.0
 11
10.0608
 21
0.000000000000002
 31
0.0
  0
LINE
  5
3B2
330
1E
100
AcDbEntity
  8
0
100
AcDbLine
 10
88.7542
 20
2.0
 30
0.0
 11
88.7542
 21
0.0000000000000016
 31
0.0
  0
LINE
  5
3B3
330
1E
100
AcDbEntity
  8
0
100
AcDbLine
 10
70.2083
 20
2.0
 30
0.0
 11
70.2083
 21
0.0000000000000012
 31
0.0
  0
LINE
  5
3B4
330
1E
100
AcDbEntity
  8
0
100
AcDbLine
 10
122.198
 20
2.0
 30
0.0
 11
122.198
 21
0.0000000000000012
 31
0.0
  0
LINE
  5
3B5
330
1E
100
AcDbEntity
  8
0
100
AcDbLine
 10
98.045
 20
2.0
 30
0.0
 11
98.045
 21
0.0000000000000012
 31
0.0
  0
LINE
  5
3B6
330
1E
100
AcDbEntity
  8
0
100
AcDbLine
 10
95.14969999999999
 20
2.0
 30
0.0
 11
95.14969999999999
 21
0.0000000000000016
 31
0.0
  0
LINE
  5
3B7
330
1E
100
AcDbEntity
  8
0
100
AcDbLine
 10
106.376
 20
2.0
 30
0.0
 11
106.376
 21
0.000000000000002
 31
0.0
  0
LINE
  5
3B8
330
1E
100
AcDbEntity
  8
0
100
AcDbLine
 10
149.197
 20
2.0
 30
0.0
 11
149.197
 21
0.0000000000000012
 31
0.0
  0
LINE
  5
3B9
330
1E
100
AcDbEntity
  8
0
100
AcDbLine
 10
120.131
 20
2.0
 30
0.0
 11
120.131
 21
0.000000000000002
 31
0.0
  0
LINE
  5
3BA
330
1E
100
AcDbEntity
  8
0
100
AcDbLine
 10
167.1119999999999
 20
2.0
 30
0.0
 11
167.1119999999999
 21
0.000000000000002
 31
0.0
  0
LINE
  5
3BB
330
1E
100
AcDbEntity
  8
0
100
AcDbLine
 10
156.306
 20
2.0
 30
0.0
 11
156.306
 21
0.000000000000002
 31
0.0
  0
LINE
  5
3BC
330
1E
100
AcDbEntity
  8
0
100
AcDbLine
 10
3.952919999999999
 20
2.0
 30
0.0
 11
7.45833
 21
2.0
 31
0.0
  0
LINE
  5
3BD
330
1E
100
AcDbEntity
  8
0
100
AcDbLine
 10
168.939
 20
2.0
 30
0.0
 11
170.05
 21
2.0
 31
0.0
  0
LINE
  5
3BE
330
1E
100
AcDbEntity
  8
0
100
AcDbLine
 10
171.5419999999999
 20
2.0
 30
0.0
 11
175.0469999999999
 21
2.0
 31
0.0
  0
LINE
  5
3BF
330
1E
100
AcDbEntity
  8
0
100
AcDbLine
 10
8.949999999999999
 20
2.0
 30
0.0
 11
8.949999999999999
 21
0.0000000000000032
 31
0.0
  0
LINE
  5
3C0
330
1E
100
AcDbEntity
  8
0
100
AcDbLine
 10
7.45833
 20
2.0
 30
0.0
 11
7.45833
 21
0.0000000000000032
 31
0.0
  0
LINE
  5
3C1
330
1E
100
AcDbEntity
  8
0
100
AcDbLine
 10
7.45833
 20
2.0
 30
0.0
 11
8.949999999999999
 21
2.0
 31
0.0
  0
LINE
  5
3C2
330
1E
100
AcDbEntity
  8
0
100
AcDbLine
 10
20.13749999999999
 20
2.0
 30
0.0
 11
20.13749999999999
 21
0.0000000000000032
 31
0.0
  0
LINE
  5
3C3
330
1E
100
AcDbEntity
  8
0
100
AcDbLine
 10
88.7542
 20
2.0
 30
0.0
 11
88.7542
 21
0.0000000000000024
 31
0.0
  0
LINE
  5
3C4
330
1E
100
AcDbEntity
  8
0
100
AcDbLine
 10
84.9191
 20
2.0
 30
0.0
 11
84.9191
 21
0.0000000000000024
 31
0.0
  0
LINE
  5
3C5
330
1E
100
AcDbEntity
  8
0
100
AcDbLine
 10
78.4251
 20
2.0
 30
0.0
 11
78.4251
 21
0.0000000000000028
 31
0.0
  0
LINE
  5
3C6
330
1E
100
AcDbEntity
  8
0
100
AcDbLine
 10
81.3958
 20
2.0
 30
0.0
 11
81.3958
 21
0.0000000000000024
 31
0.0
  0
LINE
  5
3C7
330
1E
100
AcDbEntity
  8
0
100
AcDbLine
 10
92.2544
 20
2.0
 30
0.0
 11
92.2544
 21
0.0000000000000024
 31
0.0
  0
LINE
  5
3C8
330
1E
100
AcDbEntity
  8
0
100
AcDbLine
 10
100.7529999999999
 20
2.0
 30
0.0
 11
100.7529999999999
 21
0.0000000000000028
 31
0.0
  0
LINE
  5
3C9
330
1E
100
AcDbEntity
  8
0
100
AcDbLine
 10
134.6939999999999
 20
2.0
 30
0.0
 11
134.6939999999999
 21
0.0000000000000024
 31
0.0
  0
LINE
  5
3CA
330
1E
100
AcDbEntity
  8
0
100
AcDbLine
 10
126.7919999999999
 20
2.0
 30
0.0
 11
126.7919999999999
 21
0.0000000000000032
 31
0.0
  0
LINE
  5
3CB
330
1E
100
AcDbEntity
  8
0
100
AcDbLine
 10
125.7139999999999
 20
2.0
 30
0.0
 11
126.7919999999999
 21
2.0
 31
0.0
  0
LINE
  5
3CC
330
1E
100
AcDbEntity
  8
0
100
AcDbLine
 10
145.499
 20
2.0
 30
0.0
 11
145.499
 21
0.0000000000000024
 31
0.0
  0
LINE
  5
3CD
330
1E
100
AcDbEntity
  8
0
100
AcDbLine
 10
158.863
 20
2.0
 30
0.0
 11
158.863
 21
0.0000000000000032
 31
0.0
  0
LINE
  5
3CE
330
1E
100
AcDbEntity
  8
0
100
AcDbLine
 10
171.5419999999999
 20
2.0
 30
0.0
 11
171.5419999999999
 21
0.0000000000000032
 31
0.0
  0
LINE
  5
3CF
330
1E
100
AcDbEntity
  8
0
100
AcDbLine
 10
170.05
 20
2.0
 30
0.0
 11
171.5419999999999
 21
2.0
 31
0.0
  0
LINE
  5
3D0
330
1E
100
AcDbEntity
  8
0
100
AcDbLine
 10
170.05
 20
2.0
 30
0.0
 11
170.05
 21
0.0000000000000032
 31
0.0
  0
LINE
  5
3D1
330
1E
100
AcDbEntity
  8
0
100
AcDbLine
 10
149.167
 20
2.0
 30
0.0
 11
149.167
 21
0.0000000000000032
 31
0.0
  0
LINE
  5
3D2
330
1E
100
AcDbEntity
  8
0
100
AcDbLine
 10
148.0399999999999
 20
2.0
 30
0.0
 11
149.167
 21
2.0
 31
0.0
  0
LINE
  5
3D3
330
1E
100
AcDbEntity
  8
0
100
AcDbLine
 10
137.9789999999999
 20
2.0
 30
0.0
 11
137.9789999999999
 21
0.0000000000000032
 31
0.0
  0
LINE
  5
3D4
330
1E
100
AcDbEntity
  8
0
100
AcDbLine
 10
136.52
 20
2.0
 30
0.0
 11
137.9789999999999
 21
2.0
 31
0.0
  0
LINE
  5
3D5
330
1E
100
AcDbEntity
  8
0
100
AcDbLine
 10
52.2083
 20
2.0
 30
0.0
 11
52.2083
 21
0.0000000000000032
 31
0.0
  0
LINE
  5
3D6
330
1E
100
AcDbEntity
  8
0
100
AcDbLine
 10
52.2083
 20
2.0
 30
0.0
 11
53.286
 21
2.0
 31
0.0
  0
LINE
  5
3D7
330
1E
100
AcDbEntity
  8
0
100
AcDbLine
 10
41.02079999999999
 20
2.0
 30
0.0
 11
41.02079999999999
 21
0.0000000000000032
 31
0.0
  0
LINE
  5
3D8
330
1E
100
AcDbEntity
  8
0
100
AcDbLine
 10
41.02079999999999
 20
2.0
 30
0.0
 11
42.4797
 21
2.0
 31
0.0
  0
LINE
  5
3D9
330
1E
100
AcDbEntity
  8
0
100
AcDbLine
 10
42.4797
 20
2.0
 30
0.0
 11
42.4797
 21
0.000000000000004
 31
0.0
  0
LINE
  5
3DA
330
1E
100
AcDbEntity
  8
0
100
AcDbLine
 10
42.4797
 20
2.0
 30
0.0
 11
42.8657
 21
2.0
 31
0.0
  0
LINE
  5
3DB
330
1E
100
AcDbEntity
  8
0
100
AcDbLine
 10
103.1979999999999
 20
2.0
 30
0.0
 11
103.716
 21
2.0
 31
0.0
  0
LINE
  5
3DC
330
1E
100
AcDbEntity
  8
0
100
AcDbLine
 10
103.716
 20
2.0
 30
0.0
 11
103.716
 21
0.0000000000000036
 31
0.0
  0
LINE
  5
3DD
330
1E
100
AcDbEntity
  8
0
100
AcDbLine
 10
103.716
 20
2.0
 30
0.0
 11
103.8359999999999
 21
2.0
 31
0.0
  0
LINE
  5
3DE
330
1E
100
AcDbEntity
  8
0
100
AcDbLine
 10
100.7529999999999
 20
2.0
 30
0.0
 11
100.7529999999999
 21
0.0000000000000036
 31
0.0
  0
LINE
  5
3DF
330
1E
100
AcDbEntity
  8
0
100
AcDbLine
 10
100.7529999999999
 20
2.0
 30
0.0
 11
100.941
 21
2.0
 31
0.0
  0
LINE
  5
3E0
330
1E
100
AcDbEntity
  8
0
100
AcDbLine
 10
125.573
 20
2.0
 30
0.0
 11
125.7139999999999
 21
2.0
 31
0.0
  0
LINE
  5
3E1
330
1E
100
AcDbEntity
  8
0
100
AcDbLine
 10
125.7139999999999
 20
2.0
 30
0.0
 11
125.7139999999999
 21
0.0000000000000036
 31
0.0
  0
LINE
  5
3E2
330
1E
100
AcDbEntity
  8
0
100
AcDbLine
 10
78.2469
 20
2.0
 30
0.0
 11
78.2469
 21
0.0000000000000036
 31
0.0
  0
LINE
  5
3E3
330
1E
100
AcDbEntity
  8
0
100
AcDbLine
 10
78.05889999999999
 20
2.0
 30
0.0
 11
78.2469
 21
2.0
 31
0.0
  0
LINE
  5
3E4
330
1E
100
AcDbEntity
  8
0
100
AcDbLine
 10
75.1636
 20
2.0
 30
0.0
 11
75.2844
 21
2.0
 31
0.0
  0
LINE
  5
3E5
330
1E
100
AcDbEntity
  8
0
100
AcDbLine
 10
66.6521
 20
2.0
 30
0.0
 11
67.26600000000001
 21
2.0
 31
0.0
  0
LINE
  5
3E6
330
1E
100
AcDbEntity
  8
0
100
AcDbLine
 10
78.4251
 20
2.0
 30
0.0
 11
78.4251
 21
0.000000000000004
 31
0.0
  0
LINE
  5
3E7
330
1E
100
AcDbEntity
  8
0
100
AcDbLine
 10
78.4251
 20
2.0
 30
0.0
 11
79.1277
 21
2.0
 31
0.0
  0
LINE
  5
3E8
330
1E
100
AcDbEntity
  8
0
100
AcDbLine
 10
81.3958
 20
2.0
 30
0.0
 11
81.3958
 21
0.000000000000004
 31
0.0
  0
LINE
  5
3E9
330
1E
100
AcDbEntity
  8
0
100
AcDbLine
 10
81.3958
 20
2.0
 30
0.0
 11
82.02299999999999
 21
2.0
 31
0.0
  0
LINE
  5
3EA
330
1E
100
AcDbEntity
  8
0
100
AcDbLine
 10
88.7542
 20
2.0
 30
0.0
 11
88.7542
 21
0.000000000000004
 31
0.0
  0
LINE
  5
3EB
330
1E
100
AcDbEntity
  8
0
100
AcDbLine
 10
92.2544
 20
2.0
 30
0.0
 11
92.2544
 21
0.000000000000004
 31
0.0
  0
LINE
  5
3EC
330
1E
100
AcDbEntity
  8
0
100
AcDbLine
 10
92.2544
 20
2.0
 30
0.0
 11
92.64000000000001
 21
2.0
 31
0.0
  0
LINE
  5
3ED
330
1E
100
AcDbEntity
  8
0
100
AcDbLine
 10
92.64000000000001
 20
2.0
 30
0.0
 11
92.64000000000001
 21
0.000000000000004
 31
0.0
  0
LINE
  5
3EE
330
1E
100
AcDbEntity
  8
0
100
AcDbLine
 10
92.64000000000001
 20
2.0
 30
0.0
 11
94.08089999999999
 21
2.0
 31
0.0
  0
LINE
  5
3EF
330
1E
100
AcDbEntity
  8
0
100
AcDbLine
 10
134.6939999999999
 20
2.0
 30
0.0
 11
134.6939999999999
 21
0.000000000000004
 31
0.0
  0
LINE
  5
3F0
330
1E
100
AcDbEntity
  8
0
100
AcDbLine
 10
134.6939999999999
 20
2.0
 30
0.0
 11
136.1339999999999
 21
2.0
 31
0.0
  0
LINE
  5
3F1
330
1E
100
AcDbEntity
  8
0
100
AcDbLine
 10
136.1339999999999
 20
2.0
 30
0.0
 11
136.1339999999999
 21
0.000000000000004
 31
0.0
  0
LINE
  5
3F2
330
1E
100
AcDbEntity
  8
0
100
AcDbLine
 10
136.1339999999999
 20
2.0
 30
0.0
 11
136.52
 21
2.0
 31
0.0
  0
LINE
  5
3F3
330
1E
100
AcDbEntity
  8
0
100
AcDbLine
 10
136.52
 20
2.0
 30
0.0
 11
136.52
 21
0.000000000000004
 31
0.0
  0
LINE
  5
3F4
330
1E
100
AcDbEntity
  8
0
100
AcDbLine
 10
111.4539999999999
 20
2.0
 30
0.0
 11
111.7339999999999
 21
2.0
 31
0.0
  0
LINE
  5
3F5
330
1E
100
AcDbEntity
  8
0
100
AcDbLine
 10
111.7339999999999
 20
2.0
 30
0.0
 11
111.7339999999999
 21
0.000000000000004
 31
0.0
  0
LINE
  5
3F6
330
1E
100
AcDbEntity
  8
0
100
AcDbLine
 10
111.7339999999999
 20
2.0
 30
0.0
 11
112.348
 21
2.0
 31
0.0
  0
LINE
  5
3F7
330
1E
100
AcDbEntity
  8
0
100
AcDbLine
 10
99.8723
 20
2.0
 30
0.0
 11
100.575
 21
2.0
 31
0.0
  0
LINE
  5
3F8
330
1E
100
AcDbEntity
  8
0
100
AcDbLine
 10
100.575
 20
2.0
 30
0.0
 11
100.575
 21
0.000000000000004
 31
0.0
  0
LINE
  5
3F9
330
1E
100
AcDbEntity
  8
0
100
AcDbLine
 10
96.97700000000001
 20
2.0
 30
0.0
 11
97.60420000000001
 21
2.0
 31
0.0
  0
LINE
  5
3FA
330
1E
100
AcDbEntity
  8
0
100
AcDbLine
 10
97.60420000000001
 20
2.0
 30
0.0
 11
97.60420000000001
 21
0.000000000000004
 31
0.0
  0
LINE
  5
3FB
330
1E
100
AcDbEntity
  8
0
100
AcDbLine
 10
94.08089999999999
 20
2.0
 30
0.0
 11
94.08089999999999
 21
0.000000000000004
 31
0.0
  0
LINE
  5
3FC
330
1E
100
AcDbEntity
  8
0
100
AcDbLine
 10
86.74559999999999
 20
2.0
 30
0.0
 11
86.74559999999999
 21
0.000000000000004
 31
0.0
  0
LINE
  5
3FD
330
1E
100
AcDbEntity
  8
0
100
AcDbLine
 10
84.9191
 20
2.0
 30
0.0
 11
84.9191
 21
0.000000000000004
 31
0.0
  0
LINE
  5
3FE
330
1E
100
AcDbEntity
  8
0
100
AcDbLine
 10
84.9191
 20
2.0
 30
0.0
 11
86.36000000000001
 21
2.0
 31
0.0
  0
LINE
  5
3FF
330
1E
100
AcDbEntity
  8
0
100
AcDbLine
 10
86.36000000000001
 20
2.0
 30
0.0
 11
86.36000000000001
 21
0.000000000000004
 31
0.0
  0
LINE
  5
400
330
1E
100
AcDbEntity
  8
0
100
AcDbLine
 10
86.36000000000001
 20
2.0
 30
0.0
 11
86.74559999999999
 21
2.0
 31
0.0
  0
LINE
  5
401
330
1E
100
AcDbEntity
  8
0
100
AcDbLine
 10
67.26600000000001
 20
2.0
 30
0.0
 11
67.26600000000001
 21
0.000000000000004
 31
0.0
  0
LINE
  5
402
330
1E
100
AcDbEntity
  8
0
100
AcDbLine
 10
67.26600000000001
 20
2.0
 30
0.0
 11
67.54559999999999
 21
2.0
 31
0.0
  0
LINE
  5
403
330
1E
100
AcDbEntity
  8
0
100
AcDbLine
 10
75.2844
 20
2.0
 30
0.0
 11
75.2844
 21
0.0000000000000036
 31
0.0
  0
LINE
  5
404
330
1E
100
AcDbEntity
  8
0
100
AcDbLine
 10
75.2844
 20
2.0
 30
0.0
 11
75.80199999999999
 21
2.0
 31
0.0
  0
LINE
  5
405
330
1E
100
AcDbEntity
  8
0
100
AcDbLine
 10
53.286
 20
2.0
 30
0.0
 11
53.286
 21
0.0000000000000036
 31
0.0
  0
LINE
  5
406
330
1E
100
AcDbEntity
  8
0
100
AcDbLine
 10
53.286
 20
2.0
 30
0.0
 11
53.427
 21
2.0
 31
0.0
  0
LINE
  5
407
330
1E
100
AcDbEntity
  8
0
100
AcDbLine
 10
44.3066
 20
2.0
 30
0.0
 11
44.3066
 21
0.000000000000004
 31
0.0
  0
LINE
  5
408
330
1E
100
AcDbEntity
  8
0
100
AcDbLine
 10
42.8657
 20
2.0
 30
0.0
 11
42.8657
 21
0.000000000000004
 31
0.0
  0
LINE
  5
409
330
1E
100
AcDbEntity
  8
0
100
AcDbLine
 10
42.8657
 20
2.0
 30
0.0
 11
44.3066
 21
2.0
 31
0.0
  0
LINE
  5
40A
330
1E
100
AcDbEntity
  8
0
100
AcDbLine
 10
29.8333
 20
2.0
 30
0.0
 11
29.8333
 21
0.0000000000000032
 31
0.0
  0
LINE
  5
40B
330
1E
100
AcDbEntity
  8
0
100
AcDbLine
 10
29.8333
 20
2.0
 30
0.0
 11
30.9604
 21
2.0
 31
0.0
  0
LINE
  5
40C
330
1E
100
AcDbEntity
  8
0
100
AcDbLine
 10
1.64083
 20
2.0
 30
0.0
 11
3.952919999999999
 21
2.0
 31
0.0
  0
LINE
  5
40D
330
1E
100
AcDbEntity
  8
0
100
AcDbLine
 10
175.0469999999999
 20
2.0
 30
0.0
 11
177.359
 21
2.0
 31
0.0
  0
LINE
  5
40E
330
1E
100
AcDbEntity
  8
0
100
AcDbLine
 10
177.359
 20
2.0
 30
0.0
 11
178.254
 21
2.0
 31
0.0
  0
LINE
  5
40F
330
1E
100
AcDbEntity
  8
0
100
AcDbLine
 10
177.359
 20
2.0
 30
0.0
 11
178.254
 21
2.0
 31
0.0
  0
LINE
  5
410
330
1E
100
AcDbEntity
  8
0
100
AcDbLine
 10
178.254
 20
2.0
 30
0.0
 11
179.0
 21
3.0
 31
0.0
  0
LINE
  5
411
330
1E
100
AcDbEntity
  8
0
100
AcDbLine
 10
0.894999999999997
 20
16.0
 30
0.0
 11
3.207079999999999
 21
16.0
 31
0.0
  0
LINE
  5
412
330
1E
100
AcDbEntity
  8
0
100
AcDbLine
 10
20.8671
 20
2.0
 30
0.0
 11
20.8671
 21
0.0000000000000044
 31
0.0
  0
LINE
  5
413
330
1E
100
AcDbEntity
  8
0
100
AcDbLine
 10
20.8671
 20
2.0
 30
0.0
 11
21.25319999999999
 21
2.0
 31
0.0
  0
LINE
  5
414
330
1E
100
AcDbEntity
  8
0
100
AcDbLine
 10
56.8315
 20
2.0
 30
0.0
 11
56.8315
 21
0.0000000000000044
 31
0.0
  0
LINE
  5
415
330
1E
100
AcDbEntity
  8
0
100
AcDbLine
 10
56.8315
 20
2.0
 30
0.0
 11
57.5774
 21
2.0
 31
0.0
  0
LINE
  5
416
330
1E
100
AcDbEntity
  8
0
100
AcDbLine
 10
120.131
 20
2.0
 30
0.0
 11
120.131
 21
0.0000000000000044
 31
0.0
  0
LINE
  5
417
330
1E
100
AcDbEntity
  8
0
100
AcDbLine
 10
120.131
 20
2.0
 30
0.0
 11
121.422
 21
2.0
 31
0.0
  0
LINE
  5
418
330
1E
100
AcDbEntity
  8
0
100
AcDbLine
 10
156.306
 20
2.0
 30
0.0
 11
156.306
 21
0.0000000000000044
 31
0.0
  0
LINE
  5
419
330
1E
100
AcDbEntity
  8
0
100
AcDbLine
 10
156.306
 20
2.0
 30
0.0
 11
157.747
 21
2.0
 31
0.0
  0
LINE
  5
41A
330
1E
100
AcDbEntity
  8
0
100
AcDbLine
 10
157.747
 20
2.0
 30
0.0
 11
157.747
 21
0.0000000000000044
 31
0.0
  0
LINE
  5
41B
330
1E
100
AcDbEntity
  8
0
100
AcDbLine
 10
157.747
 20
2.0
 30
0.0
 11
158.1329999999999
 21
2.0
 31
0.0
  0
LINE
  5
41C
330
1E
100
AcDbEntity
  8
0
100
AcDbLine
 10
167.1119999999999
 20
2.0
 30
0.0
 11
167.1119999999999
 21
0.0000000000000044
 31
0.0
  0
LINE
  5
41D
330
1E
100
AcDbEntity
  8
0
100
AcDbLine
 10
167.1119999999999
 20
2.0
 30
0.0
 11
168.5529999999999
 21
2.0
 31
0.0
  0
LINE
  5
41E
330
1E
100
AcDbEntity
  8
0
100
AcDbLine
 10
168.939
 20
2.0
 30
0.0
 11
168.939
 21
0.0000000000000044
 31
0.0
  0
LINE
  5
41F
330
1E
100
AcDbEntity
  8
0
100
AcDbLine
 10
158.1329999999999
 20
2.0
 30
0.0
 11
158.1329999999999
 21
0.0000000000000044
 31
0.0
  0
LINE
  5
420
330
1E
100
AcDbEntity
  8
0
100
AcDbLine
 10
145.499
 20
2.0
 30
0.0
 11
145.499
 21
0.0000000000000044
 31
0.0
  0
LINE
  5
421
330
1E
100
AcDbEntity
  8
0
100
AcDbLine
 10
145.499
 20
2.0
 30
0.0
 11
145.9299999999999
 21
2.0
 31
0.0
  0
LINE
  5
422
330
1E
100
AcDbEntity
  8
0
100
AcDbLine
 10
121.422
 20
2.0
 30
0.0
 11
121.422
 21
0.0000000000000044
 31
0.0
  0
LINE
  5
423
330
1E
100
AcDbEntity
  8
0
100
AcDbLine
 10
121.422
 20
2.0
 30
0.0
 11
122.1679999999999
 21
2.0
 31
0.0
  0
LINE
  5
424
330
1E
100
AcDbEntity
  8
0
100
AcDbLine
 10
122.1679999999999
 20
2.0
 30
0.0
 11
122.1679999999999
 21
0.0000000000000044
 31
0.0
  0
LINE
  5
425
330
1E
100
AcDbEntity
  8
0
100
AcDbLine
 10
106.376
 20
2.0
 30
0.0
 11
106.376
 21
0.0000000000000044
 31
0.0
  0
LINE
  5
426
330
1E
100
AcDbEntity
  8
0
100
AcDbLine
 10
106.376
 20
2.0
 30
0.0
 11
106.732
 21
2.0
 31
0.0
  0
LINE
  5
427
330
1E
100
AcDbEntity
  8
0
100
AcDbLine
 10
72.6237
 20
2.0
 30
0.0
 11
72.6237
 21
0.0000000000000044
 31
0.0
  0
LINE
  5
428
330
1E
100
AcDbEntity
  8
0
100
AcDbLine
 10
72.2681
 20
2.0
 30
0.0
 11
72.6237
 21
2.0
 31
0.0
  0
LINE
  5
429
330
1E
100
AcDbEntity
  8
0
100
AcDbLine
 10
58.86919999999999
 20
2.0
 30
0.0
 11
58.86919999999999
 21
0.0000000000000044
 31
0.0
  0
LINE
  5
42A
330
1E
100
AcDbEntity
  8
0
100
AcDbLine
 10
57.5774
 20
2.0
 30
0.0
 11
57.5774
 21
0.0000000000000044
 31
0.0
  0
LINE
  5
42B
330
1E
100
AcDbEntity
  8
0
100
AcDbLine
 10
57.5774
 20
2.0
 30
0.0
 11
58.86919999999999
 21
2.0
 31
0.0
  0
LINE
  5
42C
330
1E
100
AcDbEntity
  8
0
100
AcDbLine
 10
33.5003
 20
2.0
 30
0.0
 11
33.5003
 21
0.0000000000000044
 31
0.0
  0
LINE
  5
42D
330
1E
100
AcDbEntity
  8
0
100
AcDbLine
 10
33.07
 20
2.0
 30
0.0
 11
33.5003
 21
2.0
 31
0.0
  0
LINE
  5
42E
330
1E
100
AcDbEntity
  8
0
100
AcDbLine
 10
22.694
 20
2.0
 30
0.0
 11
22.694
 21
0.0000000000000044
 31
0.0
  0
LINE
  5
42F
330
1E
100
AcDbEntity
  8
0
100
AcDbLine
 10
21.25319999999999
 20
2.0
 30
0.0
 11
21.25319999999999
 21
0.0000000000000044
 31
0.0
  0
LINE
  5
430
330
1E
100
AcDbEntity
  8
0
100
AcDbLine
 10
21.25319999999999
 20
2.0
 30
0.0
 11
22.694
 21
2.0
 31
0.0
  0
LINE
  5
431
330
1E
100
AcDbEntity
  8
0
100
AcDbLine
 10
62.60349999999999
 20
2.0
 30
0.0
 11
62.60349999999999
 21
0.0000000000000047
 31
0.0
  0
LINE
  5
432
330
1E
100
AcDbEntity
  8
0
100
AcDbLine
 10
62.60349999999999
 20
2.0
 30
0.0
 11
63.6582
 21
2.0
 31
0.0
  0
LINE
  5
433
330
1E
100
AcDbEntity
  8
0
100
AcDbLine
 10
63.6582
 20
2.0
 30
0.0
 11
63.6582
 21
0.0000000000000047
 31
0.0
  0
LINE
  5
434
330
1E
100
AcDbEntity
  8
0
100
AcDbLine
 10
63.6582
 20
2.0
 30
0.0
 11
64.61450000000001
 21
2.0
 31
0.0
  0
LINE
  5
435
330
1E
100
AcDbEntity
  8
0
100
AcDbLine
 10
88.7542
 20
2.0
 30
0.0
 11
88.7542
 21
0.0000000000000047
 31
0.0
  0
LINE
  5
436
330
1E
100
AcDbEntity
  8
0
100
AcDbLine
 10
95.14969999999999
 20
2.0
 30
0.0
 11
95.14969999999999
 21
0.0000000000000047
 31
0.0
  0
LINE
  5
437
330
1E
100
AcDbEntity
  8
0
100
AcDbLine
 10
95.14969999999999
 20
2.0
 30
0.0
 11
95.53600000000001
 21
2.0
 31
0.0
  0
LINE
  5
438
330
1E
100
AcDbEntity
  8
0
100
AcDbLine
 10
95.53600000000001
 20
2.0
 30
0.0
 11
95.53600000000001
 21
0.0000000000000047
 31
0.0
  0
LINE
  5
439
330
1E
100
AcDbEntity
  8
0
100
AcDbLine
 10
95.53600000000001
 20
2.0
 30
0.0
 11
96.97700000000001
 21
2.0
 31
0.0
  0
LINE
  5
43A
330
1E
100
AcDbEntity
  8
0
100
AcDbLine
 10
114.385
 20
2.0
 30
0.0
 11
115.342
 21
2.0
 31
0.0
  0
LINE
  5
43B
330
1E
100
AcDbEntity
  8
0
100
AcDbLine
 10
168.5529999999999
 20
2.0
 30
0.0
 11
168.5529999999999
 21
0.0000000000000047
 31
0.0
  0
LINE
  5
43C
330
1E
100
AcDbEntity
  8
0
100
AcDbLine
 10
168.5529999999999
 20
2.0
 30
0.0
 11
168.939
 21
2.0
 31
0.0
  0
LINE
  5
43D
330
1E
100
AcDbEntity
  8
0
100
AcDbLine
 10
115.342
 20
2.0
 30
0.0
 11
115.342
 21
0.0000000000000047
 31
0.0
  0
LINE
  5
43E
330
1E
100
AcDbEntity
  8
0
100
AcDbLine
 10
115.342
 20
2.0
 30
0.0
 11
116.396
 21
2.0
 31
0.0
  0
LINE
  5
43F
330
1E
100
AcDbEntity
  8
0
100
AcDbLine
 10
116.396
 20
2.0
 30
0.0
 11
116.396
 21
0.0000000000000047
 31
0.0
  0
LINE
  5
440
330
1E
100
AcDbEntity
  8
0
100
AcDbLine
 10
102.7679999999999
 20
2.0
 30
0.0
 11
103.1979999999999
 21
2.0
 31
0.0
  0
LINE
  5
441
330
1E
100
AcDbEntity
  8
0
100
AcDbLine
 10
103.1979999999999
 20
2.0
 30
0.0
 11
103.1979999999999
 21
0.0000000000000047
 31
0.0
  0
LINE
  5
442
330
1E
100
AcDbEntity
  8
0
100
AcDbLine
 10
96.97700000000001
 20
2.0
 30
0.0
 11
96.97700000000001
 21
0.0000000000000047
 31
0.0
  0
LINE
  5
443
330
1E
100
AcDbEntity
  8
0
100
AcDbLine
 10
83.8503
 20
2.0
 30
0.0
 11
83.8503
 21
0.0000000000000047
 31
0.0
  0
LINE
  5
444
330
1E
100
AcDbEntity
  8
0
100
AcDbLine
 10
82.02299999999999
 20
2.0
 30
0.0
 11
82.02299999999999
 21
0.0000000000000047
 31
0.0
  0
LINE
  5
445
330
1E
100
AcDbEntity
  8
0
100
AcDbLine
 10
82.02299999999999
 20
2.0
 30
0.0
 11
83.464
 21
2.0
 31
0.0
  0
LINE
  5
446
330
1E
100
AcDbEntity
  8
0
100
AcDbLine
 10
83.464
 20
2.0
 30
0.0
 11
83.464
 21
0.0000000000000047
 31
0.0
  0
LINE
  5
447
330
1E
100
AcDbEntity
  8
0
100
AcDbLine
 10
83.464
 20
2.0
 30
0.0
 11
83.8503
 21
2.0
 31
0.0
  0
LINE
  5
448
330
1E
100
AcDbEntity
  8
0
100
AcDbLine
 10
75.80199999999999
 20
2.0
 30
0.0
 11
75.80199999999999
 21
0.0000000000000047
 31
0.0
  0
LINE
  5
449
330
1E
100
AcDbEntity
  8
0
100
AcDbLine
 10
75.80199999999999
 20
2.0
 30
0.0
 11
76.2324
 21
2.0
 31
0.0
  0
LINE
  5
44A
330
1E
100
AcDbEntity
  8
0
100
AcDbLine
 10
11.8877
 20
2.0
 30
0.0
 11
11.8877
 21
0.0000000000000044
 31
0.0
  0
LINE
  5
44B
330
1E
100
AcDbEntity
  8
0
100
AcDbLine
 10
10.0608
 20
2.0
 30
0.0
 11
10.0608
 21
0.0000000000000044
 31
0.0
  0
LINE
  5
44C
330
1E
100
AcDbEntity
  8
0
100
AcDbLine
 10
10.0608
 20
2.0
 30
0.0
 11
10.44689999999999
 21
2.0
 31
0.0
  0
LINE
  5
44D
330
1E
100
AcDbEntity
  8
0
100
AcDbLine
 10
10.44689999999999
 20
2.0
 30
0.0
 11
10.44689999999999
 21
0.0000000000000047
 31
0.0
  0
LINE
  5
44E
330
1E
100
AcDbEntity
  8
0
100
AcDbLine
 10
10.44689999999999
 20
2.0
 30
0.0
 11
11.8877
 21
2.0
 31
0.0
  0
LINE
  5
44F
330
1E
100
AcDbEntity
  8
0
100
AcDbLine
 10
175.0469999999999
 20
2.0
 30
0.0
 11
177.359
 21
2.0
 31
0.0
  0
LINE
  5
450
330
1E
100
AcDbEntity
  8
0
100
AcDbLine
 10
1.64083
 20
17.0
 30
0.0
 11
3.952919999999999
 21
17.0
 31
0.0
  0
LINE
  5
451
330
1E
100
AcDbEntity
  8
0
100
AcDbLine
 10
0.894999999999997
 20
16.0
 30
0.0
 11
3.207079999999999
 21
16.0
 31
0.0
  0
LINE
  5
452
330
1E
100
AcDbEntity
  8
0
100
AcDbLine
 10
3.207079999999999
 20
16.0
 30
0.0
 11
7.01083
 21
16.0
 31
0.0
  0
LINE
  5
453
330
1E
100
AcDbEntity
  8
0
100
AcDbLine
 10
0.894999999999997
 20
3.0
 30
0.0
 11
3.207079999999999
 21
3.0
 31
0.0
  0
LINE
  5
454
330
1E
100
AcDbEntity
  8
0
100
AcDbLine
 10
37.4543
 20
2.0
 30
0.0
 11
37.4543
 21
0.0000000000000051
 31
0.0
  0
LINE
  5
455
330
1E
100
AcDbEntity
  8
0
100
AcDbLine
 10
37.4543
 20
2.0
 30
0.0
 11
38.20009999999999
 21
2.0
 31
0.0
  0
LINE
  5
456
330
1E
100
AcDbEntity
  8
0
100
AcDbLine
 10
55.46459999999999
 20
2.0
 30
0.0
 11
55.7475
 21
2.0
 31
0.0
  0
LINE
  5
457
330
1E
100
AcDbEntity
  8
0
100
AcDbLine
 10
108.559
 20
2.0
 30
0.0
 11
108.7919999999999
 21
2.0
 31
0.0
  0
LINE
  5
458
330
1E
100
AcDbEntity
  8
0
100
AcDbLine
 10
122.198
 20
2.0
 30
0.0
 11
122.198
 21
0.0000000000000051
 31
0.0
  0
LINE
  5
459
330
1E
100
AcDbEntity
  8
0
100
AcDbLine
 10
122.198
 20
2.0
 30
0.0
 11
123.2529999999999
 21
2.0
 31
0.0
  0
LINE
  5
45A
330
1E
100
AcDbEntity
  8
0
100
AcDbLine
 10
140.1289999999999
 20
2.0
 30
0.0
 11
140.8
 21
2.0
 31
0.0
  0
LINE
  5
45B
330
1E
100
AcDbEntity
  8
0
100
AcDbLine
 10
140.8
 20
2.0
 30
0.0
 11
140.8
 21
0.0000000000000051
 31
0.0
  0
LINE
  5
45C
330
1E
100
AcDbEntity
  8
0
100
AcDbLine
 10
140.8
 20
2.0
 30
0.0
 11
141.5459999999999
 21
2.0
 31
0.0
  0
LINE
  5
45D
330
1E
100
AcDbEntity
  8
0
100
AcDbLine
 10
141.5459999999999
 20
2.0
 30
0.0
 11
141.5459999999999
 21
0.0000000000000051
 31
0.0
  0
LINE
  5
45E
330
1E
100
AcDbEntity
  8
0
100
AcDbLine
 10
123.2529999999999
 20
2.0
 30
0.0
 11
123.2529999999999
 21
0.0000000000000051
 31
0.0
  0
LINE
  5
45F
330
1E
100
AcDbEntity
  8
0
100
AcDbLine
 10
123.2529999999999
 20
2.0
 30
0.0
 11
123.5349999999999
 21
2.0
 31
0.0
  0
LINE
  5
460
330
1E
100
AcDbEntity
  8
0
100
AcDbLine
 10
151.234
 20
2.0
 30
0.0
 11
151.234
 21
0.0000000000000051
 31
0.0
  0
LINE
  5
461
330
1E
100
AcDbEntity
  8
0
100
AcDbLine
 10
108.7919999999999
 20
2.0
 30
0.0
 11
108.7919999999999
 21
0.0000000000000051
 31
0.0
  0
LINE
  5
462
330
1E
100
AcDbEntity
  8
0
100
AcDbLine
 10
98.045
 20
2.0
 30
0.0
 11
98.045
 21
0.0000000000000051
 31
0.0
  0
LINE
  5
463
330
1E
100
AcDbEntity
  8
0
100
AcDbLine
 10
98.045
 20
2.0
 30
0.0
 11
98.4314
 21
2.00000000000001
 31
0.0
  0
LINE
  5
464
330
1E
100
AcDbEntity
  8
0
100
AcDbLine
 10
80.95499999999999
 20
2.0
 30
0.0
 11
80.95499999999999
 21
0.0000000000000051
 31
0.0
  0
LINE
  5
465
330
1E
100
AcDbEntity
  8
0
100
AcDbLine
 10
56.8022
 20
2.0
 30
0.0
 11
56.8022
 21
0.0000000000000051
 31
0.0
  0
LINE
  5
466
330
1E
100
AcDbEntity
  8
0
100
AcDbLine
 10
55.7475
 20
2.0
 30
0.0
 11
55.7475
 21
0.0000000000000051
 31
0.0
  0
LINE
  5
467
330
1E
100
AcDbEntity
  8
0
100
AcDbLine
 10
55.7475
 20
2.0
 30
0.0
 11
56.8022
 21
2.0
 31
0.0
  0
LINE
  5
468
330
1E
100
AcDbEntity
  8
0
100
AcDbLine
 10
70.2083
 20
2.0
 30
0.0
 11
70.2083
 21
0.0000000000000051
 31
0.0
  0
LINE
  5
469
330
1E
100
AcDbEntity
  8
0
100
AcDbLine
 10
70.2083
 20
2.0
 30
0.0
 11
70.44119999999999
 21
2.0
 31
0.0
  0
LINE
  5
46A
330
1E
100
AcDbEntity
  8
0
100
AcDbLine
 10
38.20009999999999
 20
2.0
 30
0.0
 11
38.20009999999999
 21
0.0000000000000051
 31
0.0
  0
LINE
  5
46B
330
1E
100
AcDbEntity
  8
0
100
AcDbLine
 10
38.20009999999999
 20
2.0
 30
0.0
 11
38.87109999999999
 21
2.0
 31
0.0
  0
LINE
  5
46C
330
1E
100
AcDbEntity
  8
0
100
AcDbLine
 10
27.76559999999999
 20
2.0
 30
0.0
 11
27.76559999999999
 21
0.0000000000000051
 31
0.0
  0
LINE
  5
46D
330
1E
100
AcDbEntity
  8
0
100
AcDbLine
 10
27.76559999999999
 20
2.0
 30
0.0
 11
28.5114
 21
2.00000000000001
 31
0.0
  0
LINE
  5
46E
330
1E
100
AcDbEntity
  8
0
100
AcDbLine
 10
171.3179999999999
 20
2.0
 30
0.0
 11
175.0469999999999
 21
2.0
 31
0.0
  0
LINE
  5
46F
330
1E
100
AcDbEntity
  8
0
100
AcDbLine
 10
3.952919999999999
 20
17.0
 30
0.0
 11
7.68208
 21
17.0
 31
0.0
  0
LINE
  5
470
330
1E
100
AcDbEntity
  8
0
100
AcDbLine
 10
7.01083
 20
16.0
 30
0.0
 11
12.0079
 21
16.0
 31
0.0
  0
LINE
  5
471
330
1E
100
AcDbEntity
  8
0
100
AcDbLine
 10
88.7542
 20
2.00000000000001
 30
0.0
 11
88.7542
 21
0.0000000000000055
 31
0.0
  0
LINE
  5
472
330
1E
100
AcDbEntity
  8
0
100
AcDbLine
 10
149.197
 20
2.00000000000001
 30
0.0
 11
149.197
 21
0.0000000000000055
 31
0.0
  0
LINE
  5
473
330
1E
100
AcDbEntity
  8
0
100
AcDbLine
 10
149.197
 20
2.00000000000001
 30
0.0
 11
150.4879999999999
 21
2.00000000000001
 31
0.0
  0
LINE
  5
474
330
1E
100
AcDbEntity
  8
0
100
AcDbLine
 10
158.8859999999999
 20
2.00000000000001
 30
0.0
 11
158.8859999999999
 21
0.0000000000000055
 31
0.0
  0
LINE
  5
475
330
1E
100
AcDbEntity
  8
0
100
AcDbLine
 10
158.8859999999999
 20
2.00000000000001
 30
0.0
 11
160.177
 21
2.00000000000001
 31
0.0
  0
LINE
  5
476
330
1E
100
AcDbEntity
  8
0
100
AcDbLine
 10
160.923
 20
2.00000000000001
 30
0.0
 11
160.923
 21
0.0000000000000055
 31
0.0
  0
LINE
  5
477
330
1E
100
AcDbEntity
  8
0
100
AcDbLine
 10
150.4879999999999
 20
2.00000000000001
 30
0.0
 11
150.4879999999999
 21
0.0000000000000055
 31
0.0
  0
LINE
  5
478
330
1E
100
AcDbEntity
  8
0
100
AcDbLine
 10
150.4879999999999
 20
2.00000000000001
 30
0.0
 11
151.234
 21
2.0
 31
0.0
  0
LINE
  5
479
330
1E
100
AcDbEntity
  8
0
100
AcDbLine
 10
112.348
 20
2.00000000000001
 30
0.0
 11
112.348
 21
0.0000000000000055
 31
0.0
  0
LINE
  5
47A
330
1E
100
AcDbEntity
  8
0
100
AcDbLine
 10
112.348
 20
2.00000000000001
 30
0.0
 11
113.094
 21
2.00000000000001
 31
0.0
  0
LINE
  5
47B
330
1E
100
AcDbEntity
  8
0
100
AcDbLine
 10
98.4314
 20
2.00000000000001
 30
0.0
 11
98.4314
 21
0.0000000000000055
 31
0.0
  0
LINE
  5
47C
330
1E
100
AcDbEntity
  8
0
100
AcDbLine
 10
98.4314
 20
2.00000000000001
 30
0.0
 11
99.8723
 21
2.00000000000001
 31
0.0
  0
LINE
  5
47D
330
1E
100
AcDbEntity
  8
0
100
AcDbLine
 10
99.8723
 20
2.00000000000001
 30
0.0
 11
99.8723
 21
0.0000000000000055
 31
0.0
  0
LINE
  5
47E
330
1E
100
AcDbEntity
  8
0
100
AcDbLine
 10
79.1277
 20
2.00000000000001
 30
0.0
 11
79.1277
 21
0.0000000000000055
 31
0.0
  0
LINE
  5
47F
330
1E
100
AcDbEntity
  8
0
100
AcDbLine
 10
79.1277
 20
2.00000000000001
 30
0.0
 11
80.5686
 21
2.00000000000001
 31
0.0
  0
LINE
  5
480
330
1E
100
AcDbEntity
  8
0
100
AcDbLine
 10
80.5686
 20
2.00000000000001
 30
0.0
 11
80.5686
 21
0.0000000000000055
 31
0.0
  0
LINE
  5
481
330
1E
100
AcDbEntity
  8
0
100
AcDbLine
 10
80.5686
 20
2.00000000000001
 30
0.0
 11
80.95499999999999
 21
2.0
 31
0.0
  0
LINE
  5
482
330
1E
100
AcDbEntity
  8
0
100
AcDbLine
 10
66.6521
 20
2.00000000000001
 30
0.0
 11
66.6521
 21
0.0000000000000055
 31
0.0
  0
LINE
  5
483
330
1E
100
AcDbEntity
  8
0
100
AcDbLine
 10
29.8032
 20
2.00000000000001
 30
0.0
 11
29.8032
 21
0.0000000000000055
 31
0.0
  0
LINE
  5
484
330
1E
100
AcDbEntity
  8
0
100
AcDbLine
 10
28.5114
 20
2.00000000000001
 30
0.0
 11
28.5114
 21
0.0000000000000055
 31
0.0
  0
LINE
  5
485
330
1E
100
AcDbEntity
  8
0
100
AcDbLine
 10
28.5114
 20
2.00000000000001
 30
0.0
 11
29.8032
 21
2.00000000000001
 31
0.0
  0
LINE
  5
486
330
1E
100
AcDbEntity
  8
0
100
AcDbLine
 10
100.941
 20
2.00000000000001
 30
0.0
 11
100.941
 21
0.0000000000000059
 31
0.0
  0
LINE
  5
487
330
1E
100
AcDbEntity
  8
0
100
AcDbLine
 10
100.941
 20
2.00000000000001
 30
0.0
 11
101.327
 21
2.00000000000001
 31
0.0
  0
LINE
  5
488
330
1E
100
AcDbEntity
  8
0
100
AcDbLine
 10
101.327
 20
2.00000000000001
 30
0.0
 11
101.327
 21
0.0000000000000059
 31
0.0
  0
LINE
  5
489
330
1E
100
AcDbEntity
  8
0
100
AcDbLine
 10
101.327
 20
2.00000000000001
 30
0.0
 11
102.7679999999999
 21
2.00000000000001
 31
0.0
  0
LINE
  5
48A
330
1E
100
AcDbEntity
  8
0
100
AcDbLine
 10
102.7679999999999
 20
2.00000000000001
 30
0.0
 11
102.7679999999999
 21
0.0000000000000059
 31
0.0
  0
LINE
  5
48B
330
1E
100
AcDbEntity
  8
0
100
AcDbLine
 10
160.177
 20
2.00000000000001
 30
0.0
 11
160.177
 21
0.0000000000000059
 31
0.0
  0
LINE
  5
48C
330
1E
100
AcDbEntity
  8
0
100
AcDbLine
 10
160.177
 20
2.00000000000001
 30
0.0
 11
160.923
 21
2.00000000000001
 31
0.0
  0
LINE
  5
48D
330
1E
100
AcDbEntity
  8
0
100
AcDbLine
 10
131.167
 20
2.00000000000001
 30
0.0
 11
132.2179999999999
 21
2.00000000000001
 31
0.0
  0
LINE
  5
48E
330
1E
100
AcDbEntity
  8
0
100
AcDbLine
 10
132.2179999999999
 20
2.00000000000001
 30
0.0
 11
132.2179999999999
 21
0.0000000000000059
 31
0.0
  0
LINE
  5
48F
330
1E
100
AcDbEntity
  8
0
100
AcDbLine
 10
113.094
 20
2.00000000000001
 30
0.0
 11
113.094
 21
0.0000000000000059
 31
0.0
  0
LINE
  5
490
330
1E
100
AcDbEntity
  8
0
100
AcDbLine
 10
113.094
 20
2.00000000000001
 30
0.0
 11
114.385
 21
2.00000000000001
 31
0.0
  0
LINE
  5
491
330
1E
100
AcDbEntity
  8
0
100
AcDbLine
 10
114.385
 20
2.00000000000001
 30
0.0
 11
114.385
 21
0.0000000000000059
 31
0.0
  0
LINE
  5
492
330
1E
100
AcDbEntity
  8
0
100
AcDbLine
 10
88.7542
 20
2.00000000000001
 30
0.0
 11
88.7542
 21
0.0000000000000059
 31
0.0
  0
LINE
  5
493
330
1E
100
AcDbEntity
  8
0
100
AcDbLine
 10
78.05889999999999
 20
2.00000000000001
 30
0.0
 11
78.05889999999999
 21
0.0000000000000059
 31
0.0
  0
LINE
  5
494
330
1E
100
AcDbEntity
  8
0
100
AcDbLine
 10
76.2324
 20
2.00000000000001
 30
0.0
 11
76.2324
 21
0.0000000000000059
 31
0.0
  0
LINE
  5
495
330
1E
100
AcDbEntity
  8
0
100
AcDbLine
 10
76.2324
 20
2.00000000000001
 30
0.0
 11
77.6733
 21
2.00000000000001
 31
0.0
  0
LINE
  5
496
330
1E
100
AcDbEntity
  8
0
100
AcDbLine
 10
77.6733
 20
2.00000000000001
 30
0.0
 11
77.6733
 21
0.0000000000000059
 31
0.0
  0
LINE
  5
497
330
1E
100
AcDbEntity
  8
0
100
AcDbLine
 10
77.6733
 20
2.00000000000001
 30
0.0
 11
78.05889999999999
 21
2.00000000000001
 31
0.0
  0
LINE
  5
498
330
1E
100
AcDbEntity
  8
0
100
AcDbLine
 10
64.61450000000001
 20
2.00000000000001
 30
0.0
 11
64.61450000000001
 21
0.0000000000000059
 31
0.0
  0
LINE
  5
499
330
1E
100
AcDbEntity
  8
0
100
AcDbLine
 10
64.61450000000001
 20
2.00000000000001
 30
0.0
 11
65.9063
 21
2.00000000000001
 31
0.0
  0
LINE
  5
49A
330
1E
100
AcDbEntity
  8
0
100
AcDbLine
 10
65.9063
 20
2.00000000000001
 30
0.0
 11
65.9063
 21
0.0000000000000059
 31
0.0
  0
LINE
  5
49B
330
1E
100
AcDbEntity
  8
0
100
AcDbLine
 10
65.9063
 20
2.00000000000001
 30
0.0
 11
66.6521
 21
2.00000000000001
 31
0.0
  0
LINE
  5
49C
330
1E
100
AcDbEntity
  8
0
100
AcDbLine
 10
46.78189999999999
 20
2.00000000000001
 30
0.0
 11
46.78189999999999
 21
0.0000000000000059
 31
0.0
  0
LINE
  5
49D
330
1E
100
AcDbEntity
  8
0
100
AcDbLine
 10
46.78189999999999
 20
2.00000000000001
 30
0.0
 11
47.8333
 21
2.00000000000001
 31
0.0
  0
LINE
  5
49E
330
1E
100
AcDbEntity
  8
0
100
AcDbLine
 10
20.1146
 20
2.00000000000001
 30
0.0
 11
20.1146
 21
0.0000000000000055
 31
0.0
  0
LINE
  5
49F
330
1E
100
AcDbEntity
  8
0
100
AcDbLine
 10
18.0769
 20
2.00000000000001
 30
0.0
 11
18.0769
 21
0.0000000000000055
 31
0.0
  0
LINE
  5
4A0
330
1E
100
AcDbEntity
  8
0
100
AcDbLine
 10
18.0769
 20
2.00000000000001
 30
0.0
 11
18.8227
 21
2.00000000000001
 31
0.0
  0
LINE
  5
4A1
330
1E
100
AcDbEntity
  8
0
100
AcDbLine
 10
18.8227
 20
2.00000000000001
 30
0.0
 11
18.8227
 21
0.0000000000000059
 31
0.0
  0
LINE
  5
4A2
330
1E
100
AcDbEntity
  8
0
100
AcDbLine
 10
18.8227
 20
2.00000000000001
 30
0.0
 11
20.1146
 21
2.00000000000001
 31
0.0
  0
LINE
  5
4A3
330
1E
100
AcDbEntity
  8
0
100
AcDbLine
 10
166.3949999999999
 20
2.00000000000001
 30
0.0
 11
171.3179999999999
 21
2.0
 31
0.0
  0
LINE
  5
4A4
330
1E
100
AcDbEntity
  8
0
100
AcDbLine
 10
7.68208
 20
17.0
 30
0.0
 11
12.6046
 21
17.0
 31
0.0
  0
LINE
  5
4A5
330
1E
100
AcDbEntity
  8
0
100
AcDbLine
 10
12.0079
 20
16.0
 30
0.0
 11
18.6458
 21
16.0
 31
0.0
  0
LINE
  5
4A6
330
1E
100
AcDbEntity
  8
0
100
AcDbLine
 10
59.0208
 20
2.00000000000001
 30
0.0
 11
59.0208
 21
0.0000000000000063
 31
0.0
  0
LINE
  5
4A7
330
1E
100
AcDbEntity
  8
0
100
AcDbLine
 10
59.0208
 20
2.00000000000001
 30
0.0
 11
60.3126
 21
2.00000000000001
 31
0.0
  0
LINE
  5
4A8
330
1E
100
AcDbEntity
  8
0
100
AcDbLine
 10
117.942
 20
2.00000000000001
 30
0.0
 11
117.942
 21
0.0000000000000063
 31
0.0
  0
LINE
  5
4A9
330
1E
100
AcDbEntity
  8
0
100
AcDbLine
 10
117.942
 20
2.00000000000001
 30
0.0
 11
118.687
 21
2.00000000000001
 31
0.0
  0
LINE
  5
4AA
330
1E
100
AcDbEntity
  8
0
100
AcDbLine
 10
138.019
 20
2.00000000000001
 30
0.0
 11
138.019
 21
0.0000000000000063
 31
0.0
  0
LINE
  5
4AB
330
1E
100
AcDbEntity
  8
0
100
AcDbLine
 10
138.019
 20
2.00000000000001
 30
0.0
 11
139.0739999999999
 21
2.00000000000001
 31
0.0
  0
LINE
  5
4AC
330
1E
100
AcDbEntity
  8
0
100
AcDbLine
 10
139.0739999999999
 20
2.00000000000001
 30
0.0
 11
139.0739999999999
 21
0.0000000000000063
 31
0.0
  0
LINE
  5
4AD
330
1E
100
AcDbEntity
  8
0
100
AcDbLine
 10
139.0739999999999
 20
2.00000000000001
 30
0.0
 11
140.1289999999999
 21
2.00000000000001
 31
0.0
  0
LINE
  5
4AE
330
1E
100
AcDbEntity
  8
0
100
AcDbLine
 10
140.1289999999999
 20
2.00000000000001
 30
0.0
 11
140.1289999999999
 21
0.0000000000000063
 31
0.0
  0
LINE
  5
4AF
330
1E
100
AcDbEntity
  8
0
100
AcDbLine
 10
118.687
 20
2.00000000000001
 30
0.0
 11
118.687
 21
0.0000000000000063
 31
0.0
  0
LINE
  5
4B0
330
1E
100
AcDbEntity
  8
0
100
AcDbLine
 10
118.687
 20
2.00000000000001
 30
0.0
 11
119.9789999999999
 21
2.00000000000001
 31
0.0
  0
LINE
  5
4B1
330
1E
100
AcDbEntity
  8
0
100
AcDbLine
 10
119.9789999999999
 20
2.00000000000001
 30
0.0
 11
119.9789999999999
 21
0.0000000000000063
 31
0.0
  0
LINE
  5
4B2
330
1E
100
AcDbEntity
  8
0
100
AcDbLine
 10
88.7542
 20
2.00000000000001
 30
0.0
 11
88.7542
 21
0.0000000000000063
 31
0.0
  0
LINE
  5
4B3
330
1E
100
AcDbEntity
  8
0
100
AcDbLine
 10
61.0584
 20
2.00000000000001
 30
0.0
 11
61.0584
 21
0.0000000000000063
 31
0.0
  0
LINE
  5
4B4
330
1E
100
AcDbEntity
  8
0
100
AcDbLine
 10
60.3126
 20
2.00000000000001
 30
0.0
 11
60.3126
 21
0.0000000000000063
 31
0.0
  0
LINE
  5
4B5
330
1E
100
AcDbEntity
  8
0
100
AcDbLine
 10
60.3126
 20
2.00000000000001
 30
0.0
 11
61.0584
 21
2.00000000000001
 31
0.0
  0
LINE
  5
4B6
330
1E
100
AcDbEntity
  8
0
100
AcDbLine
 10
40.98069999999999
 20
2.00000000000001
 30
0.0
 11
40.98069999999999
 21
0.0000000000000063
 31
0.0
  0
LINE
  5
4B7
330
1E
100
AcDbEntity
  8
0
100
AcDbLine
 10
38.87109999999999
 20
2.00000000000001
 30
0.0
 11
38.87109999999999
 21
0.0000000000000063
 31
0.0
  0
LINE
  5
4B8
330
1E
100
AcDbEntity
  8
0
100
AcDbLine
 10
38.87109999999999
 20
2.00000000000001
 30
0.0
 11
39.92589999999999
 21
2.00000000000001
 31
0.0
  0
LINE
  5
4B9
330
1E
100
AcDbEntity
  8
0
100
AcDbLine
 10
39.92589999999999
 20
2.00000000000001
 30
0.0
 11
39.92589999999999
 21
0.0000000000000063
 31
0.0
  0
LINE
  5
4BA
330
1E
100
AcDbEntity
  8
0
100
AcDbLine
 10
39.92589999999999
 20
2.00000000000001
 30
0.0
 11
40.98069999999999
 21
2.00000000000001
 31
0.0
  0
LINE
  5
4BB
330
1E
100
AcDbEntity
  8
0
100
AcDbLine
 10
159.7579999999999
 20
2.00000000000001
 30
0.0
 11
166.3949999999999
 21
2.00000000000001
 31
0.0
  0
LINE
  5
4BC
330
1E
100
AcDbEntity
  8
0
100
AcDbLine
 10
12.6046
 20
17.0
 30
0.0
 11
19.24249999999999
 21
17.0
 31
0.0
  0
LINE
  5
4BD
330
1E
100
AcDbEntity
  8
0
100
AcDbLine
 10
18.6458
 20
16.0
 30
0.0
 11
26.32789999999999
 21
16.0
 31
0.0
  0
LINE
  5
4BE
330
1E
100
AcDbEntity
  8
0
100
AcDbLine
 10
33.07
 20
2.00000000000001
 30
0.0
 11
33.07
 21
0.0000000000000067
 31
0.0
  0
LINE
  5
4BF
330
1E
100
AcDbEntity
  8
0
100
AcDbLine
 10
30.9604
 20
2.00000000000001
 30
0.0
 11
30.9604
 21
0.0000000000000067
 31
0.0
  0
LINE
  5
4C0
330
1E
100
AcDbEntity
  8
0
100
AcDbLine
 10
30.9604
 20
2.00000000000001
 30
0.0
 11
32.0152
 21
2.00000000000001
 31
0.0
  0
LINE
  5
4C1
330
1E
100
AcDbEntity
  8
0
100
AcDbLine
 10
32.0152
 20
2.00000000000001
 30
0.0
 11
32.0152
 21
0.0000000000000067
 31
0.0
  0
LINE
  5
4C2
330
1E
100
AcDbEntity
  8
0
100
AcDbLine
 10
32.0152
 20
2.00000000000001
 30
0.0
 11
33.07
 21
2.00000000000001
 31
0.0
  0
LINE
  5
4C3
330
1E
100
AcDbEntity
  8
0
100
AcDbLine
 10
26.85
 20
2.00000000000001
 30
0.0
 11
35.5762
 21
2.00000000000001
 31
0.0
  0
LINE
  5
4C4
330
1E
100
AcDbEntity
  8
0
100
AcDbLine
 10
26.32789999999999
 20
3.000000000000009
 30
0.0
 11
35.1287
 21
3.000000000000009
 31
0.0
  0
LINE
  5
4C5
330
1E
100
AcDbEntity
  8
0
100
AcDbLine
 10
35.5762
 20
2.00000000000001
 30
0.0
 11
45.3467
 21
2.00000000000001
 31
0.0
  0
LINE
  5
4C6
330
1E
100
AcDbEntity
  8
0
100
AcDbLine
 10
35.1287
 20
3.000000000000009
 30
0.0
 11
44.97379999999999
 21
3.000000000000009
 31
0.0
  0
LINE
  5
4C7
330
1E
100
AcDbEntity
  8
0
100
AcDbLine
 10
53.427
 20
2.00000000000001
 30
0.0
 11
53.427
 21
0.0000000000000071
 31
0.0
  0
LINE
  5
4C8
330
1E
100
AcDbEntity
  8
0
100
AcDbLine
 10
53.427
 20
2.00000000000001
 30
0.0
 11
54.7188
 21
2.00000000000001
 31
0.0
  0
LINE
  5
4C9
330
1E
100
AcDbEntity
  8
0
100
AcDbLine
 10
55.46459999999999
 20
2.00000000000001
 30
0.0
 11
55.46459999999999
 21
0.0000000000000067
 31
0.0
  0
LINE
  5
4CA
330
1E
100
AcDbEntity
  8
0
100
AcDbLine
 10
54.7188
 20
2.00000000000001
 30
0.0
 11
54.7188
 21
0.0000000000000071
 31
0.0
  0
LINE
  5
4CB
330
1E
100
AcDbEntity
  8
0
100
AcDbLine
 10
54.7188
 20
2.00000000000001
 30
0.0
 11
55.46459999999999
 21
2.00000000000001
 31
0.0
  0
LINE
  5
4CC
330
1E
100
AcDbEntity
  8
0
100
AcDbLine
 10
49.8709
 20
2.00000000000001
 30
0.0
 11
49.8709
 21
0.0000000000000075
 31
0.0
  0
LINE
  5
4CD
330
1E
100
AcDbEntity
  8
0
100
AcDbLine
 10
47.8333
 20
2.00000000000001
 30
0.0
 11
47.8333
 21
0.0000000000000075
 31
0.0
  0
LINE
  5
4CE
330
1E
100
AcDbEntity
  8
0
100
AcDbLine
 10
47.8333
 20
2.00000000000001
 30
0.0
 11
49.12510000000001
 21
2.00000000000001
 31
0.0
  0
LINE
  5
4CF
330
1E
100
AcDbEntity
  8
0
100
AcDbLine
 10
49.12510000000001
 20
2.00000000000001
 30
0.0
 11
49.12510000000001
 21
0.0000000000000075
 31
0.0
  0
LINE
  5
4D0
330
1E
100
AcDbEntity
  8
0
100
AcDbLine
 10
49.12510000000001
 20
2.00000000000001
 30
0.0
 11
49.8709
 21
2.00000000000001
 31
0.0
  0
LINE
  5
4D1
330
1E
100
AcDbEntity
  8
0
100
AcDbLine
 10
45.3467
 20
2.00000000000001
 30
0.0
 11
55.5646
 21
2.00000000000001
 31
0.0
  0
LINE
  5
4D2
330
1E
100
AcDbEntity
  8
0
100
AcDbLine
 10
44.97379999999999
 20
3.000000000000009
 30
0.0
 11
55.3408
 21
3.000000000000009
 31
0.0
  0
LINE
  5
4D3
330
1E
100
AcDbEntity
  8
0
100
AcDbLine
 10
55.5646
 20
2.00000000000001
 30
0.0
 11
66.6029
 21
2.00000000000001
 31
0.0
  0
LINE
  5
4D4
330
1E
100
AcDbEntity
  8
0
100
AcDbLine
 10
55.3408
 20
3.000000000000009
 30
0.0
 11
66.3792
 21
3.000000000000009
 31
0.0
  0
LINE
  5
4D5
330
1E
100
AcDbEntity
  8
0
100
AcDbLine
 10
67.54559999999999
 20
2.00000000000001
 30
0.0
 11
67.54559999999999
 21
0.0000000000000079
 31
0.0
  0
LINE
  5
4D6
330
1E
100
AcDbEntity
  8
0
100
AcDbLine
 10
67.54559999999999
 20
2.00000000000001
 30
0.0
 11
68.9865
 21
2.00000000000001
 31
0.0
  0
LINE
  5
4D7
330
1E
100
AcDbEntity
  8
0
100
AcDbLine
 10
70.44119999999999
 20
2.00000000000001
 30
0.0
 11
70.44119999999999
 21
0.0000000000000075
 31
0.0
  0
LINE
  5
4D8
330
1E
100
AcDbEntity
  8
0
100
AcDbLine
 10
70.44119999999999
 20
2.00000000000001
 30
0.0
 11
71.88200000000001
 21
2.00000000000001
 31
0.0
  0
LINE
  5
4D9
330
1E
100
AcDbEntity
  8
0
100
AcDbLine
 10
73.33669999999999
 20
2.00000000000001
 30
0.0
 11
73.33669999999999
 21
0.0000000000000067
 31
0.0
  0
LINE
  5
4DA
330
1E
100
AcDbEntity
  8
0
100
AcDbLine
 10
73.33669999999999
 20
2.00000000000001
 30
0.0
 11
74.7773
 21
2.00000000000001
 31
0.0
  0
LINE
  5
4DB
330
1E
100
AcDbEntity
  8
0
100
AcDbLine
 10
75.1636
 20
2.00000000000001
 30
0.0
 11
75.1636
 21
0.0000000000000067
 31
0.0
  0
LINE
  5
4DC
330
1E
100
AcDbEntity
  8
0
100
AcDbLine
 10
74.7773
 20
2.00000000000001
 30
0.0
 11
74.7773
 21
0.0000000000000067
 31
0.0
  0
LINE
  5
4DD
330
1E
100
AcDbEntity
  8
0
100
AcDbLine
 10
74.7773
 20
2.00000000000001
 30
0.0
 11
75.1636
 21
2.00000000000001
 31
0.0
  0
LINE
  5
4DE
330
1E
100
AcDbEntity
  8
0
100
AcDbLine
 10
72.2681
 20
2.00000000000001
 30
0.0
 11
72.2681
 21
0.0000000000000075
 31
0.0
  0
LINE
  5
4DF
330
1E
100
AcDbEntity
  8
0
100
AcDbLine
 10
71.88200000000001
 20
2.00000000000001
 30
0.0
 11
71.88200000000001
 21
0.0000000000000075
 31
0.0
  0
LINE
  5
4E0
330
1E
100
AcDbEntity
  8
0
100
AcDbLine
 10
71.88200000000001
 20
2.00000000000001
 30
0.0
 11
72.2681
 21
2.00000000000001
 31
0.0
  0
LINE
  5
4E1
330
1E
100
AcDbEntity
  8
0
100
AcDbLine
 10
69.37260000000001
 20
2.00000000000001
 30
0.0
 11
69.37260000000001
 21
0.0000000000000079
 31
0.0
  0
LINE
  5
4E2
330
1E
100
AcDbEntity
  8
0
100
AcDbLine
 10
68.9865
 20
2.00000000000001
 30
0.0
 11
68.9865
 21
0.0000000000000079
 31
0.0
  0
LINE
  5
4E3
330
1E
100
AcDbEntity
  8
0
100
AcDbLine
 10
68.9865
 20
2.00000000000001
 30
0.0
 11
69.37260000000001
 21
2.00000000000001
 31
0.0
  0
LINE
  5
4E4
330
1E
100
AcDbEntity
  8
0
100
AcDbLine
 10
66.6029
 20
2.00000000000001
 30
0.0
 11
77.865
 21
2.00000000000001
 31
0.0
  0
LINE
  5
4E5
330
1E
100
AcDbEntity
  8
0
100
AcDbLine
 10
66.3792
 20
3.000000000000009
 30
0.0
 11
77.865
 21
3.000000000000009
 31
0.0
  0
LINE
  5
4E6
330
1E
100
AcDbEntity
  8
0
100
AcDbLine
 10
26.32789999999999
 20
16.0
 30
0.0
 11
35.1287
 21
16.0
 31
0.0
  0
LINE
  5
4E7
330
1E
100
AcDbEntity
  8
0
100
AcDbLine
 10
35.1287
 20
16.0
 30
0.0
 11
44.97379999999999
 21
16.0
 31
0.0
  0
LINE
  5
4E8
330
1E
100
AcDbEntity
  8
0
100
AcDbLine
 10
44.97379999999999
 20
16.0
 30
0.0
 11
55.3408
 21
16.0
 31
0.0
  0
LINE
  5
4E9
330
1E
100
AcDbEntity
  8
0
100
AcDbLine
 10
55.3408
 20
16.0
 30
0.0
 11
66.3792
 21
16.0
 31
0.0
  0
LINE
  5
4EA
330
1E
100
AcDbEntity
  8
0
100
AcDbLine
 10
26.85
 20
17.0
 30
0.0
 11
35.5762
 21
17.0
 31
0.0
  0
LINE
  5
4EB
330
1E
100
AcDbEntity
  8
0
100
AcDbLine
 10
35.5762
 20
17.0
 30
0.0
 11
45.3467
 21
17.0
 31
0.0
  0
LINE
  5
4EC
330
1E
100
AcDbEntity
  8
0
100
AcDbLine
 10
66.3792
 20
16.0
 30
0.0
 11
77.865
 21
16.0
 31
0.0
  0
LINE
  5
4ED
330
1E
100
AcDbEntity
  8
0
100
AcDbLine
 10
77.865
 20
16.0
 30
0.0
 11
89.50000000000001
 21
16.0
 31
0.0
  0
LINE
  5
4EE
330
1E
100
AcDbEntity
  8
0
100
AcDbLine
 10
77.865
 20
3.000000000000009
 30
0.0
 11
89.50000000000001
 21
3.000000000000009
 31
0.0
  0
LINE
  5
4EF
330
1E
100
AcDbEntity
  8
0
100
AcDbLine
 10
88.7542
 20
2.00000000000001
 30
0.0
 11
88.7542
 21
0.0000000000000067
 31
0.0
  0
LINE
  5
4F0
330
1E
100
AcDbEntity
  8
0
100
AcDbLine
 10
88.7542
 20
2.00000000000001
 30
0.0
 11
88.7542
 21
0.0000000000000075
 31
0.0
  0
LINE
  5
4F1
330
1E
100
AcDbEntity
  8
0
100
AcDbLine
 10
88.7542
 20
2.00000000000001
 30
0.0
 11
88.7542
 21
0.0000000000000083
 31
0.0
  0
LINE
  5
4F2
330
1E
100
AcDbEntity
  8
0
100
AcDbLine
 10
88.7542
 20
2.00000000000001
 30
0.0
 11
90.2458
 21
2.00000000000001
 31
0.0
  0
LINE
  5
4F3
330
1E
100
AcDbEntity
  8
0
100
AcDbLine
 10
90.2458
 20
2.00000000000001
 30
0.0
 11
90.2458
 21
0.0000000000000083
 31
0.0
  0
LINE
  5
4F4
330
1E
100
AcDbEntity
  8
0
100
AcDbLine
 10
103.8359999999999
 20
2.00000000000001
 30
0.0
 11
103.8359999999999
 21
0.0000000000000067
 31
0.0
  0
LINE
  5
4F5
330
1E
100
AcDbEntity
  8
0
100
AcDbLine
 10
103.8359999999999
 20
2.00000000000001
 30
0.0
 11
104.2229999999999
 21
2.00000000000001
 31
0.0
  0
LINE
  5
4F6
330
1E
100
AcDbEntity
  8
0
100
AcDbLine
 10
104.2229999999999
 20
2.00000000000001
 30
0.0
 11
104.2229999999999
 21
0.0000000000000067
 31
0.0
  0
LINE
  5
4F7
330
1E
100
AcDbEntity
  8
0
100
AcDbLine
 10
104.2229999999999
 20
2.00000000000001
 30
0.0
 11
105.6629999999999
 21
2.00000000000001
 31
0.0
  0
LINE
  5
4F8
330
1E
100
AcDbEntity
  8
0
100
AcDbLine
 10
105.6629999999999
 20
2.00000000000001
 30
0.0
 11
105.6629999999999
 21
0.0000000000000067
 31
0.0
  0
LINE
  5
4F9
330
1E
100
AcDbEntity
  8
0
100
AcDbLine
 10
106.732
 20
2.00000000000001
 30
0.0
 11
106.732
 21
0.0000000000000075
 31
0.0
  0
LINE
  5
4FA
330
1E
100
AcDbEntity
  8
0
100
AcDbLine
 10
106.732
 20
2.00000000000001
 30
0.0
 11
107.118
 21
2.00000000000001
 31
0.0
  0
LINE
  5
4FB
330
1E
100
AcDbEntity
  8
0
100
AcDbLine
 10
107.118
 20
2.00000000000001
 30
0.0
 11
107.118
 21
0.0000000000000075
 31
0.0
  0
LINE
  5
4FC
330
1E
100
AcDbEntity
  8
0
100
AcDbLine
 10
107.118
 20
2.00000000000001
 30
0.0
 11
108.559
 21
2.00000000000001
 31
0.0
  0
LINE
  5
4FD
330
1E
100
AcDbEntity
  8
0
100
AcDbLine
 10
108.559
 20
2.00000000000001
 30
0.0
 11
108.559
 21
0.0000000000000075
 31
0.0
  0
LINE
  5
4FE
330
1E
100
AcDbEntity
  8
0
100
AcDbLine
 10
109.6279999999999
 20
2.00000000000001
 30
0.0
 11
109.6279999999999
 21
0.0000000000000079
 31
0.0
  0
LINE
  5
4FF
330
1E
100
AcDbEntity
  8
0
100
AcDbLine
 10
109.6279999999999
 20
2.00000000000001
 30
0.0
 11
110.0129999999999
 21
2.00000000000001
 31
0.0
  0
LINE
  5
500
330
1E
100
AcDbEntity
  8
0
100
AcDbLine
 10
110.0129999999999
 20
2.00000000000001
 30
0.0
 11
110.0129999999999
 21
0.0000000000000079
 31
0.0
  0
LINE
  5
501
330
1E
100
AcDbEntity
  8
0
100
AcDbLine
 10
110.0129999999999
 20
2.00000000000001
 30
0.0
 11
111.4539999999999
 21
2.00000000000001
 31
0.0
  0
LINE
  5
502
330
1E
100
AcDbEntity
  8
0
100
AcDbLine
 10
111.4539999999999
 20
2.00000000000001
 30
0.0
 11
111.4539999999999
 21
0.0000000000000079
 31
0.0
  0
LINE
  5
503
330
1E
100
AcDbEntity
  8
0
100
AcDbLine
 10
123.5349999999999
 20
2.00000000000001
 30
0.0
 11
123.5349999999999
 21
0.0000000000000067
 31
0.0
  0
LINE
  5
504
330
1E
100
AcDbEntity
  8
0
100
AcDbLine
 10
123.5349999999999
 20
2.00000000000001
 30
0.0
 11
124.281
 21
2.00000000000001
 31
0.0
  0
LINE
  5
505
330
1E
100
AcDbEntity
  8
0
100
AcDbLine
 10
124.281
 20
2.00000000000001
 30
0.0
 11
124.281
 21
0.0000000000000071
 31
0.0
  0
LINE
  5
506
330
1E
100
AcDbEntity
  8
0
100
AcDbLine
 10
124.281
 20
2.00000000000001
 30
0.0
 11
125.573
 21
2.00000000000001
 31
0.0
  0
LINE
  5
507
330
1E
100
AcDbEntity
  8
0
100
AcDbLine
 10
129.1289999999999
 20
2.00000000000001
 30
0.0
 11
129.1289999999999
 21
0.0000000000000075
 31
0.0
  0
LINE
  5
508
330
1E
100
AcDbEntity
  8
0
100
AcDbLine
 10
129.1289999999999
 20
2.00000000000001
 30
0.0
 11
129.875
 21
2.00000000000001
 31
0.0
  0
LINE
  5
509
330
1E
100
AcDbEntity
  8
0
100
AcDbLine
 10
129.875
 20
2.00000000000001
 30
0.0
 11
129.875
 21
0.0000000000000075
 31
0.0
  0
LINE
  5
50A
330
1E
100
AcDbEntity
  8
0
100
AcDbLine
 10
129.875
 20
2.00000000000001
 30
0.0
 11
131.167
 21
2.00000000000001
 31
0.0
  0
LINE
  5
50B
330
1E
100
AcDbEntity
  8
0
100
AcDbLine
 10
131.167
 20
2.00000000000001
 30
0.0
 11
131.167
 21
0.0000000000000075
 31
0.0
  0
LINE
  5
50C
330
1E
100
AcDbEntity
  8
0
100
AcDbLine
 10
125.573
 20
2.00000000000001
 30
0.0
 11
125.573
 21
0.0000000000000071
 31
0.0
  0
LINE
  5
50D
330
1E
100
AcDbEntity
  8
0
100
AcDbLine
 10
145.9299999999999
 20
2.00000000000001
 30
0.0
 11
145.9299999999999
 21
0.0000000000000067
 31
0.0
  0
LINE
  5
50E
330
1E
100
AcDbEntity
  8
0
100
AcDbLine
 10
145.9299999999999
 20
2.00000000000001
 30
0.0
 11
146.985
 21
2.00000000000001
 31
0.0
  0
LINE
  5
50F
330
1E
100
AcDbEntity
  8
0
100
AcDbLine
 10
146.985
 20
2.00000000000001
 30
0.0
 11
146.985
 21
0.0000000000000067
 31
0.0
  0
LINE
  5
510
330
1E
100
AcDbEntity
  8
0
100
AcDbLine
 10
146.985
 20
2.00000000000001
 30
0.0
 11
148.0399999999999
 21
2.00000000000001
 31
0.0
  0
LINE
  5
511
330
1E
100
AcDbEntity
  8
0
100
AcDbLine
 10
148.0399999999999
 20
2.00000000000001
 30
0.0
 11
148.0399999999999
 21
0.0000000000000067
 31
0.0
  0
LINE
  5
512
330
1E
100
AcDbEntity
  8
0
100
AcDbLine
 10
152.15
 20
2.00000000000001
 30
0.0
 11
159.7579999999999
 21
2.00000000000001
 31
0.0
  0
LINE
  5
513
330
1E
100
AcDbEntity
  8
0
100
AcDbLine
 10
143.424
 20
2.00000000000001
 30
0.0
 11
152.15
 21
2.00000000000001
 31
0.0
  0
LINE
  5
514
330
1E
100
AcDbEntity
  8
0
100
AcDbLine
 10
133.6529999999999
 20
2.00000000000001
 30
0.0
 11
143.424
 21
2.00000000000001
 31
0.0
  0
LINE
  5
515
330
1E
100
AcDbEntity
  8
0
100
AcDbLine
 10
123.435
 20
2.00000000000001
 30
0.0
 11
133.6529999999999
 21
2.00000000000001
 31
0.0
  0
LINE
  5
516
330
1E
100
AcDbEntity
  8
0
100
AcDbLine
 10
112.397
 20
2.00000000000001
 30
0.0
 11
123.435
 21
2.00000000000001
 31
0.0
  0
LINE
  5
517
330
1E
100
AcDbEntity
  8
0
100
AcDbLine
 10
101.1349999999999
 20
2.00000000000001
 30
0.0
 11
112.397
 21
2.00000000000001
 31
0.0
  0
LINE
  5
518
330
1E
100
AcDbEntity
  8
0
100
AcDbLine
 10
89.50000000000001
 20
16.0
 30
0.0
 11
101.1349999999999
 21
16.0
 31
0.0
  0
LINE
  5
519
330
1E
100
AcDbEntity
  8
0
100
AcDbLine
 10
152.672
 20
3.000000000000009
 30
0.0
 11
160.3539999999999
 21
3.000000000000009
 31
0.0
  0
LINE
  5
51A
330
1E
100
AcDbEntity
  8
0
100
AcDbLine
 10
160.3539999999999
 20
3.000000000000009
 30
0.0
 11
166.992
 21
3.000000000000009
 31
0.0
  0
LINE
  5
51B
330
1E
100
AcDbEntity
  8
0
100
AcDbLine
 10
166.992
 20
3.000000000000009
 30
0.0
 11
171.989
 21
3.0
 31
0.0
  0
LINE
  5
51C
330
1E
100
AcDbEntity
  8
0
100
AcDbLine
 10
171.989
 20
3.0
 30
0.0
 11
175.7929999999999
 21
3.0
 31
0.0
  0
LINE
  5
51D
330
1E
100
AcDbEntity
  8
0
100
AcDbLine
 10
175.7929999999999
 20
3.0
 30
0.0
 11
178.105
 21
3.0
 31
0.0
  0
LINE
  5
51E
330
1E
100
AcDbEntity
  8
0
100
AcDbLine
 10
179.0
 20
3.0
 30
0.0
 11
179.0
 21
16.0
 31
0.0
  0
LINE
  5
51F
330
1E
100
AcDbEntity
  8
0
100
AcDbLine
 10
178.105
 20
3.0
 30
0.0
 11
179.0
 21
3.0
 31
0.0
  0
LINE
  5
520
330
1E
100
AcDbEntity
  8
0
100
AcDbLine
 10
143.871
 20
3.000000000000009
 30
0.0
 11
152.672
 21
3.000000000000009
 31
0.0
  0
LINE
  5
521
330
1E
100
AcDbEntity
  8
0
100
AcDbLine
 10
134.026
 20
3.000000000000009
 30
0.0
 11
143.871
 21
3.000000000000009
 31
0.0
  0
LINE
  5
522
330
1E
100
AcDbEntity
  8
0
100
AcDbLine
 10
123.6589999999999
 20
3.000000000000009
 30
0.0
 11
134.026
 21
3.000000000000009
 31
0.0
  0
LINE
  5
523
330
1E
100
AcDbEntity
  8
0
100
AcDbLine
 10
112.621
 20
3.000000000000009
 30
0.0
 11
123.6589999999999
 21
3.000000000000009
 31
0.0
  0
LINE
  5
524
330
1E
100
AcDbEntity
  8
0
100
AcDbLine
 10
179.0
 20
16.0
 30
0.0
 11
179.0
 21
3.0
 31
0.0
  0
LINE
  5
525
330
1E
100
AcDbEntity
  8
0
100
AcDbLine
 10
175.7929999999999
 20
16.0
 30
0.0
 11
178.105
 21
16.0
 31
0.0
  0
LINE
  5
526
330
1E
100
AcDbEntity
  8
0
100
AcDbLine
 10
152.672
 20
16.0
 30
0.0
 11
160.3539999999999
 21
16.0
 31
0.0
  0
LINE
  5
527
330
1E
100
AcDbEntity
  8
0
100
AcDbLine
 10
160.3539999999999
 20
16.0
 30
0.0
 11
166.992
 21
16.0
 31
0.0
  0
LINE
  5
528
330
1E
100
AcDbEntity
  8
0
100
AcDbLine
 10
166.992
 20
16.0
 30
0.0
 11
171.989
 21
16.0
 31
0.0
  0
LINE
  5
529
330
1E
100
AcDbEntity
  8
0
100
AcDbLine
 10
171.989
 20
16.0
 30
0.0
 11
175.7929999999999
 21
16.0
 31
0.0
  0
LINE
  5
52A
330
1E
100
AcDbEntity
  8
0
100
AcDbLine
 10
178.105
 20
16.0
 30
0.0
 11
179.0
 21
16.0
 31
0.0
  0
LINE
  5
52B
330
1E
100
AcDbEntity
  8
0
100
AcDbLine
 10
143.871
 20
16.0
 30
0.0
 11
152.672
 21
16.0
 31
0.0
  0
LINE
  5
52C
330
1E
100
AcDbEntity
  8
0
100
AcDbLine
 10
134.026
 20
16.0
 30
0.0
 11
143.871
 21
16.0
 31
0.0
  0
LINE
  5
52D
330
1E
100
AcDbEntity
  8
0
100
AcDbLine
 10
123.6589999999999
 20
16.0
 30
0.0
 11
134.026
 21
16.0
 31
0.0
  0
LINE
  5
52E
330
1E
100
AcDbEntity
  8
0
100
AcDbLine
 10
175.0469999999999
 20
17.0
 30
0.0
 11
177.359
 21
17.0
 31
0.0
  0
LINE
  5
52F
330
1E
100
AcDbEntity
  8
0
100
AcDbLine
 10
177.359
 20
17.0
 30
0.0
 11
178.254
 21
17.0
 31
0.0
  0
LINE
  5
530
330
1E
100
AcDbEntity
  8
0
100
AcDbLine
 10
152.15
 20
17.0
 30
0.0
 11
159.7579999999999
 21
17.0
 31
0.0
  0
LINE
  5
531
330
1E
100
AcDbEntity
  8
0
100
AcDbLine
 10
159.7579999999999
 20
17.0
 30
0.0
 11
166.3949999999999
 21
17.0
 31
0.0
  0
LINE
  5
532
330
1E
100
AcDbEntity
  8
0
100
AcDbLine
 10
166.3949999999999
 20
17.0
 30
0.0
 11
171.3179999999999
 21
17.0
 31
0.0
  0
LINE
  5
533
330
1E
100
AcDbEntity
  8
0
100
AcDbLine
 10
171.3179999999999
 20
17.0
 30
0.0
 11
175.0469999999999
 21
17.0
 31
0.0
  0
LINE
  5
534
330
1E
100
AcDbEntity
  8
0
100
AcDbLine
 10
178.254
 20
17.0
 30
0.0
 11
179.0
 21
16.0
 31
0.0
  0
LINE
  5
535
330
1E
100
AcDbEntity
  8
0
100
AcDbLine
 10
143.424
 20
17.0
 30
0.0
 11
152.15
 21
17.0
 31
0.0
  0
LINE
  5
536
330
1E
100
AcDbEntity
  8
0
100
AcDbLine
 10
112.621
 20
16.0
 30
0.0
 11
123.6589999999999
 21
16.0
 31
0.0
  0
LINE
  5
537
330
1E
100
AcDbEntity
  8
0
100
AcDbLine
 10
101.1349999999999
 20
16.0
 30
0.0
 11
112.621
 21
16.0
 31
0.0
  0
LINE
  5
538
330
1E
100
AcDbEntity
  8
0
100
AcDbLine
 10
101.1349999999999
 20
3.000000000000009
 30
0.0
 11
112.621
 21
3.000000000000009
 31
0.0
  0
LINE
  5
539
330
1E
100
AcDbEntity
  8
0
100
AcDbLine
 10
89.50000000000001
 20
3.000000000000009
 30
0.0
 11
101.1349999999999
 21
3.000000000000009
 31
0.0
  0
LINE
  5
53A
330
1E
100
AcDbEntity
  8
0
100
AcDbLine
 10
89.50000000000001
 20
2.00000000000001
 30
0.0
 11
101.1349999999999
 21
2.00000000000001
 31
0.0
  0
LINE
  5
53B
330
1E
100
AcDbEntity
  8
0
100
AcDbLine
 10
77.865
 20
2.00000000000001
 30
0.0
 11
89.50000000000001
 21
2.00000000000001
 31
0.0
  0
LINE
  5
53C
330
1E
100
AcDbEntity
  8
0
100
AcDbLine
 10
45.3467
 20
17.0
 30
0.0
 11
55.5646
 21
17.0
 31
0.0
  0
LINE
  5
53D
330
1E
100
AcDbEntity
  8
0
100
AcDbLine
 10
69.0
 20
17.0
 30
0.0
 11
69.0
 21
34.16919999999999
 31
0.0
  0
LINE
  5
53E
330
1E
100
AcDbEntity
  8
0
100
AcDbLine
 10
55.5646
 20
17.0
 30
0.0
 11
66.6029
 21
17.0
 31
0.0
  0
LINE
  5
540
330
1E
100
AcDbEntity
  8
0
100
AcDbLine
 10
74.0
 20
35.0
 30
0.0
 11
77.84
 21
36.0
 31
0.0
  0
LINE
  5
541
330
1E
100
AcDbEntity
  8
0
100
AcDbLine
 10
75.55199999999999
 20
35.0
 30
0.0
 11
79.836
 21
35.0
 31
0.0
  0
LINE
  5
542
330
1E
100
AcDbEntity
  8
0
100
AcDbLine
 10
72.27600000000001
 20
35.0
 30
0.0
 11
75.55199999999999
 21
35.0
 31
0.0
  0
LINE
  5
543
330
1E
100
AcDbEntity
  8
0
100
AcDbLine
 10
77.84
 20
36.0
 30
0.0
 11
82.2127097963828
 21
36.59046765271289
 31
0.0
  0
LINE
  5
544
330
1E
100
AcDbEntity
  8
0
100
AcDbLine
 10
70.26
 20
35.0
 30
0.0
 11
72.27600000000001
 21
35.0
 31
0.0
  0
LINE
  5
545
330
1E
100
AcDbEntity
  8
0
100
AcDbLine
 10
69.50399999999999
 20
35.0
 30
0.0
 11
70.26
 21
35.0
 31
0.0
  0
LINE
  5
547
330
1E
100
AcDbEntity
  8
0
100
AcDbLine
 10
69.0
 20
34.16919999999999
 30
0.0
 11
69.0
 21
17.0
 31
0.0
  0
LINE
  5
548
330
1E
100
AcDbEntity
  8
0
100
AcDbLine
 10
69.0
 20
34.16919999999999
 30
0.0
 11
69.50399999999999
 21
35.0
 31
0.0
  0
LINE
  5
549
330
1E
100
AcDbEntity
  8
0
100
AcDbLine
 10
66.6029
 20
17.0
 30
0.0
 11
77.865
 21
17.0
 31
0.0
  0
LINE
  5
54A
330
1E
100
AcDbEntity
  8
0
100
AcDbLine
 10
111.0
 20
17.0
 30
0.0
 11
111.0
 21
34.16919999999999
 31
0.0
  0
LINE
  5
54B
330
1E
100
AcDbEntity
  8
0
100
AcDbLine
 10
133.6529999999999
 20
17.0
 30
0.0
 11
143.424
 21
17.0
 31
0.0
  0
LINE
  5
54C
330
1E
100
AcDbEntity
  8
0
100
AcDbLine
 10
123.435
 20
17.0
 30
0.0
 11
133.6529999999999
 21
17.0
 31
0.0
  0
LINE
  5
54D
330
1E
100
AcDbEntity
  8
0
100
AcDbLine
 10
112.397
 20
17.0
 30
0.0
 11
123.435
 21
17.0
 31
0.0
  0
LINE
  5
54E
330
1E
100
AcDbEntity
  8
0
100
AcDbLine
 10
101.1349999999999
 20
17.0
 30
0.0
 11
112.397
 21
17.0
 31
0.0
  0
LINE
  5
54F
330
1E
100
AcDbEntity
  8
0
100
AcDbLine
 10
84.708
 20
35.0
 30
0.0
 11
90.0
 21
35.0
 31
0.0
  0
LINE
  5
550
330
1E
100
AcDbEntity
  8
0
100
AcDbLine
 10
79.836
 20
35.0
 30
0.0
 11
84.708
 21
35.0
 31
0.0
  0
LINE
  5
551
330
1E
100
AcDbEntity
  8
0
100
AcDbLine
 10
90.0
 20
35.0
 30
0.0
 11
95.29200000000001
 21
35.0
 31
0.0
  0
LINE
  5
552
330
1E
100
AcDbEntity
  8
0
100
AcDbLine
 10
95.29200000000001
 20
35.0
 30
0.0
 11
100.164
 21
35.0
 31
0.0
  0
LINE
  5
553
330
1E
100
AcDbEntity
  8
0
100
AcDbLine
 10
78.4
 20
39.0
 30
0.0
 11
79.59999999999999
 21
39.0
 31
0.0
  0
LINE
  5
554
330
1E
100
AcDbEntity
  8
0
100
AcDbLine
 10
78.4
 20
39.0
 30
0.0
 11
79.0
 21
39.0
 31
0.0
  0
LINE
  5
555
330
1E
100
AcDbEntity
  8
0
100
AcDbLine
 10
79.0
 20
57.0
 30
0.0
 11
79.40000000000001
 21
57.0
 31
0.0
  0
LINE
  5
556
330
1E
100
AcDbEntity
  8
0
100
AcDbLine
 10
78.4
 20
56.0
 30
0.0
 11
79.59999999999999
 21
56.0
 31
0.0
  0
LINE
  5
557
330
1E
100
AcDbEntity
  8
0
100
AcDbLine
 10
78.0
 20
56.0
 30
0.0
 11
78.4
 21
56.0
 31
0.0
  0
LINE
  5
558
330
1E
100
AcDbEntity
  8
0
100
AcDbLine
 10
78.0
 20
56.0
 30
0.0
 11
79.0
 21
57.0
 31
0.0
  0
LINE
  5
559
330
1E
100
AcDbEntity
  8
0
100
AcDbLine
 10
78.0
 20
56.0
 30
0.0
 11
78.0
 21
39.0
 31
0.0
  0
LINE
  5
55A
330
1E
100
AcDbEntity
  8
0
100
AcDbLine
 10
78.0
 20
39.0
 30
0.0
 11
78.4
 21
39.0
 31
0.0
  0
LINE
  5
55B
330
1E
100
AcDbEntity
  8
0
100
AcDbLine
 10
78.0
 20
39.0
 30
0.0
 11
78.0
 21
56.0
 31
0.0
  0
LINE
  5
55C
330
1E
100
AcDbEntity
  8
0
100
AcDbLine
 10
79.59999999999999
 20
39.0
 30
0.0
 11
81.5
 21
39.0
 31
0.0
  0
LINE
  5
55D
330
1E
100
AcDbEntity
  8
0
100
AcDbLine
 10
84.0
 20
39.0
 30
0.0
 11
86.90000000000001
 21
39.0
 31
0.0
  0
LINE
  5
55E
330
1E
100
AcDbEntity
  8
0
100
AcDbLine
 10
81.5
 20
39.0
 30
0.0
 11
84.0
 21
39.0
 31
0.0
  0
LINE
  5
55F
330
1E
100
AcDbEntity
  8
0
100
AcDbLine
 10
102.16
 20
36.0
 30
0.0
 11
106.0
 21
35.0
 31
0.0
  0
LINE
  5
560
330
1E
100
AcDbEntity
  8
0
100
AcDbLine
 10
90.0
 20
39.0
 30
0.0
 11
92.79999999999999
 21
39.0
 31
0.0
  0
LINE
  5
561
330
1E
100
AcDbEntity
  8
0
100
AcDbLine
 10
90.0
 20
39.0
 30
0.0
 11
93.1
 21
39.0
 31
0.0
  0
LINE
  5
562
330
1E
100
AcDbEntity
  8
0
100
AcDbLine
 10
93.1
 20
39.0
 30
0.0
 11
96.0
 21
39.0
 31
0.0
  0
LINE
  5
563
330
1E
100
AcDbEntity
  8
0
100
AcDbLine
 10
96.0
 20
39.0
 30
0.0
 11
98.50000000000001
 21
39.0
 31
0.0
  0
LINE
  5
564
330
1E
100
AcDbEntity
  8
0
100
AcDbLine
 10
92.79999999999999
 20
39.0
 30
0.0
 11
95.5
 21
39.0
 31
0.0
  0
LINE
  5
565
330
1E
100
AcDbEntity
  8
0
100
AcDbLine
 10
95.5
 20
39.0
 30
0.0
 11
97.80000000000001
 21
39.0
 31
0.0
  0
LINE
  5
566
330
1E
100
AcDbEntity
  8
0
100
AcDbLine
 10
98.50000000000001
 20
39.0
 30
0.0
 11
100.4
 21
39.0
 31
0.0
  0
LINE
  5
567
330
1E
100
AcDbEntity
  8
0
100
AcDbLine
 10
100.4
 20
39.0
 30
0.0
 11
101.6
 21
39.0
 31
0.0
  0
LINE
  5
568
330
1E
100
AcDbEntity
  8
0
100
AcDbLine
 10
97.80000000000001
 20
39.0
 30
0.0
 11
99.50000000000001
 21
39.0
 31
0.0
  0
LINE
  5
569
330
1E
100
AcDbEntity
  8
0
100
AcDbLine
 10
99.50000000000001
 20
39.0
 30
0.0
 11
100.6
 21
39.0
 31
0.0
  0
LINE
  5
56A
330
1E
100
AcDbEntity
  8
0
100
AcDbLine
 10
102.0
 20
39.0
 30
0.0
 11
102.0
 21
56.0
 31
0.0
  0
LINE
  5
56B
330
1E
100
AcDbEntity
  8
0
100
AcDbLine
 10
101.0
 20
39.0
 30
0.0
 11
101.6
 21
39.0
 31
0.0
  0
LINE
  5
56C
330
1E
100
AcDbEntity
  8
0
100
AcDbLine
 10
101.6
 20
39.0
 30
0.0
 11
102.0
 21
39.0
 31
0.0
  0
LINE
  5
56D
330
1E
100
AcDbEntity
  8
0
100
AcDbLine
 10
100.6
 20
39.0
 30
0.0
 11
101.0
 21
39.0
 31
0.0
  0
LINE
  5
56E
330
1E
100
AcDbEntity
  8
0
100
AcDbLine
 10
97.78729020361721
 20
36.59046765271289
 30
0.0
 11
101.0
 21
39.0
 31
0.0
  0
LINE
  5
56F
330
1E
100
AcDbEntity
  8
0
100
AcDbLine
 10
97.78729020361721
 20
36.59046765271289
 30
0.0
 11
102.16
 21
36.0
 31
0.0
  0
LINE
  5
570
330
1E
100
AcDbEntity
  8
0
100
AcDbLine
 10
86.90000000000001
 20
39.0
 30
0.0
 11
90.0
 21
39.0
 31
0.0
  0
LINE
  5
571
330
1E
100
AcDbEntity
  8
0
100
AcDbLine
 10
87.2
 20
39.0
 30
0.0
 11
90.0
 21
39.0
 31
0.0
  0
LINE
  5
572
330
1E
100
AcDbEntity
  8
0
100
AcDbLine
 10
84.50000000000001
 20
39.0
 30
0.0
 11
87.2
 21
39.0
 31
0.0
  0
LINE
  5
573
330
1E
100
AcDbEntity
  8
0
100
AcDbLine
 10
82.2
 20
39.0
 30
0.0
 11
84.50000000000001
 21
39.0
 31
0.0
  0
LINE
  5
574
330
1E
100
AcDbEntity
  8
0
100
AcDbLine
 10
80.5
 20
39.0
 30
0.0
 11
82.2
 21
39.0
 31
0.0
  0
LINE
  5
575
330
1E
100
AcDbEntity
  8
0
100
AcDbLine
 10
79.40000000000001
 20
57.0
 30
0.0
 11
80.5
 21
57.0
 31
0.0
  0
LINE
  5
576
330
1E
100
AcDbEntity
  8
0
100
AcDbLine
 10
90.0
 20
56.0
 30
0.0
 11
93.1
 21
56.0
 31
0.0
  0
LINE
  5
577
330
1E
100
AcDbEntity
  8
0
100
AcDbLine
 10
93.1
 20
56.0
 30
0.0
 11
96.0
 21
56.0
 31
0.0
  0
LINE
  5
578
330
1E
100
AcDbEntity
  8
0
100
AcDbLine
 10
96.0
 20
56.0
 30
0.0
 11
98.50000000000001
 21
56.0
 31
0.0
  0
LINE
  5
579
330
1E
100
AcDbEntity
  8
0
100
AcDbLine
 10
98.50000000000001
 20
56.0
 30
0.0
 11
100.4
 21
56.0
 31
0.0
  0
LINE
  5
57A
330
1E
100
AcDbEntity
  8
0
100
AcDbLine
 10
100.4
 20
56.0
 30
0.0
 11
101.6
 21
56.0
 31
0.0
  0
LINE
  5
57B
330
1E
100
AcDbEntity
  8
0
100
AcDbLine
 10
101.6
 20
56.0
 30
0.0
 11
102.0
 21
56.0
 31
0.0
  0
LINE
  5
57C
330
1E
100
AcDbEntity
  8
0
100
AcDbLine
 10
102.0
 20
56.0
 30
0.0
 11
102.0
 21
39.0
 31
0.0
  0
LINE
  5
57D
330
1E
100
AcDbEntity
  8
0
100
AcDbLine
 10
86.90000000000001
 20
56.0
 30
0.0
 11
90.0
 21
56.0
 31
0.0
  0
LINE
  5
57E
330
1E
100
AcDbEntity
  8
0
100
AcDbLine
 10
84.0
 20
56.0
 30
0.0
 11
86.90000000000001
 21
56.0
 31
0.0
  0
LINE
  5
57F
330
1E
100
AcDbEntity
  8
0
100
AcDbLine
 10
90.0
 20
57.0
 30
0.0
 11
92.79999999999999
 21
57.0
 31
0.0
  0
LINE
  5
580
330
1E
100
AcDbEntity
  8
0
100
AcDbLine
 10
92.79999999999999
 20
57.0
 30
0.0
 11
95.5
 21
57.0
 31
0.0
  0
LINE
  5
581
330
1E
100
AcDbEntity
  8
0
100
AcDbLine
 10
95.5
 20
57.0
 30
0.0
 11
97.80000000000001
 21
57.0
 31
0.0
  0
LINE
  5
582
330
1E
100
AcDbEntity
  8
0
100
AcDbLine
 10
97.80000000000001
 20
57.0
 30
0.0
 11
99.50000000000001
 21
57.0
 31
0.0
  0
LINE
  5
583
330
1E
100
AcDbEntity
  8
0
100
AcDbLine
 10
99.50000000000001
 20
57.0
 30
0.0
 11
100.6
 21
57.0
 31
0.0
  0
LINE
  5
584
330
1E
100
AcDbEntity
  8
0
100
AcDbLine
 10
100.6
 20
57.0
 30
0.0
 11
101.0
 21
57.0
 31
0.0
  0
LINE
  5
585
330
1E
100
AcDbEntity
  8
0
100
AcDbLine
 10
101.0
 20
57.0
 30
0.0
 11
102.0
 21
56.0
 31
0.0
  0
LINE
  5
586
330
1E
100
AcDbEntity
  8
0
100
AcDbLine
 10
87.2
 20
57.0
 30
0.0
 11
90.0
 21
57.0
 31
0.0
  0
LINE
  5
587
330
1E
100
AcDbEntity
  8
0
100
AcDbLine
 10
84.50000000000001
 20
57.0
 30
0.0
 11
87.2
 21
57.0
 31
0.0
  0
LINE
  5
588
330
1E
100
AcDbEntity
  8
0
100
AcDbLine
 10
82.2
 20
57.0
 30
0.0
 11
84.50000000000001
 21
57.0
 31
0.0
  0
LINE
  5
589
330
1E
100
AcDbEntity
  8
0
100
AcDbLine
 10
80.5
 20
57.0
 30
0.0
 11
82.2
 21
57.0
 31
0.0
  0
LINE
  5
58A
330
1E
100
AcDbEntity
  8
0
100
AcDbLine
 10
81.5
 20
56.0
 30
0.0
 11
84.0
 21
56.0
 31
0.0
  0
LINE
  5
58B
330
1E
100
AcDbEntity
  8
0
100
AcDbLine
 10
79.59999999999999
 20
56.0
 30
0.0
 11
81.5
 21
56.0
 31
0.0
  0
LINE
  5
58C
330
1E
100
AcDbEntity
  8
0
100
AcDbLine
 10
79.40000000000001
 20
39.0
 30
0.0
 11
80.5
 21
39.0
 31
0.0
  0
LINE
  5
58D
330
1E
100
AcDbEntity
  8
0
100
AcDbLine
 10
79.0
 20
39.0
 30
0.0
 11
82.2127097963828
 21
36.59046765271289
 31
0.0
  0
LINE
  5
58E
330
1E
100
AcDbEntity
  8
0
100
AcDbLine
 10
79.0
 20
39.0
 30
0.0
 11
79.40000000000001
 21
39.0
 31
0.0
  0
LINE
  5
58F
330
1E
100
AcDbEntity
  8
0
100
AcDbLine
 10
100.164
 20
35.0
 30
0.0
 11
104.4479999999999
 21
35.0
 31
0.0
  0
LINE
  5
590
330
1E
100
AcDbEntity
  8
0
100
AcDbLine
 10
104.4479999999999
 20
35.0
 30
0.0
 11
107.7239999999999
 21
35.0
 31
0.0
  0
LINE
  5
592
330
1E
100
AcDbEntity
  8
0
100
AcDbLine
 10
107.7239999999999
 20
35.0
 30
0.0
 11
109.7399999999999
 21
35.0
 31
0.0
  0
LINE
  5
593
330
1E
100
AcDbEntity
  8
0
100
AcDbLine
 10
111.0
 20
34.16919999999999
 30
0.0
 11
111.0
 21
17.0
 31
0.0
  0
LINE
  5
594
330
1E
100
AcDbEntity
  8
0
100
AcDbLine
 10
109.7399999999999
 20
35.0
 30
0.0
 11
110.496
 21
35.0
 31
0.0
  0
LINE
  5
595
330
1E
100
AcDbEntity
  8
0
100
AcDbLine
 10
110.496
 20
35.0
 30
0.0
 11
111.0
 21
34.16919999999999
 31
0.0
  0
LINE
  5
597
330
1E
100
AcDbEntity
  8
0
100
AcDbLine
 10
89.50000000000001
 20
17.0
 30
0.0
 11
101.1349999999999
 21
17.0
 31
0.0
  0
LINE
  5
598
330
1E
100
AcDbEntity
  8
0
100
AcDbLine
 10
77.865
 20
17.0
 30
0.0
 11
89.50000000000001
 21
17.0
 31
0.0
  0
LINE
  5
599
330
1E
100
AcDbEntity
  8
0
100
AcDbLine
 10
19.24249999999999
 20
17.0
 30
0.0
 11
26.85
 21
17.0
 31
0.0
  0
LINE
  5
59A
330
1E
100
AcDbEntity
  8
0
100
AcDbLine
 10
18.6458
 20
3.000000000000009
 30
0.0
 11
26.32789999999999
 21
3.000000000000009
 31
0.0
  0
LINE
  5
59B
330
1E
100
AcDbEntity
  8
0
100
AcDbLine
 10
19.24249999999999
 20
2.00000000000001
 30
0.0
 11
26.85
 21
2.00000000000001
 31
0.0
  0
LINE
  5
59C
330
1E
100
AcDbEntity
  8
0
100
AcDbLine
 10
12.0079
 20
3.000000000000009
 30
0.0
 11
18.6458
 21
3.000000000000009
 31
0.0
  0
LINE
  5
59D
330
1E
100
AcDbEntity
  8
0
100
AcDbLine
 10
12.6046
 20
2.00000000000001
 30
0.0
 11
19.24249999999999
 21
2.00000000000001
 31
0.0
  0
LINE
  5
59E
330
1E
100
AcDbEntity
  8
0
100
AcDbLine
 10
7.01083
 20
3.0
 30
0.0
 11
12.0079
 21
3.000000000000009
 31
0.0
  0
LINE
  5
59F
330
1E
100
AcDbEntity
  8
0
100
AcDbLine
 10
7.68208
 20
2.0
 30
0.0
 11
12.6046
 21
2.00000000000001
 31
0.0
  0
LINE
  5
5A0
330
1E
100
AcDbEntity
  8
0
100
AcDbLine
 10
3.207079999999999
 20
3.0
 30
0.0
 11
7.01083
 21
3.0
 31
0.0
  0
LINE
  5
5A1
330
1E
100
AcDbEntity
  8
0
100
AcDbLine
 10
3.952919999999999
 20
2.0
 30
0.0
 11
7.68208
 21
2.0
 31
0.0
  0
LINE
  5
5A2
330
1E
100
AcDbEntity
  8
0
100
AcDbLine
 10
0.894999999999997
 20
3.0
 30
0.0
 11
3.207079999999999
 21
3.0
 31
0.0
  0
LINE
  5
5A3
330
1E
100
AcDbEntity
  8
0
100
AcDbLine
 10
1.64083
 20
2.0
 30
0.0
 11
3.952919999999999
 21
2.0
 31
0.0
  0
LINE
  5
5A4
330
1E
100
AcDbEntity
  8
0
100
AcDbLine
 10
0.745832999999997
 20
2.0
 30
0.0
 11
1.64083
 21
2.0
 31
0.0
  0
LINE
  5
5A5
330
1E
100
AcDbEntity
  8
0
100
AcDbLine
 10
0.745832999999997
 20
2.0
 30
0.0
 11
1.64083
 21
2.0
 31
0.0
  0
ENDSEC
  0
SECTION
  2
OBJECTS
  0
DICTIONARY
  5
C
330
0
100
AcDbDictionary
  3
ACAD_GROUP
350
D
  3
ACAD_LAYOUT
350
19
  3
ACAD_MLINESTYLE
350
16
  3
ACAD_PLOTSETTINGS
350
18
  3
ACAD_PLOTSTYLENAME
350
E
  3
ACDBHEADERROUNDTRIPXREC
350
5AD
  3
ACDBVARIABLEDICTIONARY
350
5AA
  0
DICTIONARY
  5
5CF
330
1E
100
AcDbDictionary
280
     1
  3
ACAD_LAYOUTSELFREF
360
5D0
  0
DICTIONARY
  5
5CD
330
1A
100
AcDbDictionary
280
     1
  3
ACAD_LAYOUTSELFREF
360
5CE
  0
DICTIONARY
  5
D
102
{ACAD_REACTORS
330
C
102
}
330
C
100
AcDbDictionary
  0
DICTIONARY
  5
19
102
{ACAD_REACTORS
330
C
102
}
330
C
100
AcDbDictionary
  0
DICTIONARY
  5
16
102
{ACAD_REACTORS
330
C
102
}
330
C
100
AcDbDictionary
  3
STANDARD
350
17
  0
DICTIONARY
  5
18
102
{ACAD_REACTORS
330
C
102
}
330
C
100
AcDbDictionary
  0
ACDBDICTIONARYWDFLT
  5
E
102
{ACAD_REACTORS
330
C
102
}
330
C
100
AcDbDictionary
281
     1
  3
Normal
350
F
100
AcDbDictionaryWithDefault
340
F
  0
DICTIONARY
  5
5AD
102
{ACAD_REACTORS
330
C
102
}
330
C
100
AcDbDictionary
  3
CEPSNTYPE
350
5B7
  3
FINGERPRINTGUID
350
5B8
  3
HYPERLINKBASE
350
5B0
  3
INSUNITS
350
5B6
  3
LAYOUTDICT
350
5B2
  3
LWETCUNION
350
5B5
  3
PLOTSETDICT
350
5B3
  3
PLOTSTYLNAMDICT
350
5B4
  3
PSVPSCALE
350
5BA
  3
PUCSBASE
350
5BD
  3
PUCSORGBACK
350
5C3
  3
PUCSORGBOTTOM
350
5BF
  3
PUCSORGFRONT
350
5C2
  3
PUCSORGLEFT
350
5C0
  3
PUCSORGRIGHT
350
5C1
  3
PUCSORGTOP
350
5BE
  3
PUCSORTHOREF
350
5BB
  3
PUCSORTHOVIEW
350
5BC
  3
STYLESHEET
350
5B1
  3
TSTACKALIGN
350
5AE
  3
TSTACKSIZE
350
5AF
  3
UCSBASE
350
5C6
  3
UCSORGBACK
350
5CC
  3
UCSORGBOTTOM
350
5C8
  3
UCSORGFRONT
350
5CB
  3
UCSORGLEFT
350
5C9
  3
UCSORGRIGHT
350
5CA
  3
UCSORGTOP
350
5C7
  3
UCSORTHOREF
350
5C4
  3
UCSORTHOVIEW
350
5C5
  3
VERSIONGUID
350
5B9
  0
DICTIONARY
  5
5AA
102
{ACAD_REACTORS
330
C
102
}
330
C
100
AcDbDictionary
  3
DIMASSOC
350
5AB
  0
XRECORD
  5
5D0
102
{ACAD_REACTORS
330
5CF
102
}
330
5CF
100
AcDbXrecord
340
1E
  0
XRECORD
  5
5CE
102
{ACAD_REACTORS
330
5CD
102
}
330
5CD
100
AcDbXrecord
340
1A
  0
MLINESTYLE
  5
17
102
{ACAD_REACTORS
330
16
102
}
330
16
100
AcDbMlineStyle
  2
STANDARD
 70
     0
  3

 62
   256
 51
90.0
 52
90.0
 71
     2
 49
0.5
 62
   256
  6
BYLAYER
 49
-0.5
 62
   256
  6
BYLAYER
  0
ACDBPLACEHOLDER
  5
F
102
{ACAD_REACTORS
330
E
102
}
330
E
100
AcDbPlaceHolder
280
     0
  0
XRECORD
  5
5B7
102
{ACAD_REACTORS
330
5AD
102
}
330
5AD
100
AcDbXrecord
 90
        0
  0
XRECORD
  5
5B8
102
{ACAD_REACTORS
330
5AD
102
}
330
5AD
100
AcDbXrecord
  1
{417D666A-E2DA-4045-BB50-9833AC8708B9}
  0
XRECORD
  5
5B0
102
{ACAD_REACTORS
330
5AD
102
}
330
5AD
100
AcDbXrecord
  1

  0
XRECORD
  5
5B6
102
{ACAD_REACTORS
330
5AD
102
}
330
5AD
100
AcDbXrecord
 90
        0
  0
XRECORD
  5
5B2
102
{ACAD_REACTORS
330
5AD
102
}
330
5AD
100
AcDbXrecord
340
19
  0
XRECORD
  5
5B5
102
{ACAD_REACTORS
330
5AD
102
}
330
5AD
100
AcDbXrecord
 90
    10781
  0
XRECORD
  5
5B3
102
{ACAD_REACTORS
330
5AD
102
}
330
5AD
100
AcDbXrecord
340
18
  0
XRECORD
  5
5B4
102
{ACAD_REACTORS
330
5AD
102
}
330
5AD
100
AcDbXrecord
340
E
  0
XRECORD
  5
5BA
102
{ACAD_REACTORS
330
5AD
102
}
330
5AD
100
AcDbXrecord
 40
0.0
  0
XRECORD
  5
5BD
102
{ACAD_REACTORS
330
5AD
102
}
330
5AD
100
AcDbXrecord
340
0
  0
XRECORD
  5
5C3
102
{ACAD_REACTORS
330
5AD
102
}
330
5AD
100
AcDbXrecord
 10
0.0
 20
0.0
 30
0.0
  0
XRECORD
  5
5BF
102
{ACAD_REACTORS
330
5AD
102
}
330
5AD
100
AcDbXrecord
 10
0.0
 20
0.0
 30
0.0
  0
XRECORD
  5
5C2
102
{ACAD_REACTORS
330
5AD
102
}
330
5AD
100
AcDbXrecord
 10
0.0
 20
0.0
 30
0.0
  0
XRECORD
  5
5C0
102
{ACAD_REACTORS
330
5AD
102
}
330
5AD
100
AcDbXrecord
 10
0.0
 20
0.0
 30
0.0
  0
XRECORD
  5
5C1
102
{ACAD_REACTORS
330
5AD
102
}
330
5AD
100
AcDbXrecord
 10
0.0
 20
0.0
 30
0.0
  0
XRECORD
  5
5BE
102
{ACAD_REACTORS
330
5AD
102
}
330
5AD
100
AcDbXrecord
 10
0.0
 20
0.0
 30
0.0
  0
XRECORD
  5
5BB
102
{ACAD_REACTORS
330
5AD
102
}
330
5AD
100
AcDbXrecord
340
0
  0
XRECORD
  5
5BC
102
{ACAD_REACTORS
330
5AD
102
}
330
5AD
100
AcDbXrecord
 70
     0
  0
XRECORD
  5
5B1
102
{ACAD_REACTORS
330
5AD
102
}
330
5AD
100
AcDbXrecord
  1

  0
XRECORD
  5
5AE
102
{ACAD_REACTORS
330
5AD
102
}
330
5AD
100
AcDbXrecord
 90
        1
  0
XRECORD
  5
5AF
102
{ACAD_REACTORS
330
5AD
102
}
330
5AD
100
AcDbXrecord
 90
       70
  0
XRECORD
  5
5C6
102
{ACAD_REACTORS
330
5AD
102
}
330
5AD
100
AcDbXrecord
340
0
  0
XRECORD
  5
5CC
102
{ACAD_REACTORS
330
5AD
102
}
330
5AD
100
AcDbXrecord
 10
0.0
 20
0.0
 30
0.0
  0
XRECORD
  5
5C8
102
{ACAD_REACTORS
330
5AD
102
}
330
5AD
100
AcDbXrecord
 10
0.0
 20
0.0
 30
0.0
  0
XRECORD
  5
5CB
102
{ACAD_REACTORS
330
5AD
102
}
330
5AD
100
AcDbXrecord
 10
0.0
 20
0.0
 30
0.0
  0
XRECORD
  5
5C9
102
{ACAD_REACTORS
330
5AD
102
}
330
5AD
100
AcDbXrecord
 10
0.0
 20
0.0
 30
0.0
  0
XRECORD
  5
5CA
102
{ACAD_REACTORS
330
5AD
102
}
330
5AD
100
AcDbXrecord
 10
0.0
 20
0.0
 30
0.0
  0
XRECORD
  5
5C7
102
{ACAD_REACTORS
330
5AD
102
}
330
5AD
100
AcDbXrecord
 10
0.0
 20
0.0
 30
0.0
  0
XRECORD
  5
5C4
102
{ACAD_REACTORS
330
5AD
102
}
330
5AD
100
AcDbXrecord
340
0
  0
XRECORD
  5
5C5
102
{ACAD_REACTORS
330
5AD
102
}
330
5AD
100
AcDbXrecord
 70
     1
  0
XRECORD
  5
5B9
102
{ACAD_REACTORS
330
5AD
102
}
330
5AD
100
AcDbXrecord
  1
{3B9EFDA2-E98B-4535-AF8F-3981A97B758F}
  0
DICTIONARYVAR
  5
5AB
102
{ACAD_REACTORS
330
5AA
102
}
330
5AA
100
DictionaryVariables
280
     0
  1
1
  0
ENDSEC
  0
EOF
