  0
SECTION
  2
HEADER
  9
$ACADVER
  1
AC1015
  9
$ACADMAINTVER
 70
    13
  9
$DWGCODEPAGE
  3
ANSI_1252
  9
$INSBASE
 10
0.0
 20
0.0
 30
0.0
  9
$EXTMIN
 10
0.0410249999999783
 20
0.018714999999981
 30
0.0
  9
$EXTMAX
 10
245.958975
 20
936.981285
 30
0.0
  9
$LIMMIN
 10
0.0
 20
0.0
  9
$LIMMAX
 10
12.0
 20
9.0
  9
$ORTHOMODE
 70
     0
  9
$REGENMODE
 70
     1
  9
$FILLMODE
 70
     1
  9
$QTEXTMODE
 70
     0
  9
$MIRRTEXT
 70
     1
  9
$LTSCALE
 40
1.0
  9
$ATTMODE
 70
     1
  9
$TEXTSIZE
 40
0.2
  9
$TRACEWID
 40
0.05
  9
$TEXTSTYLE
  7
Standard
  9
$CLAYER
  8
0
  9
$CELTYPE
  6
Continuous
  9
$CECOLOR
 62
   256
  9
$CELTSCALE
 40
1.0
  9
$DISPSILH
 70
     0
  9
$DIMSCALE
 40
1.0
  9
$DIMASZ
 40
0.18
  9
$DIMEXO
 40
0.0625
  9
$DIMDLI
 40
0.38
  9
$DIMRND
 40
0.0
  9
$DIMDLE
 40
0.0
  9
$DIMEXE
 40
0.18
  9
$DIMTP
 40
0.0
  9
$DIMTM
 40
0.0
  9
$DIMTXT
 40
0.18
  9
$DIMCEN
 40
0.09
  9
$DIMTSZ
 40
0.0
  9
$DIMTOL
 70
     0
  9
$DIMLIM
 70
     0
  9
$DIMTIH
 70
     1
  9
$DIMTOH
 70
     1
  9
$DIMSE1
 70
     0
  9
$DIMSE2
 70
     0
  9
$DIMTAD
 70
     0
  9
$DIMZIN
 70
     0
  9
$DIMBLK
  1

  9
$DIMASO
 70
     1
  9
$DIMSHO
 70
     1
  9
$DIMPOST
  1

  9
$DIMAPOST
  1

  9
$DIMALT
 70
     0
  9
$DIMALTD
 70
     2
  9
$DIMALTF
 40
25.4
  9
$DIMLFAC
 40
1.0
  9
$DIMTOFL
 70
     0
  9
$DIMTVP
 40
0.0
  9
$DIMTIX
 70
     0
  9
$DIMSOXD
 70
     0
  9
$DIMSAH
 70
     0
  9
$DIMBLK1
  1

  9
$DIMBLK2
  1

  9
$DIMSTYLE
  2
Standard
  9
$DIMCLRD
 70
     0
  9
$DIMCLRE
 70
     0
  9
$DIMCLRT
 70
     0
  9
$DIMTFAC
 40
1.0
  9
$DIMGAP
 40
0.09
  9
$DIMJUST
 70
     0
  9
$DIMSD1
 70
     0
  9
$DIMSD2
 70
     0
  9
$DIMTOLJ
 70
     1
  9
$DIMTZIN
 70
     0
  9
$DIMALTZ
 70
     0
  9
$DIMALTTZ
 70
     0
  9
$DIMUPT
 70
     0
  9
$DIMDEC
 70
     4
  9
$DIMTDEC
 70
     4
  9
$DIMALTU
 70
     2
  9
$DIMALTTD
 70
     2
  9
$DIMTXSTY
  7
Standard
  9
$DIMAUNIT
 70
     0
  9
$DIMADEC
 70
     0
  9
$DIMALTRND
 40
0.0
  9
$DIMAZIN
 70
     0
  9
$DIMDSEP
 70
    46
  9
$DIMATFIT
 70
     3
  9
$DIMFRAC
 70
     0
  9
$DIMLDRBLK
  1

  9
$DIMLUNIT
 70
     2
  9
$DIMLWD
 70
    -2
  9
$DIMLWE
 70
    -2
  9
$DIMTMOVE
 70
     0
  9
$LUNITS
 70
     2
  9
$LUPREC
 70
     4
  9
$SKETCHINC
 40
0.1
  9
$FILLETRAD
 40
0.0
  9
$AUNITS
 70
     0
  9
$AUPREC
 70
     0
  9
$MENU
  1
.
  9
$ELEVATION
 40
0.0
  9
$PELEVATION
 40
0.0
  9
$THICKNESS
 40
0.0
  9
$LIMCHECK
 70
     0
  9
$CHAMFERA
 40
0.0
  9
$CHAMFERB
 40
0.0
  9
$CHAMFERC
 40
0.0
  9
$CHAMFERD
 40
0.0
  9
$SKPOLY
 70
     0
  9
$TDCREATE
 40
2454761.862597835
  9
$TDUCREATE
 40
2454761.779264502
  9
$TDUPDATE
 40
2454761.865691551
  9
$TDUUPDATE
 40
2454761.782358217
  9
$TDINDWG
 40
0.0030937153
  9
$TDUSRTIMER
 40
0.0030937153
  9
$USRTIMER
 70
     1
  9
$ANGBASE
 50
0.0
  9
$ANGDIR
 70
     0
  9
$PDMODE
 70
     0
  9
$PDSIZE
 40
0.0
  9
$PLINEWID
 40
0.0
  9
$SPLFRAME
 70
     0
  9
$SPLINETYPE
 70
     6
  9
$SPLINESEGS
 70
     8
  9
$HANDSEED
  5
32F
  9
$SURFTAB1
 70
     6
  9
$SURFTAB2
 70
     6
  9
$SURFTYPE
 70
     6
  9
$SURFU
 70
     6
  9
$SURFV
 70
     6
  9
$UCSBASE
  2

  9
$UCSNAME
  2

  9
$UCSORG
 10
0.0
 20
0.0
 30
0.0
  9
$UCSXDIR
 10
1.0
 20
0.0
 30
0.0
  9
$UCSYDIR
 10
0.0
 20
1.0
 30
0.0
  9
$UCSORTHOREF
  2

  9
$UCSORTHOVIEW
 70
     1
  9
$UCSORGTOP
 10
0.0
 20
0.0
 30
0.0
  9
$UCSORGBOTTOM
 10
0.0
 20
0.0
 30
0.0
  9
$UCSORGLEFT
 10
0.0
 20
0.0
 30
0.0
  9
$UCSORGRIGHT
 10
0.0
 20
0.0
 30
0.0
  9
$UCSORGFRONT
 10
0.0
 20
0.0
 30
0.0
  9
$UCSORGBACK
 10
0.0
 20
0.0
 30
0.0
  9
$PUCSBASE
  2

  9
$PUCSNAME
  2

  9
$PUCSORG
 10
0.0
 20
0.0
 30
0.0
  9
$PUCSXDIR
 10
1.0
 20
0.0
 30
0.0
  9
$PUCSYDIR
 10
0.0
 20
1.0
 30
0.0
  9
$PUCSORTHOREF
  2

  9
$PUCSORTHOVIEW
 70
     0
  9
$PUCSORGTOP
 10
0.0
 20
0.0
 30
0.0
  9
$PUCSORGBOTTOM
 10
0.0
 20
0.0
 30
0.0
  9
$PUCSORGLEFT
 10
0.0
 20
0.0
 30
0.0
  9
$PUCSORGRIGHT
 10
0.0
 20
0.0
 30
0.0
  9
$PUCSORGFRONT
 10
0.0
 20
0.0
 30
0.0
  9
$PUCSORGBACK
 10
0.0
 20
0.0
 30
0.0
  9
$USERI1
 70
     0
  9
$USERI2
 70
     0
  9
$USERI3
 70
     0
  9
$USERI4
 70
     0
  9
$USERI5
 70
     0
  9
$USERR1
 40
0.0
  9
$USERR2
 40
0.0
  9
$USERR3
 40
0.0
  9
$USERR4
 40
0.0
  9
$USERR5
 40
0.0
  9
$WORLDVIEW
 70
     1
  9
$SHADEDGE
 70
     3
  9
$SHADEDIF
 70
    70
  9
$TILEMODE
 70
     1
  9
$MAXACTVP
 70
    64
  9
$PINSBASE
 10
0.0
 20
0.0
 30
0.0
  9
$PLIMCHECK
 70
     0
  9
$PEXTMIN
 10
1.000000000000000E+20
 20
1.000000000000000E+20
 30
1.000000000000000E+20
  9
$PEXTMAX
 10
-1.000000000000000E+20
 20
-1.000000000000000E+20
 30
-1.000000000000000E+20
  9
$PLIMMIN
 10
0.0
 20
0.0
  9
$PLIMMAX
 10
12.0
 20
9.0
  9
$UNITMODE
 70
     0
  9
$VISRETAIN
 70
     1
  9
$PLINEGEN
 70
     0
  9
$PSLTSCALE
 70
     1
  9
$TREEDEPTH
 70
  3020
  9
$CMLSTYLE
  2
Standard
  9
$CMLJUST
 70
     0
  9
$CMLSCALE
 40
1.0
  9
$PROXYGRAPHICS
 70
     1
  9
$MEASUREMENT
 70
     0
  9
$CELWEIGHT
370
    -1
  9
$ENDCAPS
280
     0
  9
$JOINSTYLE
280
     0
  9
$LWDISPLAY
290
     0
  9
$INSUNITS
 70
     0
  9
$HYPERLINKBASE
  1

  9
$STYLESHEET
  1

  9
$XEDIT
290
     1
  9
$CEPSNTYPE
380
     0
  9
$PSTYLEMODE
290
     1
  9
$FINGERPRINTGUID
  2
{D68CC1D6-BB11-4C4B-BC0C-D58EF73D97E1}
  9
$VERSIONGUID
  2
{8C4A4103-915F-4C4E-8494-184DC30D9482}
  9
$EXTNAMES
290
     1
  9
$PSVPSCALE
 40
0.0
  9
$OLESTARTUP
290
     0
  0
ENDSEC
  0
SECTION
  2
CLASSES
  0
CLASS
  1
ACDBDICTIONARYWDFLT
  2
AcDbDictionaryWithDefault
  3
AutoCAD 2000
 90
        0
280
     0
281
     0
  0
CLASS
  1
ACDBPLACEHOLDER
  2
AcDbPlaceHolder
  3
AutoCAD 2000
 90
        0
280
     0
281
     0
  0
CLASS
  1
LAYOUT
  2
AcDbLayout
  3
AutoCAD 2000
 90
        0
280
     0
281
     0
  0
CLASS
  1
DICTIONARYVAR
  2
AcDbDictionaryVar
  3
AutoCAD 2000
 90
        0
280
     0
281
     0
  0
ENDSEC
  0
SECTION
  2
TABLES
  0
TABLE
  2
VPORT
  5
8
330
0
100
AcDbSymbolTable
 70
     2
  0
VPORT
  5
32E
330
8
100
AcDbSymbolTableRecord
100
AcDbViewportTableRecord
  2
*Active
 70
     0
 10
0.0
 20
0.0
 11
1.0
 21
1.0
 12
122.9999999999999
 22
468.5
 13
0.0
 23
0.0
 14
1.0
 24
1.0
 15
0.0
 25
0.0
 16
0.0
 26
0.0
 36
1.0
 17
0.0
 27
0.0
 37
0.0
 40
944.1515411253197
 41
2.078104993597951
 42
50.0
 43
0.0
 44
0.0
 50
0.0
 51
0.0
 71
     0
 72
   100
 73
     1
 74
     3
 75
     0
 76
     0
 77
     0
 78
     0
281
     0
 65
     1
110
0.0
120
0.0
130
0.0
111
1.0
121
0.0
131
0.0
112
0.0
122
1.0
132
0.0
 79
     1
146
0.0
  0
ENDTAB
  0
TABLE
  2
LTYPE
  5
5
330
0
100
AcDbSymbolTable
 70
     1
  0
LTYPE
  5
13
330
5
100
AcDbSymbolTableRecord
100
AcDbLinetypeTableRecord
  2
ByBlock
 70
     0
  3

 72
    65
 73
     0
 40
0.0
  0
LTYPE
  5
14
330
5
100
AcDbSymbolTableRecord
100
AcDbLinetypeTableRecord
  2
ByLayer
 70
     0
  3

 72
    65
 73
     0
 40
0.0
  0
LTYPE
  5
15
330
5
100
AcDbSymbolTableRecord
100
AcDbLinetypeTableRecord
  2
Continuous
 70
     0
  3
Solid line
 72
    65
 73
     0
 40
0.0
  0
ENDTAB
  0
TABLE
  2
LAYER
  5
2
330
0
100
AcDbSymbolTable
 70
     1
  0
LAYER
  5
10
330
2
100
AcDbSymbolTableRecord
100
AcDbLayerTableRecord
  2
0
 70
     0
 62
     7
  6
Continuous
370
    -3
390
F
  0
ENDTAB
  0
TABLE
  2
STYLE
  5
3
330
0
100
AcDbSymbolTable
 70
     1
  0
STYLE
  5
11
330
3
100
AcDbSymbolTableRecord
100
AcDbTextStyleTableRecord
  2
Standard
 70
     0
 40
0.0
 41
1.0
 50
0.0
 71
     0
 42
0.2
  3
txt
  4

  0
ENDTAB
  0
TABLE
  2
VIEW
  5
6
330
0
100
AcDbSymbolTable
 70
     0
  0
ENDTAB
  0
TABLE
  2
UCS
  5
7
330
0
100
AcDbSymbolTable
 70
     0
  0
ENDTAB
  0
TABLE
  2
APPID
  5
9
330
0
100
AcDbSymbolTable
 70
     1
  0
APPID
  5
12
330
9
100
AcDbSymbolTableRecord
100
AcDbRegAppTableRecord
  2
ACAD
 70
     0
  0
ENDTAB
  0
TABLE
  2
DIMSTYLE
  5
A
330
0
100
AcDbSymbolTable
 70
     1
100
AcDbDimStyleTable
 71
     0
  0
DIMSTYLE
105
326
330
A
100
AcDbSymbolTableRecord
100
AcDbDimStyleTableRecord
  2
Standard
 70
     0
340
11
  0
ENDTAB
  0
TABLE
  2
BLOCK_RECORD
  5
1
330
0
100
AcDbSymbolTable
 70
     0
  0
BLOCK_RECORD
  5
1E
330
1
100
AcDbSymbolTableRecord
100
AcDbBlockTableRecord
  2
*Model_Space
340
21
  0
BLOCK_RECORD
  5
1A
330
1
100
AcDbSymbolTableRecord
100
AcDbBlockTableRecord
  2
*Paper_Space
340
1D
  0
ENDTAB
  0
ENDSEC
  0
SECTION
  2
BLOCKS
  0
BLOCK
  5
1F
330
1E
100
AcDbEntity
  8
0
100
AcDbBlockBegin
  2
*Model_Space
 70
     0
 10
0.0
 20
0.0
 30
0.0
  3
*Model_Space
  1

  0
ENDBLK
  5
20
330
1E
100
AcDbEntity
  8
0
100
AcDbBlockEnd
  0
BLOCK
  5
1B
330
1A
100
AcDbEntity
 67
     1
  8
0
100
AcDbBlockBegin
  2
*Paper_Space
 70
     0
 10
0.0
 20
0.0
 30
0.0
  3
*Paper_Space
  1

  0
ENDBLK
  5
1C
330
1A
100
AcDbEntity
 67
     1
  8
0
100
AcDbBlockEnd
  0
ENDSEC
  0
SECTION
  2
ENTITIES
  0
LINE
  5
22
330
1E
100
AcDbEntity
  8
0
100
AcDbLine
 10
1.920174999999979
 20
826.1252849999999
 30
0.0
 11
4.93337499999998
 21
820.344285
 31
0.0
  0
LINE
  5
23
330
1E
100
AcDbEntity
  8
0
100
AcDbLine
 10
0.8220749999999769
 20
830.2232849999999
 30
0.0
 11
1.94797499999998
 21
829.573285
 31
0.0
  0
LINE
  5
24
330
1E
100
AcDbEntity
  8
0
100
AcDbLine
 10
0.968474999999978
 20
829.6772849999999
 30
0.0
 11
1.255152930085239
 21
829.9732622141789
 31
0.0
  0
LINE
  5
25
330
1E
100
AcDbEntity
  8
0
100
AcDbLine
 10
0.968474999999978
 20
829.6772849999999
 30
0.0
 11
1.920174999999979
 21
826.1252849999999
 31
0.0
  0
LINE
  5
26
330
1E
100
AcDbEntity
  8
0
100
AcDbLine
 10
0.968474999999978
 20
829.6772849999999
 30
0.0
 11
63.14917499999999
 21
793.7772849999999
 31
0.0
  0
LINE
  5
28
330
1E
100
AcDbEntity
  8
0
100
AcDbLine
 10
1.94797499999993
 20
829.573285
 30
0.0
 11
63.7821749979297
 21
793.8732850011951
 31
0.0
  0
LINE
  5
29
330
1E
100
AcDbEntity
  8
0
100
AcDbLine
 10
0.4560749999999771
 20
831.589285
 30
0.0
 11
0.8220749999999769
 21
830.2232849999999
 31
0.0
  0
LINE
  5
2A
330
1E
100
AcDbEntity
  8
0
100
AcDbLine
 10
0.0410249999999783
 20
835.870285
 30
0.0
 11
0.424974999999979
 21
838.535285
 31
0.0
  0
LINE
  5
2B
330
1E
100
AcDbEntity
  8
0
100
AcDbLine
 10
0.0410249999999783
 20
835.870285
 30
0.0
 11
0.4560749999999771
 21
831.589285
 31
0.0
  0
LINE
  5
2C
330
1E
100
AcDbEntity
  8
0
100
AcDbLine
 10
0.424974999999979
 20
838.535285
 30
0.0
 11
1.99197499999998
 21
842.2502849999998
 31
0.0
  0
LINE
  5
2E
330
1E
100
AcDbEntity
  8
0
100
AcDbLine
 10
3.291074999999979
 20
841.500285
 30
0.0
 11
6.928374999999981
 21
839.4002849999999
 31
0.0
  0
LINE
  5
2F
330
1E
100
AcDbEntity
  8
0
100
AcDbLine
 10
1.99197499999998
 20
842.2502849999998
 30
0.0
 11
2.674974999999979
 21
842.4332849999998
 31
0.0
  0
LINE
  5
30
330
1E
100
AcDbEntity
  8
0
100
AcDbLine
 10
1.99197499999998
 20
842.2502849999998
 30
0.0
 11
3.291074999999979
 21
841.500285
 31
0.0
  0
LINE
  5
31
330
1E
100
AcDbEntity
  8
0
100
AcDbLine
 10
2.674974999999979
 20
842.4332849999998
 30
0.0
 11
3.974074999999979
 21
841.683285
 31
0.0
  0
LINE
  5
32
330
1E
100
AcDbEntity
  8
0
100
AcDbLine
 10
3.974074999999979
 20
841.683285
 30
0.0
 11
7.524774999999981
 21
839.633285
 31
0.0
  0
LINE
  5
33
330
1E
100
AcDbEntity
  8
0
100
AcDbLine
 10
3.357974999999979
 20
842.6162849999998
 30
0.0
 11
6.99527499999998
 21
840.5162849999999
 31
0.0
  0
LINE
  5
34
330
1E
100
AcDbEntity
  8
0
100
AcDbLine
 10
2.05897499999998
 20
843.3662849999999
 30
0.0
 11
4.55897499999998
 21
847.6962849999999
 31
0.0
  0
LINE
  5
35
330
1E
100
AcDbEntity
  8
0
100
AcDbLine
 10
2.05897499999998
 20
843.3662849999999
 30
0.0
 11
2.674974999999979
 21
842.4332849999998
 31
0.0
  0
LINE
  5
36
330
1E
100
AcDbEntity
  8
0
100
AcDbLine
 10
2.05897499999998
 20
843.3662849999999
 30
0.0
 11
3.357974999999979
 21
842.6162849999998
 31
0.0
  0
LINE
  5
37
330
1E
100
AcDbEntity
  8
0
100
AcDbLine
 10
5.77537499999998
 20
817.7852849999998
 30
0.0
 11
6.076952691418529
 21
817.9610104572729
 31
0.0
  0
LINE
  5
38
330
1E
100
AcDbEntity
  8
0
100
AcDbLine
 10
5.58607499999998
 20
818.869285
 30
0.0
 11
5.85317499999998
 21
818.3142849999999
 31
0.0
  0
LINE
  5
39
330
1E
100
AcDbEntity
  8
0
100
AcDbLine
 10
5.58607499999998
 20
818.869285
 30
0.0
 11
5.59967499999998
 21
819.033285
 31
0.0
  0
LINE
  5
3B
330
1E
100
AcDbEntity
  8
0
100
AcDbLine
 10
5.85317499999998
 20
818.3142849999999
 30
0.0
 11
6.25477499999998
 21
817.6802849999999
 31
0.0
  0
LINE
  5
3C
330
1E
100
AcDbEntity
  8
0
100
AcDbLine
 10
5.899774999999981
 20
818.6882849999999
 30
0.0
 11
6.301374999999969
 21
818.0552849999999
 31
0.0
  0
LINE
  5
3E
330
1E
100
AcDbEntity
  8
0
100
AcDbLine
 10
5.59967499999998
 20
819.033285
 30
0.0
 11
5.899774999999981
 21
818.6882849999999
 31
0.0
  0
LINE
  5
40
330
1E
100
AcDbEntity
  8
0
100
AcDbLine
 10
5.624274999999981
 20
818.044285
 30
0.0
 11
5.77537499999998
 21
817.7852849999998
 31
0.0
  0
LINE
  5
42
330
1E
100
AcDbEntity
  8
0
100
AcDbLine
 10
5.27197499999998
 20
818.649285
 30
0.0
 11
5.624274999999981
 21
818.044285
 31
0.0
  0
LINE
  5
46
330
1E
100
AcDbEntity
  8
0
100
AcDbLine
 10
4.93337499999998
 20
820.344285
 30
0.0
 11
5.28385746430488
 21
819.813457852835
 31
0.0
  0
LINE
  5
47
330
1E
100
AcDbEntity
  8
0
100
AcDbLine
 10
4.91967499999998
 20
819.254285
 30
0.0
 11
5.27197499999998
 21
818.649285
 31
0.0
  0
LINE
  5
49
330
1E
100
AcDbEntity
  8
0
100
AcDbLine
 10
4.76867499999998
 20
819.513285
 30
0.0
 11
4.91967499999998
 21
819.254285
 31
0.0
  0
LINE
  5
4A
330
1E
100
AcDbEntity
  8
0
100
AcDbLine
 10
4.76867499999998
 20
819.513285
 30
0.0
 11
5.315188164115959
 21
819.831712793939
 31
0.0
  0
LINE
  5
4B
330
1E
100
AcDbEntity
  8
0
100
AcDbLine
 10
6.076952691418529
 20
817.9610104572729
 30
0.0
 11
6.25477499999998
 21
817.6802849999999
 31
0.0
  0
LINE
  5
4C
330
1E
100
AcDbEntity
  8
0
100
AcDbLine
 10
6.301374999999969
 20
818.0552849999999
 30
0.0
 11
6.56857499999998
 21
817.499285
 31
0.0
  0
LINE
  5
4E
330
1E
100
AcDbEntity
  8
0
100
AcDbLine
 10
6.25477499999998
 20
817.6802849999999
 30
0.0
 11
6.554974999999981
 21
817.335285
 31
0.0
  0
LINE
  5
51
330
1E
100
AcDbEntity
  8
0
100
AcDbLine
 10
6.816222919064349
 20
817.492596567016
 30
0.0
 11
8.01347499999998
 21
815.6792849999998
 31
0.0
  0
LINE
  5
52
330
1E
100
AcDbEntity
  8
0
100
AcDbLine
 10
6.928374999999981
 20
839.4002849999999
 30
0.0
 11
12.644075
 21
836.100285
 31
0.0
  0
LINE
  5
53
330
1E
100
AcDbEntity
  8
0
100
AcDbLine
 10
6.816222919064349
 20
817.492596567016
 30
0.0
 11
8.01347499999998
 21
815.6792849999998
 31
0.0
  0
LINE
  5
55
330
1E
100
AcDbEntity
  8
0
100
AcDbLine
 10
6.554974999999981
 20
817.335285
 30
0.0
 11
6.816222919064349
 21
817.492596567016
 31
0.0
  0
LINE
  5
56
330
1E
100
AcDbEntity
  8
0
100
AcDbLine
 10
6.554974999999981
 20
817.335285
 30
0.0
 11
6.56857499999998
 21
817.499285
 31
0.0
  0
LINE
  5
58
330
1E
100
AcDbEntity
  8
0
100
AcDbLine
 10
8.01347499999998
 20
815.6792849999998
 30
0.0
 11
9.125527896467401
 21
814.425217531676
 31
0.0
  0
LINE
  5
59
330
1E
100
AcDbEntity
  8
0
100
AcDbLine
 10
7.857474999999969
 20
817.5582849999999
 30
0.0
 11
8.00937499999998
 21
817.069285
 31
0.0
  0
LINE
  5
5A
330
1E
100
AcDbEntity
  8
0
100
AcDbLine
 10
7.857474999999969
 20
817.5582849999999
 30
0.0
 11
8.03987499999998
 21
817.6252849999999
 31
0.0
  0
LINE
  5
5C
330
1E
100
AcDbEntity
  8
0
100
AcDbLine
 10
8.00937499999998
 20
817.069285
 30
0.0
 11
8.42107499999998
 21
816.4292849999998
 31
0.0
  0
LINE
  5
5D
330
1E
100
AcDbEntity
  8
0
100
AcDbLine
 10
8.42107499999998
 20
816.4292849999998
 30
0.0
 11
8.844974999999969
 21
816.013285
 31
0.0
  0
LINE
  5
5E
330
1E
100
AcDbEntity
  8
0
100
AcDbLine
 10
8.46367499999998
 20
817.2082849999998
 30
0.0
 11
8.87537499999998
 21
816.5692849999999
 31
0.0
  0
LINE
  5
60
330
1E
100
AcDbEntity
  8
0
100
AcDbLine
 10
8.03987499999998
 20
817.6252849999999
 30
0.0
 11
8.46367499999998
 21
817.2082849999998
 31
0.0
  0
LINE
  5
62
330
1E
100
AcDbEntity
  8
0
100
AcDbLine
 10
8.665474999999981
 20
814.0812849999999
 30
0.0
 11
8.76317499999998
 21
813.8872849999998
 31
0.0
  0
LINE
  5
63
330
1E
100
AcDbEntity
  8
0
100
AcDbLine
 10
8.665474999999981
 20
814.0812849999999
 30
0.0
 11
9.125527896467401
 21
814.425217531676
 31
0.0
  0
LINE
  5
64
330
1E
100
AcDbEntity
  8
0
100
AcDbLine
 10
8.665474999999981
 20
814.0812849999999
 30
0.0
 11
8.92137499999997
 21
813.796285
 31
0.0
  0
LINE
  5
65
330
1E
100
AcDbEntity
  8
0
100
AcDbLine
 10
8.665474999999981
 20
814.0812849999999
 30
0.0
 11
9.32371446455207
 21
814.573380511692
 31
0.0
  0
LINE
  5
66
330
1E
100
AcDbEntity
  8
0
100
AcDbLine
 10
9.588374999999981
 20
812.7692849999998
 30
0.0
 11
9.844374999999971
 21
812.4832849999998
 31
0.0
  0
LINE
  5
67
330
1E
100
AcDbEntity
  8
0
100
AcDbLine
 10
9.588374999999981
 20
812.7692849999998
 30
0.0
 11
9.640319534226669
 21
812.808120821051
 31
0.0
  0
LINE
  5
68
330
1E
100
AcDbEntity
  8
0
100
AcDbLine
 10
9.844374999999971
 20
812.4832849999998
 30
0.0
 11
10.2242711340886
 21
812.7673106150339
 31
0.0
  0
LINE
  5
69
330
1E
100
AcDbEntity
  8
0
100
AcDbLine
 10
9.74667499999998
 20
812.677285
 30
0.0
 11
9.844374999999971
 21
812.4832849999998
 31
0.0
  0
LINE
  5
6B
330
1E
100
AcDbEntity
  8
0
100
AcDbLine
 10
8.844974999999969
 20
816.013285
 30
0.0
 11
9.027274999999971
 21
816.0792849999999
 31
0.0
  0
LINE
  5
6C
330
1E
100
AcDbEntity
  8
0
100
AcDbLine
 10
9.141874999999981
 20
813.348285
 30
0.0
 11
9.588374999999981
 21
812.7692849999998
 31
0.0
  0
LINE
  5
6D
330
1E
100
AcDbEntity
  8
0
100
AcDbLine
 10
9.141874999999981
 20
813.348285
 30
0.0
 11
9.18914220543769
 21
813.383594314558
 31
0.0
  0
LINE
  5
6E
330
1E
100
AcDbEntity
  8
0
100
AcDbLine
 10
9.36787499999998
 20
813.2172849999999
 30
0.0
 11
9.74667499999998
 21
812.677285
 31
0.0
  0
LINE
  5
70
330
1E
100
AcDbEntity
  8
0
100
AcDbLine
 10
8.92137499999997
 20
813.796285
 30
0.0
 11
9.36787499999998
 21
813.2172849999999
 31
0.0
  0
LINE
  5
73
330
1E
100
AcDbEntity
  8
0
100
AcDbLine
 10
8.87537499999998
 20
816.5692849999999
 30
0.0
 11
9.027274999999971
 21
816.0792849999999
 31
0.0
  0
LINE
  5
75
330
1E
100
AcDbEntity
  8
0
100
AcDbLine
 10
9.98707499999997
 20
813.1812849999999
 30
0.0
 11
10.262675
 21
812.700285
 31
0.0
  0
LINE
  5
76
330
1E
100
AcDbEntity
  8
0
100
AcDbLine
 10
9.98707499999997
 20
813.1812849999999
 30
0.0
 11
10.05837499999999
 21
813.277285
 31
0.0
  0
LINE
  5
77
330
1E
100
AcDbEntity
  8
0
100
AcDbLine
 10
9.98707499999997
 20
813.1812849999999
 30
0.0
 11
10.0763484797975
 21
813.25151753223
 31
0.0
  0
LINE
  5
78
330
1E
100
AcDbEntity
  8
0
100
AcDbLine
 10
8.76317499999998
 20
813.8872849999998
 30
0.0
 11
9.141874999999981
 21
813.348285
 31
0.0
  0
LINE
  5
79
330
1E
100
AcDbEntity
  8
0
100
AcDbLine
 10
8.76317499999998
 20
813.8872849999998
 30
0.0
 11
8.808943802416349
 21
813.921501456863
 31
0.0
  0
LINE
  5
7A
330
1E
100
AcDbEntity
  8
0
100
AcDbLine
 10
7.524774999999981
 20
839.633285
 30
0.0
 11
13.240475
 21
836.3332849999999
 31
0.0
  0
LINE
  5
7B
330
1E
100
AcDbEntity
  8
0
100
AcDbLine
 10
6.99527499999998
 20
840.5162849999999
 30
0.0
 11
12.884275
 21
837.1162849999999
 31
0.0
  0
LINE
  5
7D
330
1E
100
AcDbEntity
  8
0
100
AcDbLine
 10
22.361675
 20
803.9312849999999
 30
0.0
 11
24.526775
 21
802.681285
 31
0.0
  0
LINE
  5
7E
330
1E
100
AcDbEntity
  8
0
100
AcDbLine
 10
24.526775
 20
802.681285
 30
0.0
 11
26.865075
 21
801.331285
 31
0.0
  0
LINE
  5
7F
330
1E
100
AcDbEntity
  8
0
100
AcDbLine
 10
29.203275
 20
799.9812849999999
 30
0.0
 11
31.3683749984797
 21
798.7312850008779
 31
0.0
  0
LINE
  5
80
330
1E
100
AcDbEntity
  8
0
100
AcDbLine
 10
26.865075
 20
801.331285
 30
0.0
 11
29.203275
 21
799.9812849999999
 31
0.0
  0
LINE
  5
82
330
1E
100
AcDbEntity
  8
0
100
AcDbLine
 10
25.550775
 20
804.1952849999999
 30
0.0
 11
25.74207499999999
 21
803.7632849999999
 31
0.0
  0
LINE
  5
84
330
1E
100
AcDbEntity
  8
0
100
AcDbLine
 10
25.418075
 20
803.630285
 30
0.0
 11
25.74207499999999
 21
803.7632849999999
 31
0.0
  0
LINE
  5
85
330
1E
100
AcDbEntity
  8
0
100
AcDbLine
 10
24.788675
 20
803.855285
 30
0.0
 11
25.418075
 21
803.630285
 31
0.0
  0
LINE
  5
86
330
1E
100
AcDbEntity
  8
0
100
AcDbLine
 10
28.72537499999999
 20
804.5352849999998
 30
0.0
 11
29.406075
 21
804.3142849999998
 31
0.0
  0
LINE
  5
87
330
1E
100
AcDbEntity
  8
0
100
AcDbLine
 10
24.978275
 20
804.6632849999999
 30
0.0
 11
25.550775
 21
804.1952849999999
 31
0.0
  0
LINE
  5
89
330
1E
100
AcDbEntity
  8
0
100
AcDbLine
 10
24.215975
 20
804.3242849999998
 30
0.0
 11
24.788675
 21
803.855285
 31
0.0
  0
LINE
  5
8A
330
1E
100
AcDbEntity
  8
0
100
AcDbLine
 10
24.024775
 20
804.7552849999998
 30
0.0
 11
24.348775
 21
804.8892849999999
 31
0.0
  0
LINE
  5
8B
330
1E
100
AcDbEntity
  8
0
100
AcDbLine
 10
24.024775
 20
804.7552849999998
 30
0.0
 11
24.215975
 21
804.3242849999998
 31
0.0
  0
LINE
  5
8E
330
1E
100
AcDbEntity
  8
0
100
AcDbLine
 10
18.118175
 20
806.3812849999999
 30
0.0
 11
22.361675
 21
803.9312849999999
 31
0.0
  0
LINE
  5
8F
330
1E
100
AcDbEntity
  8
0
100
AcDbLine
 10
16.90577499999999
 20
807.0812849999999
 30
0.0
 11
18.118175
 21
806.3812849999999
 31
0.0
  0
LINE
  5
94
330
1E
100
AcDbEntity
  8
0
100
AcDbLine
 10
20.853475
 20
806.2652849999999
 30
0.0
 11
21.019575
 21
806.4902849999999
 31
0.0
  0
LINE
  5
96
330
1E
100
AcDbEntity
  8
0
100
AcDbLine
 10
20.32507499999999
 20
806.4322849999999
 30
0.0
 11
20.853475
 21
806.2652849999999
 31
0.0
  0
LINE
  5
97
330
1E
100
AcDbEntity
  8
0
100
AcDbLine
 10
20.113875
 20
807.4712849999999
 30
0.0
 11
20.705675
 21
806.9922849999999
 31
0.0
  0
LINE
  5
99
330
1E
100
AcDbEntity
  8
0
100
AcDbLine
 10
20.705675
 20
806.9922849999999
 30
0.0
 11
21.019575
 21
806.4902849999999
 31
0.0
  0
LINE
  5
9B
330
1E
100
AcDbEntity
  8
0
100
AcDbLine
 10
19.73337499999999
 20
806.9122849999999
 30
0.0
 11
20.32507499999999
 21
806.4322849999999
 31
0.0
  0
LINE
  5
9C
330
1E
100
AcDbEntity
  8
0
100
AcDbLine
 10
19.41937499999999
 20
807.4142849999999
 30
0.0
 11
19.58557499999999
 21
807.6392849999999
 31
0.0
  0
LINE
  5
9D
330
1E
100
AcDbEntity
  8
0
100
AcDbLine
 10
19.41937499999999
 20
807.4142849999999
 30
0.0
 11
19.73337499999999
 21
806.9122849999999
 31
0.0
  0
LINE
  5
9F
330
1E
100
AcDbEntity
  8
0
100
AcDbLine
 10
16.741675
 20
808.6392849999999
 30
0.0
 11
16.748175
 21
808.956285
 31
0.0
  0
LINE
  5
A1
330
1E
100
AcDbEntity
  8
0
100
AcDbLine
 10
16.346375
 20
808.729285
 30
0.0
 11
16.741675
 21
808.6392849999999
 31
0.0
  0
LINE
  5
A2
330
1E
100
AcDbEntity
  8
0
100
AcDbLine
 10
19.58557499999999
 20
807.6392849999999
 30
0.0
 11
20.113875
 21
807.4712849999999
 31
0.0
  0
LINE
  5
A4
330
1E
100
AcDbEntity
  8
0
100
AcDbLine
 10
22.21777499999999
 20
808.4642849999999
 30
0.0
 11
22.787175
 21
807.9632849999999
 31
0.0
  0
LINE
  5
A5
330
1E
100
AcDbEntity
  8
0
100
AcDbLine
 10
14.557675
 20
809.0142849999999
 30
0.0
 11
16.90577499999999
 21
807.0812849999999
 31
0.0
  0
LINE
  5
A6
330
1E
100
AcDbEntity
  8
0
100
AcDbLine
 10
15.775775
 20
809.9762849999999
 30
0.0
 11
16.342375
 21
809.5112849999999
 31
0.0
  0
LINE
  5
A8
330
1E
100
AcDbEntity
  8
0
100
AcDbLine
 10
16.342375
 20
809.5112849999999
 30
0.0
 11
16.748175
 21
808.956285
 31
0.0
  0
LINE
  5
AA
330
1E
100
AcDbEntity
  8
0
100
AcDbLine
 10
15.779775
 20
809.1942849999998
 30
0.0
 11
16.346375
 21
808.729285
 31
0.0
  0
LINE
  5
AB
330
1E
100
AcDbEntity
  8
0
100
AcDbLine
 10
15.374075
 20
809.749285
 30
0.0
 11
15.380475
 21
810.067285
 31
0.0
  0
LINE
  5
AC
330
1E
100
AcDbEntity
  8
0
100
AcDbLine
 10
15.374075
 20
809.749285
 30
0.0
 11
15.779775
 21
809.1942849999998
 31
0.0
  0
LINE
  5
AD
330
1E
100
AcDbEntity
  8
0
100
AcDbLine
 10
11.37459228357039
 20
811.93397701507
 30
0.0
 11
14.557675
 21
809.0142849999999
 31
0.0
  0
LINE
  5
AF
330
1E
100
AcDbEntity
  8
0
100
AcDbLine
 10
12.423375
 20
811.7742849999999
 30
0.0
 11
12.56757499999999
 21
811.3702849999999
 31
0.0
  0
LINE
  5
B0
330
1E
100
AcDbEntity
  8
0
100
AcDbLine
 10
12.423375
 20
811.7742849999999
 30
0.0
 11
12.662775
 21
811.7732849999999
 31
0.0
  0
LINE
  5
B2
330
1E
100
AcDbEntity
  8
0
100
AcDbLine
 10
12.56757499999999
 20
811.3702849999999
 30
0.0
 11
13.02817499999999
 21
810.7832849999999
 31
0.0
  0
LINE
  5
B3
330
1E
100
AcDbEntity
  8
0
100
AcDbLine
 10
13.02817499999999
 20
810.7832849999999
 30
0.0
 11
13.526875
 21
810.3572849999999
 31
0.0
  0
LINE
  5
B4
330
1E
100
AcDbEntity
  8
0
100
AcDbLine
 10
13.526875
 20
810.3572849999999
 30
0.0
 11
13.766275
 21
810.3572849999999
 31
0.0
  0
LINE
  5
B6
330
1E
100
AcDbEntity
  8
0
100
AcDbLine
 10
13.621975
 20
810.7612849999998
 30
0.0
 11
13.766275
 21
810.3572849999999
 31
0.0
  0
LINE
  5
B8
330
1E
100
AcDbEntity
  8
0
100
AcDbLine
 10
13.161475
 20
811.3482849999998
 30
0.0
 11
13.621975
 21
810.7612849999998
 31
0.0
  0
LINE
  5
BA
330
1E
100
AcDbEntity
  8
0
100
AcDbLine
 10
12.662775
 20
811.7732849999999
 30
0.0
 11
13.161475
 21
811.3482849999998
 31
0.0
  0
LINE
  5
BC
330
1E
100
AcDbEntity
  8
0
100
AcDbLine
 10
15.380475
 20
810.067285
 30
0.0
 11
15.775775
 21
809.9762849999999
 31
0.0
  0
LINE
  5
BE
330
1E
100
AcDbEntity
  8
0
100
AcDbLine
 10
17.739975
 20
811.0492849999999
 30
0.0
 11
17.875775
 21
811.3722849999998
 31
0.0
  0
LINE
  5
C1
330
1E
100
AcDbEntity
  8
0
100
AcDbLine
 10
17.561475
 20
811.9552849999999
 30
0.0
 11
17.875775
 21
811.3722849999998
 31
0.0
  0
LINE
  5
C3
330
1E
100
AcDbEntity
  8
0
100
AcDbLine
 10
17.253175
 20
811.1582849999999
 30
0.0
 11
17.739975
 21
811.0492849999999
 31
0.0
  0
LINE
  5
C4
330
1E
100
AcDbEntity
  8
0
100
AcDbLine
 10
16.689975
 20
811.6552849999999
 30
0.0
 11
17.253175
 21
811.1582849999999
 31
0.0
  0
LINE
  5
C5
330
1E
100
AcDbEntity
  8
0
100
AcDbLine
 10
22.004575
 20
808.989285
 30
0.0
 11
22.293175
 21
809.2232849999998
 31
0.0
  0
LINE
  5
C6
330
1E
100
AcDbEntity
  8
0
100
AcDbLine
 10
22.004575
 20
808.989285
 30
0.0
 11
22.21777499999999
 21
808.4642849999999
 31
0.0
  0
LINE
  5
C8
330
1E
100
AcDbEntity
  8
0
100
AcDbLine
 10
29.222075
 20
805.3952849999999
 30
0.0
 11
29.753775
 21
804.916285
 31
0.0
  0
LINE
  5
CA
330
1E
100
AcDbEntity
  8
0
100
AcDbLine
 10
28.193675
 20
805.014285
 30
0.0
 11
28.72537499999999
 21
804.5352849999998
 31
0.0
  0
LINE
  5
CB
330
1E
100
AcDbEntity
  8
0
100
AcDbLine
 10
28.107675
 20
805.465285
 30
0.0
 11
28.541375
 21
805.6162849999999
 31
0.0
  0
LINE
  5
CC
330
1E
100
AcDbEntity
  8
0
100
AcDbLine
 10
28.107675
 20
805.465285
 30
0.0
 11
28.193675
 21
805.014285
 31
0.0
  0
LINE
  5
CE
330
1E
100
AcDbEntity
  8
0
100
AcDbLine
 10
28.541375
 20
805.6162849999999
 30
0.0
 11
29.222075
 21
805.3952849999999
 31
0.0
  0
LINE
  5
D0
330
1E
100
AcDbEntity
  8
0
100
AcDbLine
 10
23.38897499999999
 20
807.7882849999999
 30
0.0
 11
23.677475
 21
808.0232849999999
 31
0.0
  0
LINE
  5
D1
330
1E
100
AcDbEntity
  8
0
100
AcDbLine
 10
22.89487499999999
 20
809.0482849999999
 30
0.0
 11
23.464275
 21
808.547285
 31
0.0
  0
LINE
  5
D4
330
1E
100
AcDbEntity
  8
0
100
AcDbLine
 10
23.464275
 20
808.547285
 30
0.0
 11
23.677475
 21
808.0232849999999
 31
0.0
  0
LINE
  5
D6
330
1E
100
AcDbEntity
  8
0
100
AcDbLine
 10
22.787175
 20
807.9632849999999
 30
0.0
 11
23.38897499999999
 21
807.7882849999999
 31
0.0
  0
LINE
  5
D7
330
1E
100
AcDbEntity
  8
0
100
AcDbLine
 10
22.293175
 20
809.2232849999998
 30
0.0
 11
22.89487499999999
 21
809.0482849999999
 31
0.0
  0
LINE
  5
D9
330
1E
100
AcDbEntity
  8
0
100
AcDbLine
 10
24.348775
 20
804.8892849999999
 30
0.0
 11
24.978275
 21
804.6632849999999
 31
0.0
  0
LINE
  5
DB
330
1E
100
AcDbEntity
  8
0
100
AcDbLine
 10
11.129875
 20
811.7412849999999
 30
0.0
 11
11.37459228357039
 21
811.93397701507
 31
0.0
  0
LINE
  5
DC
330
1E
100
AcDbEntity
  8
0
100
AcDbLine
 10
11.129875
 20
811.7412849999999
 30
0.0
 11
11.20117499999999
 21
811.8382849999999
 31
0.0
  0
LINE
  5
DF
330
1E
100
AcDbEntity
  8
0
100
AcDbLine
 10
10.05837499999999
 20
813.277285
 30
0.0
 11
10.451075
 21
812.9132849999999
 31
0.0
  0
LINE
  5
E1
330
1E
100
AcDbEntity
  8
0
100
AcDbLine
 10
10.2242711340886
 20
812.7673106150339
 30
0.0
 11
10.262675
 21
812.700285
 31
0.0
  0
LINE
  5
E2
330
1E
100
AcDbEntity
  8
0
100
AcDbLine
 10
10.925575
 20
812.3182849999999
 30
0.0
 11
11.20117499999999
 21
811.8382849999999
 31
0.0
  0
LINE
  5
E4
330
1E
100
AcDbEntity
  8
0
100
AcDbLine
 10
16.998275
 20
812.4522849999999
 30
0.0
 11
17.561475
 21
811.9552849999999
 31
0.0
  0
LINE
  5
E6
330
1E
100
AcDbEntity
  8
0
100
AcDbLine
 10
16.375675
 20
812.2382850000001
 30
0.0
 11
16.511575
 21
812.5612849999999
 31
0.0
  0
LINE
  5
E7
330
1E
100
AcDbEntity
  8
0
100
AcDbLine
 10
16.375675
 20
812.2382850000001
 30
0.0
 11
16.689975
 21
811.6552849999999
 31
0.0
  0
LINE
  5
E9
330
1E
100
AcDbEntity
  8
0
100
AcDbLine
 10
10.451075
 20
812.9132849999999
 30
0.0
 11
10.925575
 21
812.3182849999999
 31
0.0
  0
LINE
  5
EC
330
1E
100
AcDbEntity
  8
0
100
AcDbLine
 10
12.447775
 20
814.9082849999999
 30
0.0
 11
12.829775
 21
814.2862849999998
 31
0.0
  0
LINE
  5
EE
330
1E
100
AcDbEntity
  8
0
100
AcDbLine
 10
12.829775
 20
814.2862849999998
 30
0.0
 11
12.84417499999999
 21
813.8762849999999
 31
0.0
  0
LINE
  5
F0
330
1E
100
AcDbEntity
  8
0
100
AcDbLine
 10
12.500575
 20
813.9022849999999
 30
0.0
 11
12.84417499999999
 21
813.8762849999999
 31
0.0
  0
LINE
  5
F1
330
1E
100
AcDbEntity
  8
0
100
AcDbLine
 10
11.98697499999999
 20
814.371285
 30
0.0
 11
12.500575
 21
813.9022849999999
 31
0.0
  0
LINE
  5
F6
330
1E
100
AcDbEntity
  8
0
100
AcDbLine
 10
29.011975
 20
826.650285
 30
0.0
 11
38.36507499999999
 21
821.2502849999999
 31
0.0
  0
LINE
  5
F8
330
1E
100
AcDbEntity
  8
0
100
AcDbLine
 10
11.934175
 20
815.3762849999999
 30
0.0
 11
12.447775
 21
814.9082849999999
 31
0.0
  0
LINE
  5
FB
330
1E
100
AcDbEntity
  8
0
100
AcDbLine
 10
11.60497499999999
 20
814.993285
 30
0.0
 11
11.98697499999999
 21
814.371285
 31
0.0
  0
LINE
  5
FC
330
1E
100
AcDbEntity
  8
0
100
AcDbLine
 10
11.590575
 20
815.403285
 30
0.0
 11
11.934175
 21
815.3762849999999
 31
0.0
  0
LINE
  5
FD
330
1E
100
AcDbEntity
  8
0
100
AcDbLine
 10
11.590575
 20
815.403285
 30
0.0
 11
11.60497499999999
 21
814.993285
 31
0.0
  0
LINE
  5
FF
330
1E
100
AcDbEntity
  8
0
100
AcDbLine
 10
16.511575
 20
812.5612849999999
 30
0.0
 11
16.998275
 21
812.4522849999999
 31
0.0
  0
LINE
  5
101
330
1E
100
AcDbEntity
  8
0
100
AcDbLine
 10
10.262675
 20
812.700285
 30
0.0
 11
10.737175
 21
812.1062849999999
 31
0.0
  0
LINE
  5
103
330
1E
100
AcDbEntity
  8
0
100
AcDbLine
 10
10.737175
 20
812.1062849999999
 30
0.0
 11
11.129875
 21
811.7412849999999
 31
0.0
  0
LINE
  5
105
330
1E
100
AcDbEntity
  8
0
100
AcDbLine
 10
29.533175
 20
801.575285
 30
0.0
 11
29.579175
 21
801.2272849999998
 31
0.0
  0
LINE
  5
106
330
1E
100
AcDbEntity
  8
0
100
AcDbLine
 10
29.533175
 20
801.575285
 30
0.0
 11
30.002375
 21
801.6252849999998
 31
0.0
  0
LINE
  5
108
330
1E
100
AcDbEntity
  8
0
100
AcDbLine
 10
30.002375
 20
801.6252849999998
 30
0.0
 11
30.694075
 21
801.363285
 31
0.0
  0
LINE
  5
10A
330
1E
100
AcDbEntity
  8
0
100
AcDbLine
 10
29.579175
 20
801.2272849999998
 30
0.0
 11
30.089375
 21
800.7952849999998
 31
0.0
  0
LINE
  5
10B
330
1E
100
AcDbEntity
  8
0
100
AcDbLine
 10
30.089375
 20
800.7952849999998
 30
0.0
 11
30.781175
 21
800.533285
 31
0.0
  0
LINE
  5
10E
330
1E
100
AcDbEntity
  8
0
100
AcDbLine
 10
30.781175
 20
800.533285
 30
0.0
 11
31.25037499999999
 21
800.5832849999999
 31
0.0
  0
LINE
  5
10F
330
1E
100
AcDbEntity
  8
0
100
AcDbLine
 10
31.20437499999999
 20
800.931285
 30
0.0
 11
31.25037499999999
 21
800.5832849999999
 31
0.0
  0
LINE
  5
111
330
1E
100
AcDbEntity
  8
0
100
AcDbLine
 10
30.694075
 20
801.363285
 30
0.0
 11
31.20437499999999
 21
800.931285
 31
0.0
  0
LINE
  5
114
330
1E
100
AcDbEntity
  8
0
100
AcDbLine
 10
29.753775
 20
804.916285
 30
0.0
 11
29.83977499999999
 21
804.465285
 31
0.0
  0
LINE
  5
116
330
1E
100
AcDbEntity
  8
0
100
AcDbLine
 10
29.406075
 20
804.3142849999998
 30
0.0
 11
29.83977499999999
 21
804.465285
 31
0.0
  0
LINE
  5
117
330
1E
100
AcDbEntity
  8
0
100
AcDbLine
 10
29.348575
 20
827.0332849999999
 30
0.0
 11
38.615075
 21
821.6832849999999
 31
0.0
  0
LINE
  5
118
330
1E
100
AcDbEntity
  8
0
100
AcDbLine
 10
20.17847499999999
 20
831.750285
 30
0.0
 11
29.011975
 21
826.650285
 31
0.0
  0
LINE
  5
119
330
1E
100
AcDbEntity
  8
0
100
AcDbLine
 10
20.774975
 20
831.9832849999999
 30
0.0
 11
29.348575
 21
827.0332849999999
 31
0.0
  0
LINE
  5
11A
330
1E
100
AcDbEntity
  8
0
100
AcDbLine
 10
29.425375
 20
827.5662849999999
 30
0.0
 11
38.865075
 21
822.1162849999998
 31
0.0
  0
LINE
  5
11C
330
1E
100
AcDbEntity
  8
0
100
AcDbLine
 10
12.644075
 20
836.100285
 30
0.0
 11
20.17847499999999
 21
831.750285
 31
0.0
  0
LINE
  5
11D
330
1E
100
AcDbEntity
  8
0
100
AcDbLine
 10
13.240475
 20
836.3332849999999
 30
0.0
 11
20.774975
 21
831.9832849999999
 31
0.0
  0
LINE
  5
11E
330
1E
100
AcDbEntity
  8
0
100
AcDbLine
 10
12.884275
 20
837.1162849999999
 30
0.0
 11
20.591875
 21
832.6662849999999
 31
0.0
  0
LINE
  5
11F
330
1E
100
AcDbEntity
  8
0
100
AcDbLine
 10
20.591875
 20
832.6662849999999
 30
0.0
 11
29.425375
 21
827.5662849999999
 31
0.0
  0
LINE
  5
127
330
1E
100
AcDbEntity
  8
0
100
AcDbLine
 10
36.824375
 20
795.581285
 30
0.0
 11
39.672375
 21
794.5142849999999
 31
0.0
  0
LINE
  5
12B
330
1E
100
AcDbEntity
  8
0
100
AcDbLine
 10
34.552975
 20
798.2182849999999
 30
0.0
 11
35.263775
 21
797.945285
 31
0.0
  0
LINE
  5
12C
330
1E
100
AcDbEntity
  8
0
100
AcDbLine
 10
35.263775
 20
797.945285
 30
0.0
 11
35.855775
 21
797.9242849999999
 31
0.0
  0
LINE
  5
12E
330
1E
100
AcDbEntity
  8
0
100
AcDbLine
 10
35.855775
 20
797.9242849999999
 30
0.0
 11
35.96757499999999
 21
798.1812849999999
 31
0.0
  0
LINE
  5
133
330
1E
100
AcDbEntity
  8
0
100
AcDbLine
 10
34.847475
 20
798.8272849999999
 30
0.0
 11
35.55837499999999
 21
798.5552849999999
 31
0.0
  0
LINE
  5
135
330
1E
100
AcDbEntity
  8
0
100
AcDbLine
 10
34.25397499999999
 20
801.916285
 30
0.0
 11
34.814875
 21
801.9942849999999
 31
0.0
  0
LINE
  5
137
330
1E
100
AcDbEntity
  8
0
100
AcDbLine
 10
34.194875
 20
801.5492849999999
 30
0.0
 11
34.647575
 21
801.1162849999999
 31
0.0
  0
LINE
  5
138
330
1E
100
AcDbEntity
  8
0
100
AcDbLine
 10
34.194875
 20
801.5492849999999
 30
0.0
 11
34.25397499999999
 21
801.916285
 31
0.0
  0
LINE
  5
139
330
1E
100
AcDbEntity
  8
0
100
AcDbLine
 10
34.814875
 20
801.9942849999999
 30
0.0
 11
35.533275
 21
801.7512849999999
 31
0.0
  0
LINE
  5
13B
330
1E
100
AcDbEntity
  8
0
100
AcDbLine
 10
34.647575
 20
801.1162849999999
 30
0.0
 11
35.365975
 21
800.8732849999999
 31
0.0
  0
LINE
  5
13C
330
1E
100
AcDbEntity
  8
0
100
AcDbLine
 10
35.365975
 20
800.8732849999999
 30
0.0
 11
35.92697499999999
 21
800.950285
 31
0.0
  0
LINE
  5
13D
330
1E
100
AcDbEntity
  8
0
100
AcDbLine
 10
38.36507499999999
 20
821.2502849999999
 30
0.0
 11
47.718175
 21
815.8502849999999
 31
0.0
  0
LINE
  5
13F
330
1E
100
AcDbEntity
  8
0
100
AcDbLine
 10
35.92697499999999
 20
800.950285
 30
0.0
 11
35.98607499999999
 21
801.3182849999999
 31
0.0
  0
LINE
  5
141
330
1E
100
AcDbEntity
  8
0
100
AcDbLine
 10
35.533275
 20
801.7512849999999
 30
0.0
 11
35.98607499999999
 21
801.3182849999999
 31
0.0
  0
LINE
  5
143
330
1E
100
AcDbEntity
  8
0
100
AcDbLine
 10
34.255575
 20
798.8482849999999
 30
0.0
 11
34.847475
 21
798.8272849999999
 31
0.0
  0
LINE
  5
145
330
1E
100
AcDbEntity
  8
0
100
AcDbLine
 10
34.143675
 20
798.5922849999999
 30
0.0
 11
34.552975
 21
798.2182849999999
 31
0.0
  0
LINE
  5
146
330
1E
100
AcDbEntity
  8
0
100
AcDbLine
 10
34.143675
 20
798.5922849999999
 30
0.0
 11
34.255575
 21
798.8482849999999
 31
0.0
  0
LINE
  5
148
330
1E
100
AcDbEntity
  8
0
100
AcDbLine
 10
35.55837499999999
 20
798.5552849999999
 30
0.0
 11
35.96757499999999
 21
798.1812849999999
 31
0.0
  0
LINE
  5
14A
330
1E
100
AcDbEntity
  8
0
100
AcDbLine
 10
38.526975
 20
796.3822849999999
 30
0.0
 11
39.21077499999999
 21
796.308285
 31
0.0
  0
LINE
  5
14C
330
1E
100
AcDbEntity
  8
0
100
AcDbLine
 10
38.25547499999999
 20
796.2182849999999
 30
0.0
 11
38.53167499999999
 21
795.921285
 31
0.0
  0
LINE
  5
14D
330
1E
100
AcDbEntity
  8
0
100
AcDbLine
 10
38.25547499999999
 20
796.2182849999999
 30
0.0
 11
38.526975
 21
796.3822849999999
 31
0.0
  0
LINE
  5
14F
330
1E
100
AcDbEntity
  8
0
100
AcDbLine
 10
38.53167499999999
 20
795.921285
 30
0.0
 11
39.21737499999999
 21
795.662285
 31
0.0
  0
LINE
  5
150
330
1E
100
AcDbEntity
  8
0
100
AcDbLine
 10
38.615075
 20
821.6832849999999
 30
0.0
 11
47.88157499999999
 21
816.3332849999999
 31
0.0
  0
LINE
  5
151
330
1E
100
AcDbEntity
  8
0
100
AcDbLine
 10
41.35117499999999
 20
794.293285
 30
0.0
 11
41.968975
 21
794.0742849999999
 31
0.0
  0
LINE
  5
153
330
1E
100
AcDbEntity
  8
0
100
AcDbLine
 10
39.672375
 20
794.5142849999999
 30
0.0
 11
43.79262862295849
 21
793.217452694402
 31
0.0
  0
LINE
  5
154
330
1E
100
AcDbEntity
  8
0
100
AcDbLine
 10
39.843775
 20
798.288285
 30
0.0
 11
40.181575
 21
797.9202849999999
 31
0.0
  0
LINE
  5
155
330
1E
100
AcDbEntity
  8
0
100
AcDbLine
 10
39.843775
 20
798.288285
 30
0.0
 11
40.055675
 21
798.567285
 31
0.0
  0
LINE
  5
157
330
1E
100
AcDbEntity
  8
0
100
AcDbLine
 10
39.21077499999999
 20
796.308285
 30
0.0
 11
39.896475
 21
796.0502849999999
 31
0.0
  0
LINE
  5
159
330
1E
100
AcDbEntity
  8
0
100
AcDbLine
 10
39.21737499999999
 20
795.662285
 30
0.0
 11
39.901175
 21
795.589285
 31
0.0
  0
LINE
  5
15A
330
1E
100
AcDbEntity
  8
0
100
AcDbLine
 10
40.055675
 20
798.567285
 30
0.0
 11
40.71767499999999
 21
798.586285
 31
0.0
  0
LINE
  5
15C
330
1E
100
AcDbEntity
  8
0
100
AcDbLine
 10
40.181575
 20
797.9202849999999
 30
0.0
 11
40.893775
 21
797.6812849999999
 31
0.0
  0
LINE
  5
15D
330
1E
100
AcDbEntity
  8
0
100
AcDbLine
 10
40.893775
 20
797.6812849999999
 30
0.0
 11
41.55577499999999
 21
797.701285
 31
0.0
  0
LINE
  5
15E
330
1E
100
AcDbEntity
  8
0
100
AcDbLine
 10
41.55577499999999
 20
797.701285
 30
0.0
 11
41.76757499999999
 21
797.9802849999999
 31
0.0
  0
LINE
  5
160
330
1E
100
AcDbEntity
  8
0
100
AcDbLine
 10
40.71767499999999
 20
798.586285
 30
0.0
 11
41.429875
 21
798.3472849999999
 31
0.0
  0
LINE
  5
162
330
1E
100
AcDbEntity
  8
0
100
AcDbLine
 10
41.429875
 20
798.3472849999999
 30
0.0
 11
41.76757499999999
 21
797.9802849999999
 31
0.0
  0
LINE
  5
165
330
1E
100
AcDbEntity
  8
0
100
AcDbLine
 10
39.901175
 20
795.589285
 30
0.0
 11
40.17267499999999
 21
795.753285
 31
0.0
  0
LINE
  5
166
330
1E
100
AcDbEntity
  8
0
100
AcDbLine
 10
39.896475
 20
796.0502849999999
 30
0.0
 11
40.17267499999999
 21
795.753285
 31
0.0
  0
LINE
  5
168
330
1E
100
AcDbEntity
  8
0
100
AcDbLine
 10
41.23087499999999
 20
794.5002849999999
 30
0.0
 11
41.65317499999999
 21
794.5772849999999
 31
0.0
  0
LINE
  5
169
330
1E
100
AcDbEntity
  8
0
100
AcDbLine
 10
41.23087499999999
 20
794.5002849999999
 30
0.0
 11
41.35117499999999
 21
794.293285
 31
0.0
  0
LINE
  5
16B
330
1E
100
AcDbEntity
  8
0
100
AcDbLine
 10
38.865075
 20
822.1162849999998
 30
0.0
 11
48.304775
 21
816.6662849999999
 31
0.0
  0
LINE
  5
16D
330
1E
100
AcDbEntity
  8
0
100
AcDbLine
 10
46.13327499999999
 20
791.9912849999999
 30
0.0
 11
46.789975
 21
791.932285
 31
0.0
  0
LINE
  5
16F
330
1E
100
AcDbEntity
  8
0
100
AcDbLine
 10
45.40877499999999
 20
792.0882849999999
 30
0.0
 11
46.13327499999999
 21
791.9912849999999
 31
0.0
  0
LINE
  5
171
330
1E
100
AcDbEntity
  8
0
100
AcDbLine
 10
43.748175
 20
792.9092849999999
 30
0.0
 11
43.796075
 21
793.019285
 31
0.0
  0
LINE
  5
172
330
1E
100
AcDbEntity
  8
0
100
AcDbLine
 10
43.748175
 20
792.9092849999999
 30
0.0
 11
44.259975
 21
792.7512849999999
 31
0.0
  0
LINE
  5
174
330
1E
100
AcDbEntity
  8
0
100
AcDbLine
 10
43.748175
 20
792.9092849999999
 30
0.0
 11
43.79262862295849
 21
793.217452694402
 31
0.0
  0
LINE
  5
175
330
1E
100
AcDbEntity
  8
0
100
AcDbLine
 10
45.012475
 20
792.638285
 30
0.0
 11
45.566075
 21
792.639285
 31
0.0
  0
LINE
  5
177
330
1E
100
AcDbEntity
  8
0
100
AcDbLine
 10
45.012475
 20
792.638285
 30
0.0
 11
45.0896985464164
 21
792.6384244933999
 31
0.0
  0
LINE
  5
178
330
1E
100
AcDbEntity
  8
0
100
AcDbLine
 10
44.259975
 20
792.7512849999999
 30
0.0
 11
45.012475
 21
792.638285
 31
0.0
  0
LINE
  5
17A
330
1E
100
AcDbEntity
  8
0
100
AcDbLine
 10
43.796075
 20
793.019285
 30
0.0
 11
44.34967499999999
 21
793.0202849999999
 31
0.0
  0
LINE
  5
17C
330
1E
100
AcDbEntity
  8
0
100
AcDbLine
 10
41.968975
 20
794.0742849999999
 30
0.0
 11
42.707575
 21
793.9682849999999
 31
0.0
  0
LINE
  5
17E
330
1E
100
AcDbEntity
  8
0
100
AcDbLine
 10
41.65317499999999
 20
794.5772849999999
 30
0.0
 11
42.39167499999999
 21
794.4722849999999
 31
0.0
  0
LINE
  5
180
330
1E
100
AcDbEntity
  8
0
100
AcDbLine
 10
44.739575
 20
795.461285
 30
0.0
 11
44.934275
 21
795.177285
 31
0.0
  0
LINE
  5
181
330
1E
100
AcDbEntity
  8
0
100
AcDbLine
 10
44.739575
 20
795.461285
 30
0.0
 11
45.101775
 21
795.653285
 31
0.0
  0
LINE
  5
183
330
1E
100
AcDbEntity
  8
0
100
AcDbLine
 10
45.101775
 20
795.653285
 30
0.0
 11
45.831375
 21
795.6342849999999
 31
0.0
  0
LINE
  5
185
330
1E
100
AcDbEntity
  8
0
100
AcDbLine
 10
44.934275
 20
795.177285
 30
0.0
 11
45.59687499999999
 21
794.966285
 31
0.0
  0
LINE
  5
187
330
1E
100
AcDbEntity
  8
0
100
AcDbLine
 10
43.009475
 20
794.253285
 30
0.0
 11
43.129875
 21
794.046285
 31
0.0
  0
LINE
  5
189
330
1E
100
AcDbEntity
  8
0
100
AcDbLine
 10
42.707575
 20
793.9682849999999
 30
0.0
 11
43.129875
 21
794.046285
 31
0.0
  0
LINE
  5
18A
330
1E
100
AcDbEntity
  8
0
100
AcDbLine
 10
42.39167499999999
 20
794.4722849999999
 30
0.0
 11
43.009475
 21
794.253285
 31
0.0
  0
LINE
  5
18C
330
1E
100
AcDbEntity
  8
0
100
AcDbLine
 10
44.34967499999999
 20
793.0202849999999
 30
0.0
 11
45.10207499999999
 21
792.9072849999999
 31
0.0
  0
LINE
  5
18E
330
1E
100
AcDbEntity
  8
0
100
AcDbLine
 10
45.10207499999999
 20
792.9072849999999
 30
0.0
 11
45.613875
 21
792.749285
 31
0.0
  0
LINE
  5
190
330
1E
100
AcDbEntity
  8
0
100
AcDbLine
 10
45.033675
 20
792.167285
 30
0.0
 11
45.25057499999999
 21
792.1792849999999
 31
0.0
  0
LINE
  5
191
330
1E
100
AcDbEntity
  8
0
100
AcDbLine
 10
45.033675
 20
792.167285
 30
0.0
 11
45.40877499999999
 21
792.0882849999999
 31
0.0
  0
LINE
  5
192
330
1E
100
AcDbEntity
  8
0
100
AcDbLine
 10
45.033675
 20
792.167285
 30
0.0
 11
45.0896985464164
 21
792.6384244933999
 31
0.0
  0
LINE
  5
193
330
1E
100
AcDbEntity
  8
0
100
AcDbLine
 10
45.59687499999999
 20
794.966285
 30
0.0
 11
46.326475
 21
794.9462849999999
 31
0.0
  0
LINE
  5
194
330
1E
100
AcDbEntity
  8
0
100
AcDbLine
 10
46.326475
 20
794.9462849999999
 30
0.0
 11
46.688675
 21
795.1392849999999
 31
0.0
  0
LINE
  5
195
330
1E
100
AcDbEntity
  8
0
100
AcDbLine
 10
45.831375
 20
795.6342849999999
 30
0.0
 11
46.493975
 21
795.4232849999999
 31
0.0
  0
LINE
  5
197
330
1E
100
AcDbEntity
  8
0
100
AcDbLine
 10
46.493975
 20
795.4232849999999
 30
0.0
 11
46.688675
 21
795.1392849999999
 31
0.0
  0
LINE
  5
19A
330
1E
100
AcDbEntity
  8
0
100
AcDbLine
 10
45.566075
 20
792.639285
 30
0.0
 11
45.613875
 21
792.749285
 31
0.0
  0
LINE
  5
19B
330
1E
100
AcDbEntity
  8
0
100
AcDbLine
 10
45.566075
 20
792.639285
 30
0.0
 11
45.58232718845039
 21
792.7519906442149
 31
0.0
  0
LINE
  5
19C
330
1E
100
AcDbEntity
  8
0
100
AcDbLine
 10
45.25057499999999
 20
792.1792849999999
 30
0.0
 11
45.90727499999999
 21
792.1212849999999
 31
0.0
  0
LINE
  5
19E
330
1E
100
AcDbEntity
  8
0
100
AcDbLine
 10
45.90727499999999
 20
792.1212849999999
 30
0.0
 11
46.631675
 21
792.024285
 31
0.0
  0
LINE
  5
1A1
330
1E
100
AcDbEntity
  8
0
100
AcDbLine
 10
47.0746294630552
 20
792.5153193667309
 30
0.0
 11
48.716675
 21
792.1792849999999
 31
0.0
  0
LINE
  5
1A2
330
1E
100
AcDbEntity
  8
0
100
AcDbLine
 10
47.718175
 20
815.8502849999999
 30
0.0
 11
56.551575
 21
810.7502849999999
 31
0.0
  0
LINE
  5
1A4
330
1E
100
AcDbEntity
  8
0
100
AcDbLine
 10
46.789975
 20
791.932285
 30
0.0
 11
47.00687499999999
 21
791.9452849999999
 31
0.0
  0
LINE
  5
1A6
330
1E
100
AcDbEntity
  8
0
100
AcDbLine
 10
46.631675
 20
792.024285
 30
0.0
 11
47.00687499999999
 21
791.9452849999999
 31
0.0
  0
LINE
  5
1A8
330
1E
100
AcDbEntity
  8
0
100
AcDbLine
 10
47.88157499999999
 20
816.3332849999999
 30
0.0
 11
56.455175
 21
811.3832849999999
 31
0.0
  0
LINE
  5
1A9
330
1E
100
AcDbEntity
  8
0
100
AcDbLine
 10
48.716675
 20
792.1792849999999
 30
0.0
 11
50.8854467383242
 21
792.0490832953098
 31
0.0
  0
LINE
  5
1AA
330
1E
100
AcDbEntity
  8
0
100
AcDbLine
 10
49.162675
 20
792.9072849999999
 30
0.0
 11
49.922075
 21
792.8702849999999
 31
0.0
  0
LINE
  5
1AB
330
1E
100
AcDbEntity
  8
0
100
AcDbLine
 10
48.589775
 20
793.066285
 30
0.0
 11
49.162675
 21
792.9072849999999
 31
0.0
  0
LINE
  5
1AC
330
1E
100
AcDbEntity
  8
0
100
AcDbLine
 10
48.55647499999999
 20
793.2572849999999
 30
0.0
 11
49.056075
 21
793.3702849999999
 31
0.0
  0
LINE
  5
1AD
330
1E
100
AcDbEntity
  8
0
100
AcDbLine
 10
48.55647499999999
 20
793.2572849999999
 30
0.0
 11
48.589775
 21
793.066285
 31
0.0
  0
LINE
  5
1B0
330
1E
100
AcDbEntity
  8
0
100
AcDbLine
 10
49.056075
 20
793.3702849999999
 30
0.0
 11
49.815475
 21
793.3332849999999
 31
0.0
  0
LINE
  5
1B3
330
1E
100
AcDbEntity
  8
0
100
AcDbLine
 10
50.388375
 20
793.1752849999999
 30
0.0
 11
50.421675
 21
792.9832849999999
 31
0.0
  0
LINE
  5
1B5
330
1E
100
AcDbEntity
  8
0
100
AcDbLine
 10
49.922075
 20
792.8702849999999
 30
0.0
 11
50.421675
 21
792.9832849999999
 31
0.0
  0
LINE
  5
1B6
330
1E
100
AcDbEntity
  8
0
100
AcDbLine
 10
49.815475
 20
793.3332849999999
 30
0.0
 11
50.388375
 21
793.1752849999999
 31
0.0
  0
LINE
  5
1B8
330
1E
100
AcDbEntity
  8
0
100
AcDbLine
 10
50.879775
 20
791.744285
 30
0.0
 11
51.328975
 21
791.657285
 31
0.0
  0
LINE
  5
1B9
330
1E
100
AcDbEntity
  8
0
100
AcDbLine
 10
50.879775
 20
791.744285
 30
0.0
 11
50.8854467383242
 21
792.0490832953098
 31
0.0
  0
LINE
  5
1BA
330
1E
100
AcDbEntity
  8
0
100
AcDbLine
 10
50.879775
 20
791.744285
 30
0.0
 11
51.015275
 21
791.8382849999999
 31
0.0
  0
LINE
  5
1BC
330
1E
100
AcDbEntity
  8
0
100
AcDbLine
 10
48.304775
 20
816.6662849999999
 30
0.0
 11
57.138175
 21
811.5662849999999
 31
0.0
  0
LINE
  5
1BE
330
1E
100
AcDbEntity
  8
0
100
AcDbLine
 10
51.015275
 20
791.8382849999999
 30
0.0
 11
51.63007499999999
 21
791.8842849999999
 31
0.0
  0
LINE
  5
1C0
330
1E
100
AcDbEntity
  8
0
100
AcDbLine
 10
51.63007499999999
 20
791.8842849999999
 30
0.0
 11
52.37937500000001
 21
791.8532849999999
 31
0.0
  0
LINE
  5
1C2
330
1E
100
AcDbEntity
  8
0
100
AcDbLine
 10
51.328975
 20
791.657285
 30
0.0
 11
51.66080054975729
 21
791.643113883502
 31
0.0
  0
LINE
  5
1C3
330
1E
100
AcDbEntity
  8
0
100
AcDbLine
 10
51.328975
 20
791.657285
 30
0.0
 11
52.078275
 21
791.625285
 31
0.0
  0
LINE
  5
1C5
330
1E
100
AcDbEntity
  8
0
100
AcDbLine
 10
52.078275
 20
791.625285
 30
0.0
 11
52.69317499999999
 21
791.672285
 31
0.0
  0
LINE
  5
1C8
330
1E
100
AcDbEntity
  8
0
100
AcDbLine
 10
52.69317499999999
 20
791.672285
 30
0.0
 11
52.82847499999999
 21
791.7662849999999
 31
0.0
  0
LINE
  5
1CA
330
1E
100
AcDbEntity
  8
0
100
AcDbLine
 10
52.37937500000001
 20
791.8532849999999
 30
0.0
 11
52.82847499999999
 21
791.7662849999999
 31
0.0
  0
LINE
  5
1CC
330
1E
100
AcDbEntity
  8
0
100
AcDbLine
 10
51.95947499999999
 20
791.2932849999999
 30
0.0
 11
52.659475
 21
791.2902849999999
 31
0.0
  0
LINE
  5
1CE
330
1E
100
AcDbEntity
  8
0
100
AcDbLine
 10
51.659475
 20
791.2942849999999
 30
0.0
 11
51.95947499999999
 21
791.2932849999999
 31
0.0
  0
LINE
  5
1CF
330
1E
100
AcDbEntity
  8
0
100
AcDbLine
 10
51.659475
 20
791.2942849999999
 30
0.0
 11
51.66080054975729
 21
791.643113883502
 31
0.0
  0
LINE
  5
1D0
330
1E
100
AcDbEntity
  8
0
100
AcDbLine
 10
52.659475
 20
791.2902849999999
 30
0.0
 11
53.359475
 21
791.287285
 31
0.0
  0
LINE
  5
1D3
330
1E
100
AcDbEntity
  8
0
100
AcDbLine
 10
53.6617402718139
 20
791.8824091615641
 30
0.0
 11
54.296775
 21
791.8442849999999
 31
0.0
  0
LINE
  5
1D4
330
1E
100
AcDbEntity
  8
0
100
AcDbLine
 10
54.296775
 20
791.8442849999999
 30
0.0
 11
60.80987499999999
 21
792.125285
 31
0.0
  0
LINE
  5
1D5
330
1E
100
AcDbEntity
  8
0
100
AcDbLine
 10
56.551575
 20
810.7502849999999
 30
0.0
 11
64.085975
 21
806.4002849999999
 31
0.0
  0
LINE
  5
1D6
330
1E
100
AcDbEntity
  8
0
100
AcDbLine
 10
53.659475
 20
791.2862849999998
 30
0.0
 11
53.66187808696739
 21
791.9186763072231
 31
0.0
  0
LINE
  5
1D7
330
1E
100
AcDbEntity
  8
0
100
AcDbLine
 10
53.359475
 20
791.287285
 30
0.0
 11
53.659475
 21
791.2862849999998
 31
0.0
  0
LINE
  5
1D9
330
1E
100
AcDbEntity
  8
0
100
AcDbLine
 10
56.455175
 20
811.3832849999999
 30
0.0
 11
63.989575
 21
807.0332849999999
 31
0.0
  0
LINE
  5
1DA
330
1E
100
AcDbEntity
  8
0
100
AcDbLine
 10
57.138175
 20
811.5662849999999
 30
0.0
 11
64.845775
 21
807.116285
 31
0.0
  0
LINE
  5
1DC
330
1E
100
AcDbEntity
  8
0
100
AcDbLine
 10
117.316975
 20
762.6068849999999
 30
0.0
 11
123.3759749999999
 21
750.8009849999999
 31
0.0
  0
LINE
  5
1DD
330
1E
100
AcDbEntity
  8
0
100
AcDbLine
 10
128.6399749999999
 20
741.7082849999999
 30
0.0
 11
136.167975
 21
730.2937849999999
 31
0.0
  0
LINE
  5
1DE
330
1E
100
AcDbEntity
  8
0
100
AcDbLine
 10
123.3759749999999
 20
750.8009849999999
 30
0.0
 11
128.6399749999999
 21
741.7082849999999
 31
0.0
  0
LINE
  5
1DF
330
1E
100
AcDbEntity
  8
0
100
AcDbLine
 10
136.167975
 20
730.2937849999999
 30
0.0
 11
145.137975
 21
718.9836849999998
 31
0.0
  0
LINE
  5
1E0
330
1E
100
AcDbEntity
  8
0
100
AcDbLine
 10
145.137975
 20
718.9836849999998
 30
0.0
 11
155.1729749999999
 21
707.382985
 31
0.0
  0
LINE
  5
1E1
330
1E
100
AcDbEntity
  8
0
100
AcDbLine
 10
113.497975
 20
769.7455849999999
 30
0.0
 11
117.316975
 21
762.6068849999999
 31
0.0
  0
LINE
  5
1E2
330
1E
100
AcDbEntity
  8
0
100
AcDbLine
 10
146.7659749999999
 20
766.572085
 30
0.0
 11
153.231975
 21
758.526785
 31
0.0
  0
LINE
  5
1E4
330
1E
100
AcDbEntity
  8
0
100
AcDbLine
 10
155.1729749999999
 20
707.382985
 30
0.0
 11
165.3179749999999
 21
696.8263849999999
 31
0.0
  0
LINE
  5
1E7
330
1E
100
AcDbEntity
  8
0
100
AcDbLine
 10
153.231975
 20
758.526785
 30
0.0
 11
161.4839749999999
 21
748.1566849999999
 31
0.0
  0
LINE
  5
1E8
330
1E
100
AcDbEntity
  8
0
100
AcDbLine
 10
80.51507499999999
 20
786.888285
 30
0.0
 11
82.146775
 21
787.325285
 31
0.0
  0
LINE
  5
1E9
330
1E
100
AcDbEntity
  8
0
100
AcDbLine
 10
83.40227500000001
 20
788.0772849999999
 30
0.0
 11
84.27777500000001
 21
789.082285
 31
0.0
  0
LINE
  5
1EA
330
1E
100
AcDbEntity
  8
0
100
AcDbLine
 10
82.146775
 20
787.325285
 30
0.0
 11
83.40227500000001
 21
788.0772849999999
 31
0.0
  0
LINE
  5
1EB
330
1E
100
AcDbEntity
  8
0
100
AcDbLine
 10
78.479775
 20
786.947285
 30
0.0
 11
80.51507499999999
 21
786.888285
 31
0.0
  0
LINE
  5
1EC
330
1E
100
AcDbEntity
  8
0
100
AcDbLine
 10
76.005875
 20
787.5552849999999
 30
0.0
 11
78.479775
 21
786.947285
 31
0.0
  0
LINE
  5
1ED
330
1E
100
AcDbEntity
  8
0
100
AcDbLine
 10
84.27777500000001
 20
789.082285
 30
0.0
 11
85.070875
 21
790.6262849999999
 31
0.0
  0
LINE
  5
1EE
330
1E
100
AcDbEntity
  8
0
100
AcDbLine
 10
85.070875
 20
790.6262849999999
 30
0.0
 11
85.309775
 21
792.0642849999999
 31
0.0
  0
LINE
  5
1EF
330
1E
100
AcDbEntity
  8
0
100
AcDbLine
 10
73.08657499999999
 20
788.8142849999999
 30
0.0
 11
76.005875
 21
787.5552849999999
 31
0.0
  0
LINE
  5
1F0
330
1E
100
AcDbEntity
  8
0
100
AcDbLine
 10
70.686475
 20
790.2322849999999
 30
0.0
 11
73.08657499999999
 21
788.8142849999999
 31
0.0
  0
LINE
  5
1F1
330
1E
100
AcDbEntity
  8
0
100
AcDbLine
 10
100.954975
 20
785.6312849999999
 30
0.0
 11
107.106975
 21
778.956285
 31
0.0
  0
LINE
  5
1F2
330
1E
100
AcDbEntity
  8
0
100
AcDbLine
 10
107.106975
 20
778.956285
 30
0.0
 11
113.497975
 21
769.7455849999999
 31
0.0
  0
LINE
  5
1F3
330
1E
100
AcDbEntity
  8
0
100
AcDbLine
 10
60.80987499999999
 20
792.125285
 30
0.0
 11
64.361575
 21
793.0772849999999
 31
0.0
  0
LINE
  5
1F4
330
1E
100
AcDbEntity
  8
0
100
AcDbLine
 10
64.361575
 20
793.0772849999999
 30
0.0
 11
64.474975
 21
793.4732849999999
 31
0.0
  0
LINE
  5
1F5
330
1E
100
AcDbEntity
  8
0
100
AcDbLine
 10
64.90797499999999
 20
793.2232849999999
 30
0.0
 11
65.88177403313579
 21
793.4842004071209
 31
0.0
  0
LINE
  5
1F6
330
1E
100
AcDbEntity
  8
0
100
AcDbLine
 10
63.14917499999999
 20
793.7772849999999
 30
0.0
 11
64.361575
 21
793.0772849999999
 31
0.0
  0
LINE
  5
1F8
330
1E
100
AcDbEntity
  8
0
100
AcDbLine
 10
63.782175
 20
793.873285
 30
0.0
 11
64.90797499999999
 21
793.2232849999999
 31
0.0
  0
LINE
  5
1F9
330
1E
100
AcDbEntity
  8
0
100
AcDbLine
 10
63.7821749979297
 20
793.8732850011951
 30
0.0
 11
64.474975
 21
793.4732849999999
 31
0.0
  0
LINE
  5
1FA
330
1E
100
AcDbEntity
  8
0
100
AcDbLine
 10
64.474975
 20
793.4732849999999
 30
0.0
 11
64.90797499999999
 21
793.2232849999999
 31
0.0
  0
LINE
  5
1FB
330
1E
100
AcDbEntity
  8
0
100
AcDbLine
 10
85.008475
 20
793.4192849999999
 30
0.0
 11
85.309775
 21
792.0642849999999
 31
0.0
  0
LINE
  5
1FC
330
1E
100
AcDbEntity
  8
0
100
AcDbLine
 10
84.122575
 20
795.0142849999999
 30
0.0
 11
85.008475
 21
793.4192849999999
 31
0.0
  0
LINE
  5
1FD
330
1E
100
AcDbEntity
  8
0
100
AcDbLine
 10
82.73547499999999
 20
796.537285
 30
0.0
 11
84.122575
 21
795.0142849999999
 31
0.0
  0
LINE
  5
1FE
330
1E
100
AcDbEntity
  8
0
100
AcDbLine
 10
81.11427500000001
 20
797.7692849999999
 30
0.0
 11
82.73547499999999
 21
796.537285
 31
0.0
  0
LINE
  5
1FF
330
1E
100
AcDbEntity
  8
0
100
AcDbLine
 10
79.076175
 20
798.8472849999999
 30
0.0
 11
81.11427500000001
 21
797.7692849999999
 31
0.0
  0
LINE
  5
200
330
1E
100
AcDbEntity
  8
0
100
AcDbLine
 10
76.631575
 20
799.7332849999999
 30
0.0
 11
79.076175
 21
798.8472849999999
 31
0.0
  0
LINE
  5
201
330
1E
100
AcDbEntity
  8
0
100
AcDbLine
 10
67.883775
 20
792.3762849999999
 30
0.0
 11
70.686475
 21
790.2322849999999
 31
0.0
  0
LINE
  5
202
330
1E
100
AcDbEntity
  8
0
100
AcDbLine
 10
65.88177403313584
 20
793.4842004071209
 30
0.0
 11
67.883775
 21
792.3762849999999
 31
0.0
  0
LINE
  5
203
330
1E
100
AcDbEntity
  8
0
100
AcDbLine
 10
74.73807499999999
 20
800.2502849999999
 30
0.0
 11
76.631575
 21
799.7332849999999
 31
0.0
  0
LINE
  5
204
330
1E
100
AcDbEntity
  8
0
100
AcDbLine
 10
74.73807499999999
 20
800.2502849999999
 30
0.0
 11
76.631575
 21
799.7332849999999
 31
0.0
  0
LINE
  5
205
330
1E
100
AcDbEntity
  8
0
100
AcDbLine
 10
76.77717499999999
 20
800.4012849999998
 30
0.0
 11
85.369775
 21
796.200285
 31
0.0
  0
LINE
  5
206
330
1E
100
AcDbEntity
  8
0
100
AcDbLine
 10
85.369775
 20
796.200285
 30
0.0
 11
92.377975
 21
791.897285
 31
0.0
  0
LINE
  5
207
330
1E
100
AcDbEntity
  8
0
100
AcDbLine
 10
92.377975
 20
791.897285
 30
0.0
 11
100.954975
 21
785.6312849999999
 31
0.0
  0
LINE
  5
208
330
1E
100
AcDbEntity
  8
0
100
AcDbLine
 10
132.202975
 20
783.996285
 30
0.0
 11
138.5859749999999
 21
776.8582849999999
 31
0.0
  0
LINE
  5
209
330
1E
100
AcDbEntity
  8
0
100
AcDbLine
 10
121.264975
 20
795.863285
 30
0.0
 11
132.202975
 21
783.996285
 31
0.0
  0
LINE
  5
20A
330
1E
100
AcDbEntity
  8
0
100
AcDbLine
 10
138.5859749999999
 20
776.8582849999999
 30
0.0
 11
146.7659749999999
 21
766.572085
 31
0.0
  0
LINE
  5
20B
330
1E
100
AcDbEntity
  8
0
100
AcDbLine
 10
165.3179749999999
 20
696.8263849999999
 30
0.0
 11
166.3211940789549
 21
696.681429516002
 31
0.0
  0
LINE
  5
20C
330
1E
100
AcDbEntity
  8
0
100
AcDbLine
 10
165.3179749999999
 20
696.8263849999999
 30
0.0
 11
165.694975
 21
697.1031849999999
 31
0.0
  0
LINE
  5
20D
330
1E
100
AcDbEntity
  8
0
100
AcDbLine
 10
161.4839749999999
 20
748.1566849999999
 30
0.0
 11
169.5029749999999
 21
736.545885
 31
0.0
  0
LINE
  5
20E
330
1E
100
AcDbEntity
  8
0
100
AcDbLine
 10
64.085975
 20
806.4002849999999
 30
0.0
 11
69.801775
 21
803.100285
 31
0.0
  0
LINE
  5
20F
330
1E
100
AcDbEntity
  8
0
100
AcDbLine
 10
63.989575
 20
807.0332849999999
 30
0.0
 11
69.705375
 21
803.7332849999998
 31
0.0
  0
LINE
  5
210
330
1E
100
AcDbEntity
  8
0
100
AcDbLine
 10
64.845775
 20
807.116285
 30
0.0
 11
70.734775
 21
803.7162849999999
 31
0.0
  0
LINE
  5
211
330
1E
100
AcDbEntity
  8
0
100
AcDbLine
 10
69.801775
 20
803.100285
 30
0.0
 11
73.439075
 21
801.0002849999999
 31
0.0
  0
LINE
  5
212
330
1E
100
AcDbEntity
  8
0
100
AcDbLine
 10
73.439075
 20
801.0002849999999
 30
0.0
 11
74.73807499999999
 21
800.2502849999999
 31
0.0
  0
LINE
  5
213
330
1E
100
AcDbEntity
  8
0
100
AcDbLine
 10
73.256075
 20
801.683285
 30
0.0
 11
74.555075
 21
800.9332849999999
 31
0.0
  0
LINE
  5
214
330
1E
100
AcDbEntity
  8
0
100
AcDbLine
 10
69.705375
 20
803.7332849999998
 30
0.0
 11
73.256075
 21
801.683285
 31
0.0
  0
LINE
  5
215
330
1E
100
AcDbEntity
  8
0
100
AcDbLine
 10
70.734775
 20
803.7162849999999
 30
0.0
 11
74.37207499999999
 21
801.6162849999998
 31
0.0
  0
LINE
  5
216
330
1E
100
AcDbEntity
  8
0
100
AcDbLine
 10
74.37207499999999
 20
801.6162849999998
 30
0.0
 11
75.67117500000001
 21
800.866285
 31
0.0
  0
LINE
  5
21A
330
1E
100
AcDbEntity
  8
0
100
AcDbLine
 10
75.69912136093229
 20
800.984502598081
 30
0.0
 11
76.77717499999999
 21
800.4012849999998
 31
0.0
  0
LINE
  5
21B
330
1E
100
AcDbEntity
  8
0
100
AcDbLine
 10
106.1589749999999
 20
810.4032849999999
 30
0.0
 11
115.0449749999999
 21
801.9802849999999
 31
0.0
  0
LINE
  5
21C
330
1E
100
AcDbEntity
  8
0
100
AcDbLine
 10
115.0449749999999
 20
801.9802849999999
 30
0.0
 11
121.264975
 21
795.863285
 31
0.0
  0
LINE
  5
21D
330
1E
100
AcDbEntity
  8
0
100
AcDbLine
 10
74.555075
 20
800.9332849999999
 30
0.0
 11
75.67117500000001
 21
800.866285
 31
0.0
  0
LINE
  5
21E
330
1E
100
AcDbEntity
  8
0
100
AcDbLine
 10
74.555075
 20
800.9332849999999
 30
0.0
 11
74.73807499999999
 21
800.2502849999999
 31
0.0
  0
LINE
  5
21F
330
1E
100
AcDbEntity
  8
0
100
AcDbLine
 10
75.67117500000001
 20
800.866285
 30
0.0
 11
75.729836173669
 21
800.9678861527948
 31
0.0
  0
LINE
  5
221
330
1E
100
AcDbEntity
  8
0
100
AcDbLine
 10
99.042975
 20
816.961285
 30
0.0
 11
106.1589749999999
 21
810.4032849999999
 31
0.0
  0
LINE
  5
224
330
1E
100
AcDbEntity
  8
0
100
AcDbLine
 10
90.52397499999999
 20
823.749285
 30
0.0
 11
99.042975
 21
816.961285
 31
0.0
  0
LINE
  5
227
330
1E
100
AcDbEntity
  8
0
100
AcDbLine
 10
72.247975
 20
837.292285
 30
0.0
 11
83.70337499999999
 21
829.1332849999999
 31
0.0
  0
LINE
  5
228
330
1E
100
AcDbEntity
  8
0
100
AcDbLine
 10
83.70337499999999
 20
829.1332849999999
 30
0.0
 11
90.52397499999999
 21
823.749285
 31
0.0
  0
LINE
  5
22B
330
1E
100
AcDbEntity
  8
0
100
AcDbLine
 10
59.99887499999999
 20
845.1152849999999
 30
0.0
 11
72.247975
 21
837.292285
 31
0.0
  0
LINE
  5
231
330
1E
100
AcDbEntity
  8
0
100
AcDbLine
 10
4.55897499999998
 20
847.6962849999999
 30
0.0
 11
5.24197499999998
 21
847.8792849999999
 31
0.0
  0
LINE
  5
233
330
1E
100
AcDbEntity
  8
0
100
AcDbLine
 10
10.080075
 20
851.677285
 30
0.0
 11
17.961275
 21
855.145285
 31
0.0
  0
LINE
  5
234
330
1E
100
AcDbEntity
  8
0
100
AcDbLine
 10
17.961275
 20
855.145285
 30
0.0
 11
26.91137499999999
 21
856.393285
 31
0.0
  0
LINE
  5
235
330
1E
100
AcDbEntity
  8
0
100
AcDbLine
 10
26.91137499999999
 20
856.393285
 30
0.0
 11
36.048875
 21
855.929285
 31
0.0
  0
LINE
  5
236
330
1E
100
AcDbEntity
  8
0
100
AcDbLine
 10
36.048875
 20
855.929285
 30
0.0
 11
45.200175
 21
853.452285
 31
0.0
  0
LINE
  5
237
330
1E
100
AcDbEntity
  8
0
100
AcDbLine
 10
45.200175
 20
853.452285
 30
0.0
 11
54.365075
 21
848.9622849999999
 31
0.0
  0
LINE
  5
238
330
1E
100
AcDbEntity
  8
0
100
AcDbLine
 10
54.365075
 20
848.9622849999999
 30
0.0
 11
62.835575
 21
843.270285
 31
0.0
  0
LINE
  5
239
330
1E
100
AcDbEntity
  8
0
100
AcDbLine
 10
5.05897499999998
 20
848.562285
 30
0.0
 11
5.24197499999998
 21
847.8792849999999
 31
0.0
  0
LINE
  5
23B
330
1E
100
AcDbEntity
  8
0
100
AcDbLine
 10
5.05897499999998
 20
848.562285
 30
0.0
 11
10.080075
 21
851.677285
 31
0.0
  0
LINE
  5
23C
330
1E
100
AcDbEntity
  8
0
100
AcDbLine
 10
166.124975
 20
681.7452849999999
 30
0.0
 11
167.9009749999999
 21
677.3052849999999
 31
0.0
  0
LINE
  5
23D
330
1E
100
AcDbEntity
  8
0
100
AcDbLine
 10
166.568975
 20
691.1432849999999
 30
0.0
 11
168.344975
 21
695.4352849999999
 31
0.0
  0
LINE
  5
23E
330
1E
100
AcDbEntity
  8
0
100
AcDbLine
 10
165.902975
 20
686.4812849999999
 30
0.0
 11
166.568975
 21
681.8192849999999
 31
0.0
  0
LINE
  5
23F
330
1E
100
AcDbEntity
  8
0
100
AcDbLine
 10
165.902975
 20
686.4812849999999
 30
0.0
 11
166.568975
 21
691.1432849999999
 31
0.0
  0
LINE
  5
240
330
1E
100
AcDbEntity
  8
0
100
AcDbLine
 10
166.568975
 20
681.8192849999999
 30
0.0
 11
168.344975
 21
677.527285
 31
0.0
  0
LINE
  5
241
330
1E
100
AcDbEntity
  8
0
100
AcDbLine
 10
168.344975
 20
677.527285
 30
0.0
 11
171.230975
 21
673.753285
 31
0.0
  0
LINE
  5
242
330
1E
100
AcDbEntity
  8
0
100
AcDbLine
 10
168.344975
 20
695.4352849999999
 30
0.0
 11
171.230975
 21
699.2092849999998
 31
0.0
  0
LINE
  5
243
330
1E
100
AcDbEntity
  8
0
100
AcDbLine
 10
165.694975
 20
697.1031849999999
 30
0.0
 11
166.701975
 21
697.841185
 31
0.0
  0
LINE
  5
244
330
1E
100
AcDbEntity
  8
0
100
AcDbLine
 10
166.701975
 20
697.841185
 30
0.0
 11
168.378975
 21
699.071285
 31
0.0
  0
LINE
  5
245
330
1E
100
AcDbEntity
  8
0
100
AcDbLine
 10
166.5998749999999
 20
696.9832849999999
 30
0.0
 11
167.5524949999999
 21
697.533285
 31
0.0
  0
LINE
  5
246
330
1E
100
AcDbEntity
  8
0
100
AcDbLine
 10
167.5524949999999
 20
697.533285
 30
0.0
 11
169.197945
 21
698.4832849999999
 31
0.0
  0
LINE
  5
247
330
1E
100
AcDbEntity
  8
0
100
AcDbLine
 10
168.378975
 20
699.071285
 30
0.0
 11
170.6009749999999
 21
700.7010849999999
 31
0.0
  0
LINE
  5
249
330
1E
100
AcDbEntity
  8
0
100
AcDbLine
 10
170.6009749999999
 20
700.7010849999999
 30
0.0
 11
173.116975
 21
702.5461849999999
 31
0.0
  0
LINE
  5
24A
330
1E
100
AcDbEntity
  8
0
100
AcDbLine
 10
169.5029749999999
 20
736.545885
 30
0.0
 11
178.169975
 21
724.178085
 31
0.0
  0
LINE
  5
24B
330
1E
100
AcDbEntity
  8
0
100
AcDbLine
 10
169.197945
 20
698.4832849999999
 30
0.0
 11
170.67927389389
 21
699.338531034404
 31
0.0
  0
LINE
  5
24C
330
1E
100
AcDbEntity
  8
0
100
AcDbLine
 10
166.253461
 20
696.7832849999999
 30
0.0
 11
167.549106987623
 21
694.777614969057
 31
0.0
  0
LINE
  5
24D
330
1E
100
AcDbEntity
  8
0
100
AcDbLine
 10
166.253461
 20
696.7832849999999
 30
0.0
 11
166.562247403889
 21
696.961560937975
 31
0.0
  0
LINE
  5
24E
330
1E
100
AcDbEntity
  8
0
100
AcDbLine
 10
167.9009749999999
 20
695.657285
 30
0.0
 11
170.8609749999999
 21
699.5792849999999
 31
0.0
  0
LINE
  5
24F
330
1E
100
AcDbEntity
  8
0
100
AcDbLine
 10
170.8609749999999
 20
699.5792849999999
 30
0.0
 11
174.782975
 21
702.5392849999999
 31
0.0
  0
LINE
  5
250
330
1E
100
AcDbEntity
  8
0
100
AcDbLine
 10
166.124975
 20
691.2172849999999
 30
0.0
 11
167.9009749999999
 21
695.657285
 31
0.0
  0
LINE
  5
251
330
1E
100
AcDbEntity
  8
0
100
AcDbLine
 10
165.458975
 20
686.4812849999999
 30
0.0
 11
166.124975
 21
681.7452849999999
 31
0.0
  0
LINE
  5
252
330
1E
100
AcDbEntity
  8
0
100
AcDbLine
 10
165.458975
 20
686.4812849999999
 30
0.0
 11
166.124975
 21
691.2172849999999
 31
0.0
  0
LINE
  5
253
330
1E
100
AcDbEntity
  8
0
100
AcDbLine
 10
167.9009749999999
 20
677.3052849999999
 30
0.0
 11
170.8609749999999
 21
673.3832849999999
 31
0.0
  0
LINE
  5
254
330
1E
100
AcDbEntity
  8
0
100
AcDbLine
 10
171.230975
 20
699.2092849999998
 30
0.0
 11
175.004975
 21
702.095285
 31
0.0
  0
LINE
  5
255
330
1E
100
AcDbEntity
  8
0
100
AcDbLine
 10
171.230975
 20
673.753285
 30
0.0
 11
175.004975
 21
670.8672849999999
 31
0.0
  0
LINE
  5
256
330
1E
100
AcDbEntity
  8
0
100
AcDbLine
 10
170.8609749999999
 20
673.3832849999999
 30
0.0
 11
172.958975
 21
671.7998887735849
 31
0.0
  0
LINE
  5
257
330
1E
100
AcDbEntity
  8
0
100
AcDbLine
 10
170.8609749999999
 20
673.3832849999999
 30
0.0
 11
174.782975
 21
670.4232849999999
 31
0.0
  0
LINE
  5
258
330
1E
100
AcDbEntity
  8
0
100
AcDbLine
 10
172.958975
 20
320.4822849999999
 30
0.0
 11
172.958975
 21
671.7998887735849
 31
0.0
  0
LINE
  5
259
330
1E
100
AcDbEntity
  8
0
100
AcDbLine
 10
172.958975
 20
320.4822849999999
 30
0.0
 11
173.458975
 21
319.981285
 31
0.0
  0
LINE
  5
25A
330
1E
100
AcDbEntity
  8
0
100
AcDbLine
 10
172.958975
 20
320.4822849999999
 30
0.0
 11
172.958975
 21
671.7998887735849
 31
0.0
  0
LINE
  5
25B
330
1E
100
AcDbEntity
  8
0
100
AcDbLine
 10
172.958975
 20
320.4822849999999
 30
0.0
 11
173.3589749999999
 21
320.4822849999999
 31
0.0
  0
LINE
  5
25C
330
1E
100
AcDbEntity
  8
0
100
AcDbLine
 10
172.958975
 20
268.481285
 30
0.0
 11
172.958975
 21
319.481285
 31
0.0
  0
LINE
  5
25D
330
1E
100
AcDbEntity
  8
0
100
AcDbLine
 10
172.958975
 20
268.481285
 30
0.0
 11
173.458975
 21
267.981285
 31
0.0
  0
LINE
  5
25E
330
1E
100
AcDbEntity
  8
0
100
AcDbLine
 10
172.958975
 20
268.481285
 30
0.0
 11
173.3589749999999
 21
268.481285
 31
0.0
  0
LINE
  5
25F
330
1E
100
AcDbEntity
  8
0
100
AcDbLine
 10
173.458975
 20
267.981285
 30
0.0
 11
173.8589749999999
 21
267.981285
 31
0.0
  0
LINE
  5
260
330
1E
100
AcDbEntity
  8
0
100
AcDbLine
 10
173.8589749999999
 20
267.981285
 30
0.0
 11
174.8589749999999
 21
267.981285
 31
0.0
  0
LINE
  5
261
330
1E
100
AcDbEntity
  8
0
100
AcDbLine
 10
174.8589749999999
 20
267.981285
 30
0.0
 11
176.558975
 21
267.981285
 31
0.0
  0
LINE
  5
262
330
1E
100
AcDbEntity
  8
0
100
AcDbLine
 10
176.558975
 20
267.981285
 30
0.0
 11
178.7589749999999
 21
267.981285
 31
0.0
  0
LINE
  5
263
330
1E
100
AcDbEntity
  8
0
100
AcDbLine
 10
178.7589749999999
 20
267.981285
 30
0.0
 11
181.2589749999999
 21
267.981285
 31
0.0
  0
LINE
  5
264
330
1E
100
AcDbEntity
  8
0
100
AcDbLine
 10
181.2589749999999
 20
267.981285
 30
0.0
 11
183.958975
 21
267.981285
 31
0.0
  0
LINE
  5
265
330
1E
100
AcDbEntity
  8
0
100
AcDbLine
 10
225.9540749999999
 20
0.018714999999981
 30
0.0
 11
228.860075
 21
0.527014999999981
 31
0.0
  0
LINE
  5
266
330
1E
100
AcDbEntity
  8
0
100
AcDbLine
 10
231.252075
 20
1.47801499999998
 30
0.0
 11
232.6810749999999
 21
2.851814999999979
 31
0.0
  0
LINE
  5
267
330
1E
100
AcDbEntity
  8
0
100
AcDbLine
 10
228.860075
 20
0.527014999999981
 30
0.0
 11
231.252075
 21
1.47801499999998
 31
0.0
  0
LINE
  5
268
330
1E
100
AcDbEntity
  8
0
100
AcDbLine
 10
222.8110749999999
 20
0.147614999999981
 30
0.0
 11
225.9540749999999
 21
0.018714999999981
 31
0.0
  0
LINE
  5
269
330
1E
100
AcDbEntity
  8
0
100
AcDbLine
 10
220.0120749999999
 20
0.8503149999999809
 30
0.0
 11
222.8110749999999
 21
0.147614999999981
 31
0.0
  0
LINE
  5
26A
330
1E
100
AcDbEntity
  8
0
100
AcDbLine
 10
231.9140749999999
 20
5.82121499999998
 30
0.0
 11
232.9440749999999
 21
4.39361499999998
 31
0.0
  0
LINE
  5
26B
330
1E
100
AcDbEntity
  8
0
100
AcDbLine
 10
229.978075
 20
6.99731499999998
 30
0.0
 11
231.9140749999999
 21
5.82121499999998
 31
0.0
  0
LINE
  5
26C
330
1E
100
AcDbEntity
  8
0
100
AcDbLine
 10
227.1840749999999
 20
7.701114999999981
 30
0.0
 11
229.978075
 21
6.99731499999998
 31
0.0
  0
LINE
  5
26D
330
1E
100
AcDbEntity
  8
0
100
AcDbLine
 10
224.041075
 20
7.832214999999981
 30
0.0
 11
227.1840749999999
 21
7.701114999999981
 31
0.0
  0
LINE
  5
26E
330
1E
100
AcDbEntity
  8
0
100
AcDbLine
 10
221.1310749999999
 20
7.32701499999998
 30
0.0
 11
224.041075
 21
7.832214999999981
 31
0.0
  0
LINE
  5
26F
330
1E
100
AcDbEntity
  8
0
100
AcDbLine
 10
218.7360749999999
 20
6.374914999999981
 30
0.0
 11
221.1310749999999
 21
7.32701499999998
 31
0.0
  0
LINE
  5
270
330
1E
100
AcDbEntity
  8
0
100
AcDbLine
 10
217.303075
 20
5.00121499999998
 30
0.0
 11
218.7360749999999
 21
6.374914999999981
 31
0.0
  0
LINE
  5
271
330
1E
100
AcDbEntity
  8
0
100
AcDbLine
 10
232.6810749999999
 20
2.851814999999979
 30
0.0
 11
232.9440749999999
 21
4.39361499999998
 31
0.0
  0
LINE
  5
272
330
1E
100
AcDbEntity
  8
0
100
AcDbLine
 10
218.072075
 20
2.026514999999979
 30
0.0
 11
220.0120749999999
 21
0.8503149999999809
 31
0.0
  0
LINE
  5
273
330
1E
100
AcDbEntity
  8
0
100
AcDbLine
 10
217.038075
 20
3.456214999999979
 30
0.0
 11
218.072075
 21
2.026514999999979
 31
0.0
  0
LINE
  5
274
330
1E
100
AcDbEntity
  8
0
100
AcDbLine
 10
217.038075
 20
3.456214999999979
 30
0.0
 11
217.303075
 21
5.00121499999998
 31
0.0
  0
LINE
  5
275
330
1E
100
AcDbEntity
  8
0
100
AcDbLine
 10
232.788241185927
 20
267.981285
 30
0.0
 11
245.458975
 21
267.981285
 31
0.0
  0
LINE
  5
276
330
1E
100
AcDbEntity
  8
0
100
AcDbLine
 10
183.958975
 20
267.981285
 30
0.0
 11
216.8343232369829
 21
267.981285
 31
0.0
  0
LINE
  5
277
330
1E
100
AcDbEntity
  8
0
100
AcDbLine
 10
173.3589749999999
 20
268.481285
 30
0.0
 11
174.458975
 21
268.481285
 31
0.0
  0
LINE
  5
278
330
1E
100
AcDbEntity
  8
0
100
AcDbLine
 10
173.3589749999999
 20
319.481285
 30
0.0
 11
174.458975
 21
319.481285
 31
0.0
  0
LINE
  5
279
330
1E
100
AcDbEntity
  8
0
100
AcDbLine
 10
173.458975
 20
319.981285
 30
0.0
 11
173.8589749999999
 21
319.981285
 31
0.0
  0
LINE
  5
27A
330
1E
100
AcDbEntity
  8
0
100
AcDbLine
 10
174.458975
 20
268.481285
 30
0.0
 11
176.1589749999999
 21
268.481285
 31
0.0
  0
LINE
  5
27B
330
1E
100
AcDbEntity
  8
0
100
AcDbLine
 10
176.1589749999999
 20
268.481285
 30
0.0
 11
178.458975
 21
268.481285
 31
0.0
  0
LINE
  5
27C
330
1E
100
AcDbEntity
  8
0
100
AcDbLine
 10
174.458975
 20
319.481285
 30
0.0
 11
176.1589749999999
 21
319.481285
 31
0.0
  0
LINE
  5
27D
330
1E
100
AcDbEntity
  8
0
100
AcDbLine
 10
176.1589749999999
 20
319.481285
 30
0.0
 11
178.458975
 21
319.481285
 31
0.0
  0
LINE
  5
27E
330
1E
100
AcDbEntity
  8
0
100
AcDbLine
 10
173.8589749999999
 20
319.981285
 30
0.0
 11
174.8589749999999
 21
319.981285
 31
0.0
  0
LINE
  5
27F
330
1E
100
AcDbEntity
  8
0
100
AcDbLine
 10
174.8589749999999
 20
319.981285
 30
0.0
 11
176.558975
 21
319.981285
 31
0.0
  0
LINE
  5
280
330
1E
100
AcDbEntity
  8
0
100
AcDbLine
 10
178.458975
 20
268.481285
 30
0.0
 11
181.1589749999999
 21
268.481285
 31
0.0
  0
LINE
  5
281
330
1E
100
AcDbEntity
  8
0
100
AcDbLine
 10
181.1589749999999
 20
268.481285
 30
0.0
 11
183.958975
 21
268.481285
 31
0.0
  0
LINE
  5
282
330
1E
100
AcDbEntity
  8
0
100
AcDbLine
 10
178.458975
 20
319.481285
 30
0.0
 11
181.1589749999999
 21
319.481285
 31
0.0
  0
LINE
  5
283
330
1E
100
AcDbEntity
  8
0
100
AcDbLine
 10
181.1589749999999
 20
319.481285
 30
0.0
 11
183.958975
 21
319.481285
 31
0.0
  0
LINE
  5
284
330
1E
100
AcDbEntity
  8
0
100
AcDbLine
 10
176.558975
 20
319.981285
 30
0.0
 11
178.7589749999999
 21
319.981285
 31
0.0
  0
LINE
  5
285
330
1E
100
AcDbEntity
  8
0
100
AcDbLine
 10
178.7589749999999
 20
319.981285
 30
0.0
 11
181.2589749999999
 21
319.981285
 31
0.0
  0
LINE
  5
286
330
1E
100
AcDbEntity
  8
0
100
AcDbLine
 10
183.958975
 20
268.481285
 30
0.0
 11
216.833938109473
 21
268.481285
 31
0.0
  0
LINE
  5
287
330
1E
100
AcDbEntity
  8
0
100
AcDbLine
 10
194.458975
 20
319.981285
 30
0.0
 11
194.958975
 21
320.4822849999999
 31
0.0
  0
LINE
  5
288
330
1E
100
AcDbEntity
  8
0
100
AcDbLine
 10
183.958975
 20
319.481285
 30
0.0
 11
216.7946551034659
 21
319.481285
 31
0.0
  0
LINE
  5
289
330
1E
100
AcDbEntity
  8
0
100
AcDbLine
 10
181.2589749999999
 20
319.981285
 30
0.0
 11
183.958975
 21
319.981285
 31
0.0
  0
LINE
  5
28A
330
1E
100
AcDbEntity
  8
0
100
AcDbLine
 10
172.958975
 20
885.481285
 30
0.0
 11
172.958975
 21
936.4812849999999
 31
0.0
  0
LINE
  5
28B
330
1E
100
AcDbEntity
  8
0
100
AcDbLine
 10
172.958975
 20
885.481285
 30
0.0
 11
173.458975
 21
884.9812849999999
 31
0.0
  0
LINE
  5
28C
330
1E
100
AcDbEntity
  8
0
100
AcDbLine
 10
172.958975
 20
885.481285
 30
0.0
 11
173.3589749999999
 21
885.481285
 31
0.0
  0
LINE
  5
28D
330
1E
100
AcDbEntity
  8
0
100
AcDbLine
 10
172.958975
 20
936.4812849999999
 30
0.0
 11
173.458975
 21
936.981285
 31
0.0
  0
LINE
  5
28E
330
1E
100
AcDbEntity
  8
0
100
AcDbLine
 10
172.958975
 20
936.4812849999999
 30
0.0
 11
173.3589749999999
 21
936.4812849999999
 31
0.0
  0
LINE
  5
28F
330
1E
100
AcDbEntity
  8
0
100
AcDbLine
 10
172.958975
 20
936.4812849999999
 30
0.0
 11
172.958975
 21
885.481285
 31
0.0
  0
LINE
  5
290
330
1E
100
AcDbEntity
  8
0
100
AcDbLine
 10
172.958975
 20
884.480285
 30
0.0
 11
173.458975
 21
884.9812849999999
 31
0.0
  0
LINE
  5
291
330
1E
100
AcDbEntity
  8
0
100
AcDbLine
 10
172.958975
 20
884.480285
 30
0.0
 11
173.3589749999999
 21
884.480285
 31
0.0
  0
LINE
  5
292
330
1E
100
AcDbEntity
  8
0
100
AcDbLine
 10
173.3589749999999
 20
320.4822849999999
 30
0.0
 11
174.458975
 21
320.4822849999999
 31
0.0
  0
LINE
  5
293
330
1E
100
AcDbEntity
  8
0
100
AcDbLine
 10
174.458975
 20
320.4822849999999
 30
0.0
 11
176.1589749999999
 21
320.4822849999999
 31
0.0
  0
LINE
  5
294
330
1E
100
AcDbEntity
  8
0
100
AcDbLine
 10
176.1589749999999
 20
320.4822849999999
 30
0.0
 11
178.458975
 21
320.4822849999999
 31
0.0
  0
LINE
  5
295
330
1E
100
AcDbEntity
  8
0
100
AcDbLine
 10
194.958975
 20
320.4822849999999
 30
0.0
 11
194.958975
 21
645.088366331477
 31
0.0
  0
LINE
  5
296
330
1E
100
AcDbEntity
  8
0
100
AcDbLine
 10
194.558975
 20
320.4822849999999
 30
0.0
 11
194.958975
 21
320.4822849999999
 31
0.0
  0
LINE
  5
297
330
1E
100
AcDbEntity
  8
0
100
AcDbLine
 10
193.458975
 20
320.4822849999999
 30
0.0
 11
194.558975
 21
320.4822849999999
 31
0.0
  0
LINE
  5
298
330
1E
100
AcDbEntity
  8
0
100
AcDbLine
 10
191.7589749999999
 20
320.4822849999999
 30
0.0
 11
193.458975
 21
320.4822849999999
 31
0.0
  0
LINE
  5
299
330
1E
100
AcDbEntity
  8
0
100
AcDbLine
 10
189.458975
 20
320.4822849999999
 30
0.0
 11
191.7589749999999
 21
320.4822849999999
 31
0.0
  0
LINE
  5
29A
330
1E
100
AcDbEntity
  8
0
100
AcDbLine
 10
186.758975
 20
320.4822849999999
 30
0.0
 11
189.458975
 21
320.4822849999999
 31
0.0
  0
LINE
  5
29B
330
1E
100
AcDbEntity
  8
0
100
AcDbLine
 10
183.958975
 20
320.4822849999999
 30
0.0
 11
186.758975
 21
320.4822849999999
 31
0.0
  0
LINE
  5
29C
330
1E
100
AcDbEntity
  8
0
100
AcDbLine
 10
178.458975
 20
320.4822849999999
 30
0.0
 11
181.1589749999999
 21
320.4822849999999
 31
0.0
  0
LINE
  5
29D
330
1E
100
AcDbEntity
  8
0
100
AcDbLine
 10
173.116975
 20
702.5461849999999
 30
0.0
 11
175.667975
 21
704.4170849999999
 31
0.0
  0
LINE
  5
29E
330
1E
100
AcDbEntity
  8
0
100
AcDbLine
 10
174.782975
 20
670.4232849999999
 30
0.0
 11
179.2229749999999
 21
668.647285
 31
0.0
  0
LINE
  5
29F
330
1E
100
AcDbEntity
  8
0
100
AcDbLine
 10
175.667975
 20
704.4170849999999
 30
0.0
 11
178.3619749999999
 21
706.370785
 31
0.0
  0
LINE
  5
2A0
330
1E
100
AcDbEntity
  8
0
100
AcDbLine
 10
175.0868940829399
 20
702.6608526331759
 30
0.0
 11
176.262975
 21
703.5152849999999
 31
0.0
  0
LINE
  5
2A1
330
1E
100
AcDbEntity
  8
0
100
AcDbLine
 10
175.004975
 20
702.095285
 30
0.0
 11
179.296975
 21
703.8712849999999
 31
0.0
  0
LINE
  5
2A2
330
1E
100
AcDbEntity
  8
0
100
AcDbLine
 10
174.782975
 20
702.5392849999999
 30
0.0
 11
179.2229749999999
 21
704.315285
 31
0.0
  0
LINE
  5
2A3
330
1E
100
AcDbEntity
  8
0
100
AcDbLine
 10
175.004975
 20
670.8672849999999
 30
0.0
 11
179.296975
 21
669.091285
 31
0.0
  0
LINE
  5
2A4
330
1E
100
AcDbEntity
  8
0
100
AcDbLine
 10
173.3589749999999
 20
884.480285
 30
0.0
 11
174.458975
 21
884.480285
 31
0.0
  0
LINE
  5
2A5
330
1E
100
AcDbEntity
  8
0
100
AcDbLine
 10
174.458975
 20
884.480285
 30
0.0
 11
176.1589749999999
 21
884.480285
 31
0.0
  0
LINE
  5
2A6
330
1E
100
AcDbEntity
  8
0
100
AcDbLine
 10
179.2229749999999
 20
668.647285
 30
0.0
 11
183.958975
 21
667.9812849999999
 31
0.0
  0
LINE
  5
2A7
330
1E
100
AcDbEntity
  8
0
100
AcDbLine
 10
176.262975
 20
703.5152849999999
 30
0.0
 11
178.742975
 21
705.329385
 31
0.0
  0
LINE
  5
2A8
330
1E
100
AcDbEntity
  8
0
100
AcDbLine
 10
178.742975
 20
705.329385
 30
0.0
 11
181.066975
 21
707.0301849999999
 31
0.0
  0
LINE
  5
2A9
330
1E
100
AcDbEntity
  8
0
100
AcDbLine
 10
178.3619749999999
 20
706.370785
 30
0.0
 11
180.886975
 21
708.2023849999999
 31
0.0
  0
LINE
  5
2AA
330
1E
100
AcDbEntity
  8
0
100
AcDbLine
 10
178.169975
 20
724.178085
 30
0.0
 11
186.191975
 21
712.0487849999999
 31
0.0
  0
LINE
  5
2AB
330
1E
100
AcDbEntity
  8
0
100
AcDbLine
 10
181.066975
 20
707.0301849999999
 30
0.0
 11
183.119975
 21
708.5324849999999
 31
0.0
  0
LINE
  5
2AC
330
1E
100
AcDbEntity
  8
0
100
AcDbLine
 10
180.886975
 20
708.2023849999999
 30
0.0
 11
183.118975
 21
709.8202849999999
 31
0.0
  0
LINE
  5
2AD
330
1E
100
AcDbEntity
  8
0
100
AcDbLine
 10
181.149075
 20
705.383285
 30
0.0
 11
183.2275749999999
 21
706.5832849999999
 31
0.0
  0
LINE
  5
2AE
330
1E
100
AcDbEntity
  8
0
100
AcDbLine
 10
179.3238742811699
 20
704.3294739614148
 30
0.0
 11
181.149075
 21
705.383285
 31
0.0
  0
LINE
  5
2AF
330
1E
100
AcDbEntity
  8
0
100
AcDbLine
 10
179.296975
 20
703.8712849999999
 30
0.0
 11
183.958975
 21
704.5372849999999
 31
0.0
  0
LINE
  5
2B0
330
1E
100
AcDbEntity
  8
0
100
AcDbLine
 10
179.2229749999999
 20
704.315285
 30
0.0
 11
183.958975
 21
704.9812849999999
 31
0.0
  0
LINE
  5
2B1
330
1E
100
AcDbEntity
  8
0
100
AcDbLine
 10
179.296975
 20
669.091285
 30
0.0
 11
183.958975
 21
668.4252849999999
 31
0.0
  0
LINE
  5
2B2
330
1E
100
AcDbEntity
  8
0
100
AcDbLine
 10
176.1589749999999
 20
884.480285
 30
0.0
 11
178.458975
 21
884.480285
 31
0.0
  0
LINE
  5
2B3
330
1E
100
AcDbEntity
  8
0
100
AcDbLine
 10
173.458975
 20
884.9812849999999
 30
0.0
 11
173.8589749999999
 21
884.9812849999999
 31
0.0
  0
LINE
  5
2B4
330
1E
100
AcDbEntity
  8
0
100
AcDbLine
 10
173.8589749999999
 20
884.9812849999999
 30
0.0
 11
174.8589749999999
 21
884.9812849999999
 31
0.0
  0
LINE
  5
2B5
330
1E
100
AcDbEntity
  8
0
100
AcDbLine
 10
174.8589749999999
 20
884.9812849999999
 30
0.0
 11
176.558975
 21
884.9812849999999
 31
0.0
  0
LINE
  5
2B6
330
1E
100
AcDbEntity
  8
0
100
AcDbLine
 10
173.3589749999999
 20
885.481285
 30
0.0
 11
174.458975
 21
885.481285
 31
0.0
  0
LINE
  5
2B7
330
1E
100
AcDbEntity
  8
0
100
AcDbLine
 10
173.3589749999999
 20
936.4812849999999
 30
0.0
 11
174.458975
 21
936.4812849999999
 31
0.0
  0
LINE
  5
2B8
330
1E
100
AcDbEntity
  8
0
100
AcDbLine
 10
174.458975
 20
885.481285
 30
0.0
 11
176.1589749999999
 21
885.481285
 31
0.0
  0
LINE
  5
2B9
330
1E
100
AcDbEntity
  8
0
100
AcDbLine
 10
174.458975
 20
936.4812849999999
 30
0.0
 11
176.1589749999999
 21
936.4812849999999
 31
0.0
  0
LINE
  5
2BA
330
1E
100
AcDbEntity
  8
0
100
AcDbLine
 10
173.458975
 20
936.981285
 30
0.0
 11
173.8589749999999
 21
936.981285
 31
0.0
  0
LINE
  5
2BB
330
1E
100
AcDbEntity
  8
0
100
AcDbLine
 10
173.8589749999999
 20
936.981285
 30
0.0
 11
174.8589749999999
 21
936.981285
 31
0.0
  0
LINE
  5
2BC
330
1E
100
AcDbEntity
  8
0
100
AcDbLine
 10
176.1589749999999
 20
885.481285
 30
0.0
 11
178.458975
 21
885.481285
 31
0.0
  0
LINE
  5
2BD
330
1E
100
AcDbEntity
  8
0
100
AcDbLine
 10
178.458975
 20
885.481285
 30
0.0
 11
181.1589749999999
 21
885.481285
 31
0.0
  0
LINE
  5
2BE
330
1E
100
AcDbEntity
  8
0
100
AcDbLine
 10
176.1589749999999
 20
936.4812849999999
 30
0.0
 11
178.458975
 21
936.4812849999999
 31
0.0
  0
LINE
  5
2BF
330
1E
100
AcDbEntity
  8
0
100
AcDbLine
 10
178.458975
 20
936.4812849999999
 30
0.0
 11
181.1589749999999
 21
936.4812849999999
 31
0.0
  0
LINE
  5
2C0
330
1E
100
AcDbEntity
  8
0
100
AcDbLine
 10
174.8589749999999
 20
936.981285
 30
0.0
 11
176.558975
 21
936.981285
 31
0.0
  0
LINE
  5
2C1
330
1E
100
AcDbEntity
  8
0
100
AcDbLine
 10
176.558975
 20
936.981285
 30
0.0
 11
178.7589749999999
 21
936.981285
 31
0.0
  0
LINE
  5
2C2
330
1E
100
AcDbEntity
  8
0
100
AcDbLine
 10
178.7589749999999
 20
936.981285
 30
0.0
 11
181.2589749999999
 21
936.981285
 31
0.0
  0
LINE
  5
2C3
330
1E
100
AcDbEntity
  8
0
100
AcDbLine
 10
176.558975
 20
884.9812849999999
 30
0.0
 11
178.7589749999999
 21
884.9812849999999
 31
0.0
  0
LINE
  5
2C4
330
1E
100
AcDbEntity
  8
0
100
AcDbLine
 10
181.1589749999999
 20
885.481285
 30
0.0
 11
183.958975
 21
885.481285
 31
0.0
  0
LINE
  5
2C5
330
1E
100
AcDbEntity
  8
0
100
AcDbLine
 10
181.1589749999999
 20
936.4812849999999
 30
0.0
 11
183.958975
 21
936.4812849999999
 31
0.0
  0
LINE
  5
2C6
330
1E
100
AcDbEntity
  8
0
100
AcDbLine
 10
178.7589749999999
 20
884.9812849999999
 30
0.0
 11
181.2589749999999
 21
884.9812849999999
 31
0.0
  0
LINE
  5
2C7
330
1E
100
AcDbEntity
  8
0
100
AcDbLine
 10
178.458975
 20
884.480285
 30
0.0
 11
181.1589749999999
 21
884.480285
 31
0.0
  0
LINE
  5
2C8
330
1E
100
AcDbEntity
  8
0
100
AcDbLine
 10
183.119975
 20
708.5324849999999
 30
0.0
 11
184.6689749999999
 21
709.666285
 31
0.0
  0
LINE
  5
2C9
330
1E
100
AcDbEntity
  8
0
100
AcDbLine
 10
183.118975
 20
709.8202849999999
 30
0.0
 11
184.8019749999999
 21
711.041385
 31
0.0
  0
LINE
  5
2CA
330
1E
100
AcDbEntity
  8
0
100
AcDbLine
 10
183.2275749999999
 20
706.5832849999999
 30
0.0
 11
184.872975
 21
707.5332849999999
 31
0.0
  0
LINE
  5
2CB
330
1E
100
AcDbEntity
  8
0
100
AcDbLine
 10
183.958975
 20
704.5372849999999
 30
0.0
 11
188.6209749999999
 21
703.8712849999999
 31
0.0
  0
LINE
  5
2CC
330
1E
100
AcDbEntity
  8
0
100
AcDbLine
 10
183.958975
 20
704.9812849999999
 30
0.0
 11
188.694975
 21
704.315285
 31
0.0
  0
LINE
  5
2CD
330
1E
100
AcDbEntity
  8
0
100
AcDbLine
 10
183.958975
 20
667.9812849999999
 30
0.0
 11
188.694975
 21
668.647285
 31
0.0
  0
LINE
  5
2CE
330
1E
100
AcDbEntity
  8
0
100
AcDbLine
 10
183.958975
 20
668.4252849999999
 30
0.0
 11
188.6209749999999
 21
669.091285
 31
0.0
  0
LINE
  5
2CF
330
1E
100
AcDbEntity
  8
0
100
AcDbLine
 10
183.958975
 20
884.9812849999999
 30
0.0
 11
186.6589749999999
 21
884.9812849999999
 31
0.0
  0
LINE
  5
2D0
330
1E
100
AcDbEntity
  8
0
100
AcDbLine
 10
183.958975
 20
884.9812849999999
 30
0.0
 11
245.458975
 21
884.9812849999999
 31
0.0
  0
LINE
  5
2D3
330
1E
100
AcDbEntity
  8
0
100
AcDbLine
 10
185.459849447632
 20
668.192345469198
 30
0.0
 11
193.2360749999999
 21
650.0592849999999
 31
0.0
  0
LINE
  5
2D4
330
1E
100
AcDbEntity
  8
0
100
AcDbLine
 10
188.694975
 20
668.647285
 30
0.0
 11
193.134975
 21
670.4232849999999
 31
0.0
  0
LINE
  5
2D5
330
1E
100
AcDbEntity
  8
0
100
AcDbLine
 10
184.872975
 20
707.5332849999999
 30
0.0
 11
185.8256749999999
 21
708.0832849999999
 31
0.0
  0
LINE
  5
2D6
330
1E
100
AcDbEntity
  8
0
100
AcDbLine
 10
184.326267262414
 20
709.415437980713
 30
0.0
 11
184.6689749999999
 21
709.666285
 31
0.0
  0
LINE
  5
2D7
330
1E
100
AcDbEntity
  8
0
100
AcDbLine
 10
184.326267262414
 20
709.415437980713
 30
0.0
 11
185.42213823746
 21
707.8503205627201
 31
0.0
  0
LINE
  5
2D8
330
1E
100
AcDbEntity
  8
0
100
AcDbLine
 10
184.8019749999999
 20
711.041385
 30
0.0
 11
185.8129749999999
 21
711.774085
 31
0.0
  0
LINE
  5
2D9
330
1E
100
AcDbEntity
  8
0
100
AcDbLine
 10
185.8129749999999
 20
711.774085
 30
0.0
 11
186.191975
 21
712.0487849999999
 31
0.0
  0
LINE
  5
2DA
330
1E
100
AcDbEntity
  8
0
100
AcDbLine
 10
185.5989749999999
 20
710.346685
 30
0.0
 11
185.946975
 21
710.6017849999999
 31
0.0
  0
LINE
  5
2DB
330
1E
100
AcDbEntity
  8
0
100
AcDbLine
 10
184.6689749999999
 20
709.666285
 30
0.0
 11
185.5989749999999
 21
710.346685
 31
0.0
  0
LINE
  5
2DC
330
1E
100
AcDbEntity
  8
0
100
AcDbLine
 10
185.946975
 20
710.6017849999999
 30
0.0
 11
186.191975
 21
712.0487849999999
 31
0.0
  0
LINE
  5
2DD
330
1E
100
AcDbEntity
  8
0
100
AcDbLine
 10
185.8256749999999
 20
708.0832849999999
 30
0.0
 11
186.172075
 21
708.2832849999999
 31
0.0
  0
LINE
  5
2DE
330
1E
100
AcDbEntity
  8
0
100
AcDbLine
 10
186.172075
 20
708.2832849999999
 30
0.0
 11
188.1678703070719
 21
704.3894090974429
 31
0.0
  0
LINE
  5
2DF
330
1E
100
AcDbEntity
  8
0
100
AcDbLine
 10
188.6209749999999
 20
703.8712849999999
 30
0.0
 11
192.9129749999999
 21
702.095285
 31
0.0
  0
LINE
  5
2E0
330
1E
100
AcDbEntity
  8
0
100
AcDbLine
 10
188.694975
 20
704.315285
 30
0.0
 11
193.134975
 21
702.5392849999999
 31
0.0
  0
LINE
  5
2E1
330
1E
100
AcDbEntity
  8
0
100
AcDbLine
 10
188.6209749999999
 20
669.091285
 30
0.0
 11
192.9129749999999
 21
670.8672849999999
 31
0.0
  0
LINE
  5
2E2
330
1E
100
AcDbEntity
  8
0
100
AcDbLine
 10
193.2360749999999
 20
650.0592849999999
 30
0.0
 11
201.137075
 21
627.2632849999999
 31
0.0
  0
LINE
  5
2E3
330
1E
100
AcDbEntity
  8
0
100
AcDbLine
 10
193.134975
 20
670.4232849999999
 30
0.0
 11
197.0569749999999
 21
673.3832849999999
 31
0.0
  0
LINE
  5
2E4
330
1E
100
AcDbEntity
  8
0
100
AcDbLine
 10
192.9129749999999
 20
702.095285
 30
0.0
 11
196.6869749999999
 21
699.2092849999998
 31
0.0
  0
LINE
  5
2E5
330
1E
100
AcDbEntity
  8
0
100
AcDbLine
 10
193.134975
 20
702.5392849999999
 30
0.0
 11
197.0569749999999
 21
699.5792849999999
 31
0.0
  0
LINE
  5
2E6
330
1E
100
AcDbEntity
  8
0
100
AcDbLine
 10
192.9129749999999
 20
670.8672849999999
 30
0.0
 11
196.6869749999999
 21
673.753285
 31
0.0
  0
LINE
  5
2E7
330
1E
100
AcDbEntity
  8
0
100
AcDbLine
 10
201.137075
 20
627.2632849999999
 30
0.0
 11
207.337075
 21
602.8662849999999
 31
0.0
  0
LINE
  5
2E8
330
1E
100
AcDbEntity
  8
0
100
AcDbLine
 10
232.636075
 20
525.3652849999999
 30
0.0
 11
232.9440749999999
 21
4.39361499999997
 31
0.0
  0
LINE
  5
2E9
330
1E
100
AcDbEntity
  8
0
100
AcDbLine
 10
232.636075
 20
525.3652849999999
 30
0.0
 11
232.9440749999999
 21
4.39361499999998
 31
0.0
  0
LINE
  5
2EA
330
1E
100
AcDbEntity
  8
0
100
AcDbLine
 10
216.6360749999999
 20
525.3612849999999
 30
0.0
 11
217.038075
 21
3.456214999999979
 31
0.0
  0
LINE
  5
2EB
330
1E
100
AcDbEntity
  8
0
100
AcDbLine
 10
216.6360749999999
 20
525.3612849999999
 30
0.0
 11
217.038075
 21
3.45621499999997
 31
0.0
  0
LINE
  5
2EC
330
1E
100
AcDbEntity
  8
0
100
AcDbLine
 10
230.636075
 20
559.7662849999998
 30
0.0
 11
232.636075
 21
525.3652849999999
 31
0.0
  0
LINE
  5
2ED
330
1E
100
AcDbEntity
  8
0
100
AcDbLine
 10
214.835075
 20
556.962285
 30
0.0
 11
216.6360749999999
 21
525.3612849999999
 31
0.0
  0
LINE
  5
2EE
330
1E
100
AcDbEntity
  8
0
100
AcDbLine
 10
226.936075
 20
584.1642849999999
 30
0.0
 11
230.636075
 21
559.7662849999998
 31
0.0
  0
LINE
  5
2EF
330
1E
100
AcDbEntity
  8
0
100
AcDbLine
 10
211.9360749999999
 20
578.6592849999999
 30
0.0
 11
214.835075
 21
556.962285
 31
0.0
  0
LINE
  5
2F0
330
1E
100
AcDbEntity
  8
0
100
AcDbLine
 10
221.8360749999999
 20
609.561285
 30
0.0
 11
226.936075
 21
584.1642849999999
 31
0.0
  0
LINE
  5
2F1
330
1E
100
AcDbEntity
  8
0
100
AcDbLine
 10
207.337075
 20
602.8662849999999
 30
0.0
 11
211.9360749999999
 21
578.6592849999999
 31
0.0
  0
LINE
  5
2F2
330
1E
100
AcDbEntity
  8
0
100
AcDbLine
 10
215.036075
 20
635.2692849999999
 30
0.0
 11
221.8360749999999
 21
609.561285
 31
0.0
  0
LINE
  5
2F3
330
1E
100
AcDbEntity
  8
0
100
AcDbLine
 10
206.6370749999999
 20
658.7552849999999
 30
0.0
 11
215.036075
 21
635.2692849999999
 31
0.0
  0
LINE
  5
2F4
330
1E
100
AcDbEntity
  8
0
100
AcDbLine
 10
198.8175352034909
 20
675.716027269626
 30
0.0
 11
206.6370749999999
 21
658.7552849999999
 31
0.0
  0
LINE
  5
2F5
330
1E
100
AcDbEntity
  8
0
100
AcDbLine
 10
200.0169749999999
 20
677.3052849999999
 30
0.0
 11
201.7929749999999
 21
681.7452849999999
 31
0.0
  0
LINE
  5
2F6
330
1E
100
AcDbEntity
  8
0
100
AcDbLine
 10
199.572975
 20
677.527285
 30
0.0
 11
201.348975
 21
681.8192849999999
 31
0.0
  0
LINE
  5
2F7
330
1E
100
AcDbEntity
  8
0
100
AcDbLine
 10
197.0569749999999
 20
673.3832849999999
 30
0.0
 11
200.0169749999999
 21
677.3052849999999
 31
0.0
  0
LINE
  5
2F8
330
1E
100
AcDbEntity
  8
0
100
AcDbLine
 10
196.6869749999999
 20
673.753285
 30
0.0
 11
199.572975
 21
677.527285
 31
0.0
  0
LINE
  5
2F9
330
1E
100
AcDbEntity
  8
0
100
AcDbLine
 10
196.6869749999999
 20
699.2092849999998
 30
0.0
 11
199.572975
 21
695.4352849999999
 31
0.0
  0
LINE
  5
2FA
330
1E
100
AcDbEntity
  8
0
100
AcDbLine
 10
201.348975
 20
691.1432849999999
 30
0.0
 11
202.0149749999999
 21
686.4812849999999
 31
0.0
  0
LINE
  5
2FB
330
1E
100
AcDbEntity
  8
0
100
AcDbLine
 10
199.572975
 20
695.4352849999999
 30
0.0
 11
201.348975
 21
691.1432849999999
 31
0.0
  0
LINE
  5
2FC
330
1E
100
AcDbEntity
  8
0
100
AcDbLine
 10
200.0169749999999
 20
695.657285
 30
0.0
 11
201.7929749999999
 21
691.2172849999999
 31
0.0
  0
LINE
  5
2FD
330
1E
100
AcDbEntity
  8
0
100
AcDbLine
 10
197.0569749999999
 20
699.5792849999999
 30
0.0
 11
200.0169749999999
 21
695.657285
 31
0.0
  0
LINE
  5
2FE
330
1E
100
AcDbEntity
  8
0
100
AcDbLine
 10
201.348975
 20
681.8192849999999
 30
0.0
 11
202.0149749999999
 21
686.4812849999999
 31
0.0
  0
LINE
  5
2FF
330
1E
100
AcDbEntity
  8
0
100
AcDbLine
 10
201.7929749999999
 20
691.2172849999999
 30
0.0
 11
202.458975
 21
686.4812849999999
 31
0.0
  0
LINE
  5
300
330
1E
100
AcDbEntity
  8
0
100
AcDbLine
 10
201.7929749999999
 20
681.7452849999999
 30
0.0
 11
202.458975
 21
686.4812849999999
 31
0.0
  0
LINE
  5
301
330
1E
100
AcDbEntity
  8
0
100
AcDbLine
 10
194.958975
 20
320.4822849999999
 30
0.0
 11
194.958975
 21
645.088366331477
 31
0.0
  0
LINE
  5
302
330
1E
100
AcDbEntity
  8
0
100
AcDbLine
 10
194.558975
 20
884.480285
 30
0.0
 11
194.958975
 21
884.480285
 31
0.0
  0
LINE
  5
303
330
1E
100
AcDbEntity
  8
0
100
AcDbLine
 10
194.958975
 20
701.1626812264149
 30
0.0
 11
194.958975
 21
884.480285
 31
0.0
  0
LINE
  5
304
330
1E
100
AcDbEntity
  8
0
100
AcDbLine
 10
193.458975
 20
884.480285
 30
0.0
 11
194.558975
 21
884.480285
 31
0.0
  0
LINE
  5
305
330
1E
100
AcDbEntity
  8
0
100
AcDbLine
 10
191.7589749999999
 20
884.480285
 30
0.0
 11
193.458975
 21
884.480285
 31
0.0
  0
LINE
  5
306
330
1E
100
AcDbEntity
  8
0
100
AcDbLine
 10
189.458975
 20
884.480285
 30
0.0
 11
191.7589749999999
 21
884.480285
 31
0.0
  0
LINE
  5
307
330
1E
100
AcDbEntity
  8
0
100
AcDbLine
 10
194.458975
 20
884.9812849999999
 30
0.0
 11
194.958975
 21
884.480285
 31
0.0
  0
LINE
  5
308
330
1E
100
AcDbEntity
  8
0
100
AcDbLine
 10
194.458975
 20
884.9812849999999
 30
0.0
 11
245.458975
 21
884.9812849999999
 31
0.0
  0
LINE
  5
309
330
1E
100
AcDbEntity
  8
0
100
AcDbLine
 10
194.058975
 20
884.9812849999999
 30
0.0
 11
194.458975
 21
884.9812849999999
 31
0.0
  0
LINE
  5
30A
330
1E
100
AcDbEntity
  8
0
100
AcDbLine
 10
193.058975
 20
884.9812849999999
 30
0.0
 11
194.058975
 21
884.9812849999999
 31
0.0
  0
LINE
  5
30B
330
1E
100
AcDbEntity
  8
0
100
AcDbLine
 10
191.3589749999999
 20
884.9812849999999
 30
0.0
 11
193.058975
 21
884.9812849999999
 31
0.0
  0
LINE
  5
30C
330
1E
100
AcDbEntity
  8
0
100
AcDbLine
 10
189.1589749999999
 20
884.9812849999999
 30
0.0
 11
191.3589749999999
 21
884.9812849999999
 31
0.0
  0
LINE
  5
30D
330
1E
100
AcDbEntity
  8
0
100
AcDbLine
 10
186.6589749999999
 20
884.9812849999999
 30
0.0
 11
189.1589749999999
 21
884.9812849999999
 31
0.0
  0
LINE
  5
30E
330
1E
100
AcDbEntity
  8
0
100
AcDbLine
 10
186.758975
 20
884.480285
 30
0.0
 11
189.458975
 21
884.480285
 31
0.0
  0
LINE
  5
30F
330
1E
100
AcDbEntity
  8
0
100
AcDbLine
 10
183.958975
 20
884.480285
 30
0.0
 11
186.758975
 21
884.480285
 31
0.0
  0
LINE
  5
310
330
1E
100
AcDbEntity
  8
0
100
AcDbLine
 10
183.958975
 20
885.481285
 30
0.0
 11
245.958975
 21
885.481285
 31
0.0
  0
LINE
  5
311
330
1E
100
AcDbEntity
  8
0
100
AcDbLine
 10
183.958975
 20
936.4812849999999
 30
0.0
 11
245.958975
 21
936.4812849999999
 31
0.0
  0
LINE
  5
312
330
1E
100
AcDbEntity
  8
0
100
AcDbLine
 10
181.2589749999999
 20
936.981285
 30
0.0
 11
183.958975
 21
936.981285
 31
0.0
  0
LINE
  5
313
330
1E
100
AcDbEntity
  8
0
100
AcDbLine
 10
183.958975
 20
936.981285
 30
0.0
 11
245.458975
 21
936.981285
 31
0.0
  0
LINE
  5
314
330
1E
100
AcDbEntity
  8
0
100
AcDbLine
 10
181.2589749999999
 20
884.9812849999999
 30
0.0
 11
183.958975
 21
884.9812849999999
 31
0.0
  0
LINE
  5
315
330
1E
100
AcDbEntity
  8
0
100
AcDbLine
 10
181.1589749999999
 20
884.480285
 30
0.0
 11
183.958975
 21
884.480285
 31
0.0
  0
LINE
  5
316
330
1E
100
AcDbEntity
  8
0
100
AcDbLine
 10
181.1589749999999
 20
320.4822849999999
 30
0.0
 11
183.958975
 21
320.4822849999999
 31
0.0
  0
LINE
  5
317
330
1E
100
AcDbEntity
  8
0
100
AcDbLine
 10
172.958975
 20
731.614176588785
 30
0.0
 11
172.958975
 21
884.480285
 31
0.0
  0
LINE
  5
318
330
1E
100
AcDbEntity
  8
0
100
AcDbLine
 10
183.958975
 20
319.981285
 30
0.0
 11
216.794269975956
 21
319.981285
 31
0.0
  0
LINE
  5
319
330
1E
100
AcDbEntity
  8
0
100
AcDbLine
 10
232.787945584441
 20
268.481285
 30
0.0
 11
245.958975
 21
268.481285
 31
0.0
  0
LINE
  5
31A
330
1E
100
AcDbEntity
  8
0
100
AcDbLine
 10
245.958975
 20
319.481285
 30
0.0
 11
245.958975
 21
268.481285
 31
0.0
  0
LINE
  5
31B
330
1E
100
AcDbEntity
  8
0
100
AcDbLine
 10
245.958975
 20
268.481285
 30
0.0
 11
245.958975
 21
319.481285
 31
0.0
  0
LINE
  5
31C
330
1E
100
AcDbEntity
  8
0
100
AcDbLine
 10
232.7577942328329
 20
319.481285
 30
0.0
 11
245.958975
 21
319.481285
 31
0.0
  0
LINE
  5
31D
330
1E
100
AcDbEntity
  8
0
100
AcDbLine
 10
245.458975
 20
936.981285
 30
0.0
 11
245.958975
 21
936.4812849999999
 31
0.0
  0
LINE
  5
31E
330
1E
100
AcDbEntity
  8
0
100
AcDbLine
 10
245.958975
 20
885.481285
 30
0.0
 11
245.958975
 21
936.4812849999999
 31
0.0
  0
LINE
  5
31F
330
1E
100
AcDbEntity
  8
0
100
AcDbLine
 10
245.958975
 20
936.4812849999999
 30
0.0
 11
245.958975
 21
885.481285
 31
0.0
  0
LINE
  5
320
330
1E
100
AcDbEntity
  8
0
100
AcDbLine
 10
245.458975
 20
884.9812849999999
 30
0.0
 11
245.958975
 21
885.481285
 31
0.0
  0
LINE
  5
321
330
1E
100
AcDbEntity
  8
0
100
AcDbLine
 10
245.458975
 20
319.981285
 30
0.0
 11
245.958975
 21
319.481285
 31
0.0
  0
LINE
  5
322
330
1E
100
AcDbEntity
  8
0
100
AcDbLine
 10
232.757498631346
 20
319.981285
 30
0.0
 11
245.458975
 21
319.981285
 31
0.0
  0
LINE
  5
323
330
1E
100
AcDbEntity
  8
0
100
AcDbLine
 10
245.458975
 20
267.981285
 30
0.0
 11
245.958975
 21
268.481285
 31
0.0
  0
LINE
  5
324
330
1E
100
AcDbEntity
  8
0
100
AcDbLine
 10
172.958975
 20
319.481285
 30
0.0
 11
173.458975
 21
319.981285
 31
0.0
  0
LINE
  5
325
330
1E
100
AcDbEntity
  8
0
100
AcDbLine
 10
172.958975
 20
319.481285
 30
0.0
 11
173.3589749999999
 21
319.481285
 31
0.0
  0
LINE
  5
32A
330
1E
100
AcDbEntity
  8
0
100
AcDbLine
 10
31.3683749984797
 20
798.7312850008779
 30
0.0
 11
36.824375
 21
795.581285
 31
0.0
  0
LINE
  5
32B
330
1E
100
AcDbEntity
  8
0
100
AcDbLine
 10
47.0746294630552
 20
792.5153193667309
 30
0.0
 11
47.00687499999999
 21
791.9452849999999
 31
0.0
  0
ENDSEC
  0
SECTION
  2
OBJECTS
  0
DICTIONARY
  5
C
330
0
100
AcDbDictionary
281
     1
  3
ACAD_GROUP
350
D
  3
ACAD_LAYOUT
350
19
  3
ACAD_MLINESTYLE
350
16
  3
ACAD_PLOTSETTINGS
350
18
  3
ACAD_PLOTSTYLENAME
350
E
  3
AcDbVariableDictionary
350
32C
  0
DICTIONARY
  5
D
102
{ACAD_REACTORS
330
C
102
}
330
C
100
AcDbDictionary
281
     1
  0
DICTIONARY
  5
19
102
{ACAD_REACTORS
330
C
102
}
330
C
100
AcDbDictionary
281
     1
  3
Layout1
350
1D
  3
Model
350
21
  0
DICTIONARY
  5
16
102
{ACAD_REACTORS
330
C
102
}
330
C
100
AcDbDictionary
281
     1
  3
Standard
350
17
  0
DICTIONARY
  5
18
102
{ACAD_REACTORS
330
C
102
}
330
C
100
AcDbDictionary
281
     1
  0
ACDBDICTIONARYWDFLT
  5
E
102
{ACAD_REACTORS
330
C
102
}
330
C
100
AcDbDictionary
281
     1
  3
Normal
350
F
100
AcDbDictionaryWithDefault
340
F
  0
DICTIONARY
  5
32C
102
{ACAD_REACTORS
330
C
102
}
330
C
100
AcDbDictionary
281
     1
  3
DIMASSOC
350
32D
  0
LAYOUT
  5
1D
102
{ACAD_REACTORS
330
19
102
}
330
19
100
AcDbPlotSettings
  1

  2
hp deskjet 980c series
  4

  6

 40
0.0
 41
0.0
 42
0.0
 43
0.0
 44
0.0
 45
0.0
 46
0.0
 47
0.0
 48
0.0
 49
0.0
140
0.0
141
0.0
142
1.0
143
1.0
 70
   688
 72
     0
 73
     0
 74
     5
  7

 75
    16
147
1.0
148
0.0
149
0.0
100
AcDbLayout
  1
Layout1
 70
     1
 71
     1
 10
0.0
 20
0.0
 11
12.0
 21
9.0
 12
0.0
 22
0.0
 32
0.0
 14
1.000000000000000E+20
 24
1.000000000000000E+20
 34
1.000000000000000E+20
 15
-1.000000000000000E+20
 25
-1.000000000000000E+20
 35
-1.000000000000000E+20
146
0.0
 13
0.0
 23
0.0
 33
0.0
 16
1.0
 26
0.0
 36
0.0
 17
0.0
 27
1.0
 37
0.0
 76
     0
330
1A
  0
LAYOUT
  5
21
102
{ACAD_REACTORS
330
19
102
}
330
19
100
AcDbPlotSettings
  1

  2
hp deskjet 980c series
  4

  6

 40
0.0
 41
0.0
 42
0.0
 43
0.0
 44
0.0
 45
0.0
 46
0.0
 47
0.0
 48
0.0
 49
0.0
140
0.0
141
0.0
142
1.0
143
1.0
 70
  1712
 72
     0
 73
     0
 74
     0
  7

 75
     0
147
1.0
148
0.0
149
0.0
100
AcDbLayout
  1
Model
 70
     1
 71
     0
 10
0.0
 20
0.0
 11
12.0
 21
9.0
 12
0.0
 22
0.0
 32
0.0
 14
0.0
 24
0.0
 34
0.0
 15
0.0
 25
0.0
 35
0.0
146
0.0
 13
0.0
 23
0.0
 33
0.0
 16
1.0
 26
0.0
 36
0.0
 17
0.0
 27
1.0
 37
0.0
 76
     0
330
1E
  0
MLINESTYLE
  5
17
102
{ACAD_REACTORS
330
16
102
}
330
16
100
AcDbMlineStyle
  2
STANDARD
 70
     0
  3

 62
   256
 51
90.0
 52
90.0
 71
     2
 49
0.5
 62
   256
  6
BYLAYER
 49
-0.5
 62
   256
  6
BYLAYER
  0
ACDBPLACEHOLDER
  5
F
102
{ACAD_REACTORS
330
E
102
}
330
E
  0
DICTIONARYVAR
  5
32D
102
{ACAD_REACTORS
330
32C
102
}
330
32C
100
DictionaryVariables
280
     0
  1
1
  0
ENDSEC
  0
EOF
