  0
SECTION
  2
HEADER
  9
$ACADVER
  1
AC1015
  9
$ACADMAINTVER
 70
    13
  9
$DWGCODEPAGE
  3
ANSI_1252
  9
$INSBASE
 10
0.0
 20
0.0
 30
0.0
  9
$EXTMIN
 10
0.0767650000000113
 20
290.145
 30
0.0
  9
$EXTMAX
 10
139.7567349999999
 20
996.855
 30
0.0
  9
$LIMMIN
 10
0.0
 20
0.0
  9
$LIMMAX
 10
12.0
 20
9.0
  9
$ORTHOMODE
 70
     0
  9
$REGENMODE
 70
     1
  9
$FILLMODE
 70
     1
  9
$QTEXTMODE
 70
     0
  9
$MIRRTEXT
 70
     1
  9
$LTSCALE
 40
1.0
  9
$ATTMODE
 70
     1
  9
$TEXTSIZE
 40
0.2
  9
$TRACEWID
 40
0.05
  9
$TEXTSTYLE
  7
Standard
  9
$CLAYER
  8
0
  9
$CELTYPE
  6
Continuous
  9
$CECOLOR
 62
   256
  9
$CELTSCALE
 40
1.0
  9
$DISPSILH
 70
     0
  9
$DIMSCALE
 40
1.0
  9
$DIMASZ
 40
0.18
  9
$DIMEXO
 40
0.0625
  9
$DIMDLI
 40
0.38
  9
$DIMRND
 40
0.0
  9
$DIMDLE
 40
0.0
  9
$DIMEXE
 40
0.18
  9
$DIMTP
 40
0.0
  9
$DIMTM
 40
0.0
  9
$DIMTXT
 40
0.18
  9
$DIMCEN
 40
0.09
  9
$DIMTSZ
 40
0.0
  9
$DIMTOL
 70
     0
  9
$DIMLIM
 70
     0
  9
$DIMTIH
 70
     1
  9
$DIMTOH
 70
     1
  9
$DIMSE1
 70
     0
  9
$DIMSE2
 70
     0
  9
$DIMTAD
 70
     0
  9
$DIMZIN
 70
     0
  9
$DIMBLK
  1

  9
$DIMASO
 70
     1
  9
$DIMSHO
 70
     1
  9
$DIMPOST
  1

  9
$DIMAPOST
  1

  9
$DIMALT
 70
     0
  9
$DIMALTD
 70
     2
  9
$DIMALTF
 40
25.4
  9
$DIMLFAC
 40
1.0
  9
$DIMTOFL
 70
     0
  9
$DIMTVP
 40
0.0
  9
$DIMTIX
 70
     0
  9
$DIMSOXD
 70
     0
  9
$DIMSAH
 70
     0
  9
$DIMBLK1
  1

  9
$DIMBLK2
  1

  9
$DIMSTYLE
  2
Standard
  9
$DIMCLRD
 70
     0
  9
$DIMCLRE
 70
     0
  9
$DIMCLRT
 70
     0
  9
$DIMTFAC
 40
1.0
  9
$DIMGAP
 40
0.09
  9
$DIMJUST
 70
     0
  9
$DIMSD1
 70
     0
  9
$DIMSD2
 70
     0
  9
$DIMTOLJ
 70
     1
  9
$DIMTZIN
 70
     0
  9
$DIMALTZ
 70
     0
  9
$DIMALTTZ
 70
     0
  9
$DIMUPT
 70
     0
  9
$DIMDEC
 70
     4
  9
$DIMTDEC
 70
     4
  9
$DIMALTU
 70
     2
  9
$DIMALTTD
 70
     2
  9
$DIMTXSTY
  7
Standard
  9
$DIMAUNIT
 70
     0
  9
$DIMADEC
 70
     0
  9
$DIMALTRND
 40
0.0
  9
$DIMAZIN
 70
     0
  9
$DIMDSEP
 70
    46
  9
$DIMATFIT
 70
     3
  9
$DIMFRAC
 70
     0
  9
$DIMLDRBLK
  1

  9
$DIMLUNIT
 70
     2
  9
$DIMLWD
 70
    -2
  9
$DIMLWE
 70
    -2
  9
$DIMTMOVE
 70
     0
  9
$LUNITS
 70
     2
  9
$LUPREC
 70
     4
  9
$SKETCHINC
 40
0.1
  9
$FILLETRAD
 40
0.0
  9
$AUNITS
 70
     0
  9
$AUPREC
 70
     0
  9
$MENU
  1
.
  9
$ELEVATION
 40
0.0
  9
$PELEVATION
 40
0.0
  9
$THICKNESS
 40
0.0
  9
$LIMCHECK
 70
     0
  9
$CHAMFERA
 40
0.0
  9
$CHAMFERB
 40
0.0
  9
$CHAMFERC
 40
0.0
  9
$CHAMFERD
 40
0.0
  9
$SKPOLY
 70
     0
  9
$TDCREATE
 40
2455656.845862928
  9
$TDUCREATE
 40
2455656.762529594
  9
$TDUPDATE
 40
2455656.856252106
  9
$TDUUPDATE
 40
2455656.772918773
  9
$TDINDWG
 40
0.0103891782
  9
$TDUSRTIMER
 40
0.0103891782
  9
$USRTIMER
 70
     1
  9
$ANGBASE
 50
0.0
  9
$ANGDIR
 70
     0
  9
$PDMODE
 70
     0
  9
$PDSIZE
 40
0.0
  9
$PLINEWID
 40
0.0
  9
$SPLFRAME
 70
     0
  9
$SPLINETYPE
 70
     6
  9
$SPLINESEGS
 70
     8
  9
$HANDSEED
  5
25F6
  9
$SURFTAB1
 70
     6
  9
$SURFTAB2
 70
     6
  9
$SURFTYPE
 70
     6
  9
$SURFU
 70
     6
  9
$SURFV
 70
     6
  9
$UCSBASE
  2

  9
$UCSNAME
  2

  9
$UCSORG
 10
0.0
 20
0.0
 30
0.0
  9
$UCSXDIR
 10
1.0
 20
0.0
 30
0.0
  9
$UCSYDIR
 10
0.0
 20
1.0
 30
0.0
  9
$UCSORTHOREF
  2

  9
$UCSORTHOVIEW
 70
     1
  9
$UCSORGTOP
 10
0.0
 20
0.0
 30
0.0
  9
$UCSORGBOTTOM
 10
0.0
 20
0.0
 30
0.0
  9
$UCSORGLEFT
 10
0.0
 20
0.0
 30
0.0
  9
$UCSORGRIGHT
 10
0.0
 20
0.0
 30
0.0
  9
$UCSORGFRONT
 10
0.0
 20
0.0
 30
0.0
  9
$UCSORGBACK
 10
0.0
 20
0.0
 30
0.0
  9
$PUCSBASE
  2

  9
$PUCSNAME
  2

  9
$PUCSORG
 10
0.0
 20
0.0
 30
0.0
  9
$PUCSXDIR
 10
1.0
 20
0.0
 30
0.0
  9
$PUCSYDIR
 10
0.0
 20
1.0
 30
0.0
  9
$PUCSORTHOREF
  2

  9
$PUCSORTHOVIEW
 70
     0
  9
$PUCSORGTOP
 10
0.0
 20
0.0
 30
0.0
  9
$PUCSORGBOTTOM
 10
0.0
 20
0.0
 30
0.0
  9
$PUCSORGLEFT
 10
0.0
 20
0.0
 30
0.0
  9
$PUCSORGRIGHT
 10
0.0
 20
0.0
 30
0.0
  9
$PUCSORGFRONT
 10
0.0
 20
0.0
 30
0.0
  9
$PUCSORGBACK
 10
0.0
 20
0.0
 30
0.0
  9
$USERI1
 70
     0
  9
$USERI2
 70
     0
  9
$USERI3
 70
     0
  9
$USERI4
 70
     0
  9
$USERI5
 70
     0
  9
$USERR1
 40
0.0
  9
$USERR2
 40
0.0
  9
$USERR3
 40
0.0
  9
$USERR4
 40
0.0
  9
$USERR5
 40
0.0
  9
$WORLDVIEW
 70
     1
  9
$SHADEDGE
 70
     3
  9
$SHADEDIF
 70
    70
  9
$TILEMODE
 70
     1
  9
$MAXACTVP
 70
    64
  9
$PINSBASE
 10
0.0
 20
0.0
 30
0.0
  9
$PLIMCHECK
 70
     0
  9
$PEXTMIN
 10
1.000000000000000E+20
 20
1.000000000000000E+20
 30
1.000000000000000E+20
  9
$PEXTMAX
 10
-1.000000000000000E+20
 20
-1.000000000000000E+20
 30
-1.000000000000000E+20
  9
$PLIMMIN
 10
0.0
 20
0.0
  9
$PLIMMAX
 10
12.0
 20
9.0
  9
$UNITMODE
 70
     0
  9
$VISRETAIN
 70
     1
  9
$PLINEGEN
 70
     0
  9
$PSLTSCALE
 70
     1
  9
$TREEDEPTH
 70
  3020
  9
$CMLSTYLE
  2
Standard
  9
$CMLJUST
 70
     0
  9
$CMLSCALE
 40
1.0
  9
$PROXYGRAPHICS
 70
     1
  9
$MEASUREMENT
 70
     0
  9
$CELWEIGHT
370
    -1
  9
$ENDCAPS
280
     0
  9
$JOINSTYLE
280
     0
  9
$LWDISPLAY
290
     0
  9
$INSUNITS
 70
     0
  9
$HYPERLINKBASE
  1

  9
$STYLESHEET
  1

  9
$XEDIT
290
     1
  9
$CEPSNTYPE
380
     0
  9
$PSTYLEMODE
290
     1
  9
$FINGERPRINTGUID
  2
{7099C731-2D10-4B36-8C40-7EB53F79AE83}
  9
$VERSIONGUID
  2
{57E73A9F-733E-4D68-9782-99FF78A31ECB}
  9
$EXTNAMES
290
     1
  9
$PSVPSCALE
 40
0.0
  9
$OLESTARTUP
290
     0
  0
ENDSEC
  0
SECTION
  2
CLASSES
  0
CLASS
  1
ACDBDICTIONARYWDFLT
  2
AcDbDictionaryWithDefault
  3
AutoCAD 2000
 90
        0
280
     0
281
     0
  0
CLASS
  1
ACDBPLACEHOLDER
  2
AcDbPlaceHolder
  3
AutoCAD 2000
 90
        0
280
     0
281
     0
  0
CLASS
  1
LAYOUT
  2
AcDbLayout
  3
AutoCAD 2000
 90
        0
280
     0
281
     0
  0
CLASS
  1
DICTIONARYVAR
  2
AcDbDictionaryVar
  3
AutoCAD 2000
 90
        0
280
     0
281
     0
  0
ENDSEC
  0
SECTION
  2
TABLES
  0
TABLE
  2
VPORT
  5
8
330
0
100
AcDbSymbolTable
 70
     4
  0
VPORT
  5
25F5
330
8
100
AcDbSymbolTableRecord
100
AcDbViewportTableRecord
  2
*Active
 70
     0
 10
0.0
 20
0.0
 11
1.0
 21
1.0
 12
69.91674999999999
 22
643.5
 13
0.0
 23
0.0
 14
1.0
 24
1.0
 15
0.0
 25
0.0
 16
0.0
 26
0.0
 36
1.0
 17
0.0
 27
0.0
 37
0.0
 40
711.4904509582864
 41
2.073363431151241
 42
50.0
 43
0.0
 44
0.0
 50
0.0
 51
0.0
 71
     0
 72
   100
 73
     1
 74
     3
 75
     0
 76
     0
 77
     0
 78
     0
281
     0
 65
     1
110
0.0
120
0.0
130
0.0
111
1.0
121
0.0
131
0.0
112
0.0
122
1.0
132
0.0
 79
     1
146
0.0
  0
ENDTAB
  0
TABLE
  2
LTYPE
  5
5
330
0
100
AcDbSymbolTable
 70
     1
  0
LTYPE
  5
13
330
5
100
AcDbSymbolTableRecord
100
AcDbLinetypeTableRecord
  2
ByBlock
 70
     0
  3

 72
    65
 73
     0
 40
0.0
  0
LTYPE
  5
14
330
5
100
AcDbSymbolTableRecord
100
AcDbLinetypeTableRecord
  2
ByLayer
 70
     0
  3

 72
    65
 73
     0
 40
0.0
  0
LTYPE
  5
15
330
5
100
AcDbSymbolTableRecord
100
AcDbLinetypeTableRecord
  2
Continuous
 70
     0
  3
Solid line
 72
    65
 73
     0
 40
0.0
  0
ENDTAB
  0
TABLE
  2
LAYER
  5
2
330
0
100
AcDbSymbolTable
 70
     1
  0
LAYER
  5
10
330
2
100
AcDbSymbolTableRecord
100
AcDbLayerTableRecord
  2
0
 70
     0
 62
     7
  6
Continuous
370
    -3
390
F
  0
ENDTAB
  0
TABLE
  2
STYLE
  5
3
330
0
100
AcDbSymbolTable
 70
     1
  0
STYLE
  5
11
330
3
100
AcDbSymbolTableRecord
100
AcDbTextStyleTableRecord
  2
Standard
 70
     0
 40
0.0
 41
1.0
 50
0.0
 71
     0
 42
0.2
  3
txt
  4

  0
ENDTAB
  0
TABLE
  2
VIEW
  5
6
330
0
100
AcDbSymbolTable
 70
     0
  0
ENDTAB
  0
TABLE
  2
UCS
  5
7
330
0
100
AcDbSymbolTable
 70
     0
  0
ENDTAB
  0
TABLE
  2
APPID
  5
9
330
0
100
AcDbSymbolTable
 70
     1
  0
APPID
  5
12
330
9
100
AcDbSymbolTableRecord
100
AcDbRegAppTableRecord
  2
ACAD
 70
     0
  0
ENDTAB
  0
TABLE
  2
DIMSTYLE
  5
A
330
0
100
AcDbSymbolTable
 70
     1
100
AcDbDimStyleTable
 71
     0
  0
DIMSTYLE
105
A22
330
A
100
AcDbSymbolTableRecord
100
AcDbDimStyleTableRecord
  2
Standard
 70
     0
340
11
  0
ENDTAB
  0
TABLE
  2
BLOCK_RECORD
  5
1
330
0
100
AcDbSymbolTable
 70
     2
  0
BLOCK_RECORD
  5
1E
330
1
100
AcDbSymbolTableRecord
100
AcDbBlockTableRecord
  2
*Model_Space
340
21
  0
BLOCK_RECORD
  5
1A
330
1
100
AcDbSymbolTableRecord
100
AcDbBlockTableRecord
  2
*Paper_Space
340
1D
  0
ENDTAB
  0
ENDSEC
  0
SECTION
  2
BLOCKS
  0
BLOCK
  5
1F
330
1E
100
AcDbEntity
  8
0
100
AcDbBlockBegin
  2
*Model_Space
 70
     0
 10
0.0
 20
0.0
 30
0.0
  3
*Model_Space
  1

  0
ENDBLK
  5
20
330
1E
100
AcDbEntity
  8
0
100
AcDbBlockEnd
  0
BLOCK
  5
1B
330
1A
100
AcDbEntity
 67
     1
  8
0
100
AcDbBlockBegin
  2
*Paper_Space
 70
     0
 10
0.0
 20
0.0
 30
0.0
  3
*Paper_Space
  1

  0
ENDBLK
  5
1C
330
1A
100
AcDbEntity
 67
     1
  8
0
100
AcDbBlockEnd
  0
ENDSEC
  0
SECTION
  2
ENTITIES
  0
LINE
  5
22
330
1E
100
AcDbEntity
  8
0
100
AcDbLine
 10
0.178245000000012
 20
675.4960000000001
 30
0.0
 11
0.448875000000011
 21
675.595
 31
0.0
  0
LINE
  5
23
330
1E
100
AcDbEntity
  8
0
100
AcDbLine
 10
0.0767650000000113
 20
675.4589999999999
 30
0.0
 11
0.214315000000011
 21
674.871
 31
0.0
  0
LINE
  5
24
330
1E
100
AcDbEntity
  8
0
100
AcDbLine
 10
0.0767650000000113
 20
675.4589999999999
 30
0.0
 11
0.178245000000012
 21
675.4960000000001
 31
0.0
  0
LINE
  5
25
330
1E
100
AcDbEntity
  8
0
100
AcDbLine
 10
0.888655000000012
 20
675.755
 30
0.0
 11
1.46374500000001
 21
675.9639999999999
 31
0.0
  0
LINE
  5
26
330
1E
100
AcDbEntity
  8
0
100
AcDbLine
 10
0.448875000000011
 20
675.595
 30
0.0
 11
0.888655000000012
 21
675.755
 31
0.0
  0
LINE
  5
27
330
1E
100
AcDbEntity
  8
0
100
AcDbLine
 10
0.214315000000011
 20
674.871
 30
0.0
 11
5.923235000000009
 21
659.185279711408
 31
0.0
  0
LINE
  5
28
330
1E
100
AcDbEntity
  8
0
100
AcDbLine
 10
0.923235000000011
 20
451.855
 30
0.0
 11
0.923235000000011
 21
428.8549999999999
 31
0.0
  0
LINE
  5
29
330
1E
100
AcDbEntity
  8
0
100
AcDbLine
 10
0.923235000000011
 20
451.855
 30
0.0
 11
1.52323500000001
 21
451.855
 31
0.0
  0
LINE
  5
2A
330
1E
100
AcDbEntity
  8
0
100
AcDbLine
 10
17.123235
 20
428.8549999999999
 30
0.0
 11
22.523235
 21
428.8549999999999
 31
0.0
  0
LINE
  5
2B
330
1E
100
AcDbEntity
  8
0
100
AcDbLine
 10
22.523235
 20
428.8549999999999
 30
0.0
 11
28.52323499999999
 21
428.8549999999999
 31
0.0
  0
LINE
  5
2C
330
1E
100
AcDbEntity
  8
0
100
AcDbLine
 10
28.52323499999999
 20
428.8549999999999
 30
0.0
 11
34.92323499999999
 21
428.8549999999999
 31
0.0
  0
LINE
  5
2D
330
1E
100
AcDbEntity
  8
0
100
AcDbLine
 10
34.92323499999999
 20
428.8549999999999
 30
0.0
 11
41.723235
 21
428.8549999999999
 31
0.0
  0
LINE
  5
2E
330
1E
100
AcDbEntity
  8
0
100
AcDbLine
 10
34.92323499999999
 20
428.8549999999999
 30
0.0
 11
40.52323499999999
 21
428.8549999999999
 31
0.0
  0
LINE
  5
2F
330
1E
100
AcDbEntity
  8
0
100
AcDbLine
 10
12.323235
 20
428.8549999999999
 30
0.0
 11
17.123235
 21
428.8549999999999
 31
0.0
  0
LINE
  5
30
330
1E
100
AcDbEntity
  8
0
100
AcDbLine
 10
8.323235000000009
 20
428.8549999999999
 30
0.0
 11
12.323235
 21
428.8549999999999
 31
0.0
  0
LINE
  5
31
330
1E
100
AcDbEntity
  8
0
100
AcDbLine
 10
5.223235000000009
 20
428.8549999999999
 30
0.0
 11
8.323235000000009
 21
428.8549999999999
 31
0.0
  0
LINE
  5
32
330
1E
100
AcDbEntity
  8
0
100
AcDbLine
 10
2.923235000000009
 20
428.8549999999999
 30
0.0
 11
5.223235000000009
 21
428.8549999999999
 31
0.0
  0
LINE
  5
33
330
1E
100
AcDbEntity
  8
0
100
AcDbLine
 10
1.46374500000001
 20
675.9639999999999
 30
0.0
 11
2.11777500000001
 21
676.2019999999999
 31
0.0
  0
LINE
  5
34
330
1E
100
AcDbEntity
  8
0
100
AcDbLine
 10
17.123235
 20
451.855
 30
0.0
 11
22.523235
 21
451.855
 31
0.0
  0
LINE
  5
35
330
1E
100
AcDbEntity
  8
0
100
AcDbLine
 10
22.523235
 20
451.855
 30
0.0
 11
28.52323499999999
 21
451.855
 31
0.0
  0
LINE
  5
36
330
1E
100
AcDbEntity
  8
0
100
AcDbLine
 10
28.52323499999999
 20
451.855
 30
0.0
 11
34.92323499999999
 21
451.855
 31
0.0
  0
LINE
  5
37
330
1E
100
AcDbEntity
  8
0
100
AcDbLine
 10
34.92323499999999
 20
451.855
 30
0.0
 11
41.723235
 21
451.855
 31
0.0
  0
LINE
  5
38
330
1E
100
AcDbEntity
  8
0
100
AcDbLine
 10
12.323235
 20
451.855
 30
0.0
 11
17.123235
 21
451.855
 31
0.0
  0
LINE
  5
39
330
1E
100
AcDbEntity
  8
0
100
AcDbLine
 10
8.323235000000009
 20
451.855
 30
0.0
 11
12.323235
 21
451.855
 31
0.0
  0
LINE
  5
3A
330
1E
100
AcDbEntity
  8
0
100
AcDbLine
 10
5.223235000000009
 20
451.855
 30
0.0
 11
8.323235000000009
 21
451.855
 31
0.0
  0
LINE
  5
3B
330
1E
100
AcDbEntity
  8
0
100
AcDbLine
 10
6.677081000000009
 20
628.86
 30
0.0
 11
37.83603499999999
 21
628.86
 31
0.0
  0
LINE
  5
3C
330
1E
100
AcDbEntity
  8
0
100
AcDbLine
 10
5.923235000000009
 20
631.6409999999999
 30
0.0
 11
5.923235000000009
 21
629.9339999999999
 31
0.0
  0
LINE
  5
3D
330
1E
100
AcDbEntity
  8
0
100
AcDbLine
 10
5.923235000000009
 20
631.6409999999999
 30
0.0
 11
5.923235000000009
 21
634.47
 31
0.0
  0
LINE
  5
3E
330
1E
100
AcDbEntity
  8
0
100
AcDbLine
 10
5.923235000000009
 20
638.0539999999999
 30
0.0
 11
5.923235000000009
 21
642.322
 31
0.0
  0
LINE
  5
3F
330
1E
100
AcDbEntity
  8
0
100
AcDbLine
 10
5.923235000000009
 20
638.0539999999999
 30
0.0
 11
5.923235000000009
 21
634.47
 31
0.0
  0
LINE
  5
40
330
1E
100
AcDbEntity
  8
0
100
AcDbLine
 10
5.923235000000009
 20
634.47
 30
0.0
 11
5.923235000000009
 21
638.0539999999999
 31
0.0
  0
LINE
  5
41
330
1E
100
AcDbEntity
  8
0
100
AcDbLine
 10
5.923235000000009
 20
634.47
 30
0.0
 11
5.923235000000009
 21
631.6409999999999
 31
0.0
  0
LINE
  5
42
330
1E
100
AcDbEntity
  8
0
100
AcDbLine
 10
5.923235000000009
 20
642.323
 30
0.0
 11
5.923235000000009
 21
638.071
 31
0.0
  0
LINE
  5
43
330
1E
100
AcDbEntity
  8
0
100
AcDbLine
 10
5.923235000000009
 20
642.323
 30
0.0
 11
5.923235000000009
 21
646.804
 31
0.0
  0
LINE
  5
44
330
1E
100
AcDbEntity
  8
0
100
AcDbLine
 10
5.923235000000009
 20
646.804
 30
0.0
 11
5.923235000000009
 21
642.323
 31
0.0
  0
LINE
  5
45
330
1E
100
AcDbEntity
  8
0
100
AcDbLine
 10
5.923235000000009
 20
646.804
 30
0.0
 11
5.923235000000009
 21
651.388
 31
0.0
  0
LINE
  5
46
330
1E
100
AcDbEntity
  8
0
100
AcDbLine
 10
5.923235000000009
 20
651.388
 30
0.0
 11
5.923235000000009
 21
646.804
 31
0.0
  0
LINE
  5
47
330
1E
100
AcDbEntity
  8
0
100
AcDbLine
 10
5.923235000000009
 20
651.388
 30
0.0
 11
5.923235000000009
 21
655.6560000000001
 31
0.0
  0
LINE
  5
48
330
1E
100
AcDbEntity
  8
0
100
AcDbLine
 10
5.923235000000009
 20
659.185279711408
 30
0.0
 11
5.923235000000009
 21
655.6389999999999
 31
0.0
  0
LINE
  5
49
330
1E
100
AcDbEntity
  8
0
100
AcDbLine
 10
5.923235000000009
 20
655.6560000000001
 30
0.0
 11
5.923235000000009
 21
651.388
 31
0.0
  0
LINE
  5
4A
330
1E
100
AcDbEntity
  8
0
100
AcDbLine
 10
5.923235000000009
 20
655.6560000000001
 30
0.0
 11
5.923235000000009
 21
659.24
 31
0.0
  0
LINE
  5
4B
330
1E
100
AcDbEntity
  8
0
100
AcDbLine
 10
2.828185000000009
 20
676.461
 30
0.0
 11
3.538595000000009
 21
676.7189999999999
 31
0.0
  0
LINE
  5
4C
330
1E
100
AcDbEntity
  8
0
100
AcDbLine
 10
2.11777500000001
 20
676.2019999999999
 30
0.0
 11
2.828185000000009
 21
676.461
 31
0.0
  0
LINE
  5
4D
330
1E
100
AcDbEntity
  8
0
100
AcDbLine
 10
3.538595000000009
 20
676.7189999999999
 30
0.0
 11
4.192615000000009
 21
676.9569999999999
 31
0.0
  0
LINE
  5
4E
330
1E
100
AcDbEntity
  8
0
100
AcDbLine
 10
4.192615000000009
 20
676.9569999999999
 30
0.0
 11
4.767705000000009
 21
677.1669999999999
 31
0.0
  0
LINE
  5
4F
330
1E
100
AcDbEntity
  8
0
100
AcDbLine
 10
4.767705000000009
 20
677.1669999999999
 30
0.0
 11
5.207484000000009
 21
677.327
 31
0.0
  0
LINE
  5
50
330
1E
100
AcDbEntity
  8
0
100
AcDbLine
 10
5.478115000000009
 20
677.4249999999999
 30
0.0
 11
5.579602000000009
 21
677.4619999999999
 31
0.0
  0
LINE
  5
51
330
1E
100
AcDbEntity
  8
0
100
AcDbLine
 10
5.207484000000009
 20
677.327
 30
0.0
 11
5.478115000000009
 21
677.4249999999999
 31
0.0
  0
LINE
  5
52
330
1E
100
AcDbEntity
  8
0
100
AcDbLine
 10
5.579602000000009
 20
677.4619999999999
 30
0.0
 11
5.852472000000009
 21
676.923
 31
0.0
  0
LINE
  5
53
330
1E
100
AcDbEntity
  8
0
100
AcDbLine
 10
5.852472000000009
 20
676.923
 30
0.0
 11
10.2467737714865
 21
664.85
 31
0.0
  0
LINE
  5
55
330
1E
100
AcDbEntity
  8
0
100
AcDbLine
 10
5.923235000000009
 20
659.24
 30
0.0
 11
5.923235000000009
 21
655.6560000000001
 31
0.0
  0
LINE
  5
59
330
1E
100
AcDbEntity
  8
0
100
AcDbLine
 10
5.923235000000009
 20
655.6389999999999
 30
0.0
 11
5.923235000000009
 21
651.3869999999999
 31
0.0
  0
LINE
  5
5A
330
1E
100
AcDbEntity
  8
0
100
AcDbLine
 10
5.923235000000009
 20
655.6389999999999
 30
0.0
 11
5.923235000000009
 21
659.185279711408
 31
0.0
  0
LINE
  5
5B
330
1E
100
AcDbEntity
  8
0
100
AcDbLine
 10
5.923235000000009
 20
651.3869999999999
 30
0.0
 11
5.923235000000009
 21
655.6389999999999
 31
0.0
  0
LINE
  5
5C
330
1E
100
AcDbEntity
  8
0
100
AcDbLine
 10
5.923235000000009
 20
651.3869999999999
 30
0.0
 11
5.923235000000009
 21
646.9059999999999
 31
0.0
  0
LINE
  5
5D
330
1E
100
AcDbEntity
  8
0
100
AcDbLine
 10
5.923235000000009
 20
646.9059999999999
 30
0.0
 11
5.923235000000009
 21
651.3869999999999
 31
0.0
  0
LINE
  5
5E
330
1E
100
AcDbEntity
  8
0
100
AcDbLine
 10
5.923235000000009
 20
646.9059999999999
 30
0.0
 11
5.923235000000009
 21
642.322
 31
0.0
  0
LINE
  5
5F
330
1E
100
AcDbEntity
  8
0
100
AcDbLine
 10
5.923235000000009
 20
642.322
 30
0.0
 11
5.923235000000009
 21
646.9059999999999
 31
0.0
  0
LINE
  5
60
330
1E
100
AcDbEntity
  8
0
100
AcDbLine
 10
5.923235000000009
 20
642.322
 30
0.0
 11
5.923235000000009
 21
638.0539999999999
 31
0.0
  0
LINE
  5
61
330
1E
100
AcDbEntity
  8
0
100
AcDbLine
 10
5.923235000000009
 20
638.071
 30
0.0
 11
5.923235000000009
 21
634.4669999999999
 31
0.0
  0
LINE
  5
62
330
1E
100
AcDbEntity
  8
0
100
AcDbLine
 10
5.923235000000009
 20
638.071
 30
0.0
 11
5.923235000000009
 21
642.323
 31
0.0
  0
LINE
  5
63
330
1E
100
AcDbEntity
  8
0
100
AcDbLine
 10
5.923235000000009
 20
634.4669999999999
 30
0.0
 11
5.923235000000009
 21
631.7140000000001
 31
0.0
  0
LINE
  5
64
330
1E
100
AcDbEntity
  8
0
100
AcDbLine
 10
5.923235000000009
 20
634.4669999999999
 30
0.0
 11
5.923235000000009
 21
638.071
 31
0.0
  0
LINE
  5
65
330
1E
100
AcDbEntity
  8
0
100
AcDbLine
 10
5.923235000000009
 20
631.7140000000001
 30
0.0
 11
5.923235000000009
 21
629.938
 31
0.0
  0
LINE
  5
66
330
1E
100
AcDbEntity
  8
0
100
AcDbLine
 10
5.923235000000009
 20
631.7140000000001
 30
0.0
 11
5.923235000000009
 21
634.4669999999999
 31
0.0
  0
LINE
  5
67
330
1E
100
AcDbEntity
  8
0
100
AcDbLine
 10
5.923235000000009
 20
629.938
 30
0.0
 11
5.923235000000009
 21
629.342
 31
0.0
  0
LINE
  5
68
330
1E
100
AcDbEntity
  8
0
100
AcDbLine
 10
5.923235000000009
 20
629.938
 30
0.0
 11
5.923235000000009
 21
631.7140000000001
 31
0.0
  0
LINE
  5
69
330
1E
100
AcDbEntity
  8
0
100
AcDbLine
 10
5.923235000000009
 20
629.342
 30
0.0
 11
5.923235000000009
 21
629.9339999999999
 31
0.0
  0
LINE
  5
6A
330
1E
100
AcDbEntity
  8
0
100
AcDbLine
 10
5.923235000000009
 20
629.342
 30
0.0
 11
6.677081000000009
 21
628.86
 31
0.0
  0
LINE
  5
6B
330
1E
100
AcDbEntity
  8
0
100
AcDbLine
 10
5.923235000000009
 20
629.342
 30
0.0
 11
5.923235000000009
 21
629.938
 31
0.0
  0
LINE
  5
6C
330
1E
100
AcDbEntity
  8
0
100
AcDbLine
 10
37.83603499999999
 20
664.85
 30
0.0
 11
38.589935
 21
664.368
 31
0.0
  0
LINE
  5
6D
330
1E
100
AcDbEntity
  8
0
100
AcDbLine
 10
10.2120136767519
 20
664.85
 30
0.0
 11
37.83603499999999
 21
664.85
 31
0.0
  0
LINE
  5
6E
330
1E
100
AcDbEntity
  8
0
100
AcDbLine
 10
10.2120136767519
 20
664.85
 30
0.0
 11
37.83603499999999
 21
664.85
 31
0.0
  0
LINE
  5
6F
330
1E
100
AcDbEntity
  8
0
100
AcDbLine
 10
5.923235000000009
 20
629.9339999999999
 30
0.0
 11
5.923235000000009
 21
631.6409999999999
 31
0.0
  0
LINE
  5
70
330
1E
100
AcDbEntity
  8
0
100
AcDbLine
 10
5.923235000000009
 20
629.9339999999999
 30
0.0
 11
5.923235000000009
 21
629.342
 31
0.0
  0
LINE
  5
71
330
1E
100
AcDbEntity
  8
0
100
AcDbLine
 10
6.677081000000009
 20
628.86
 30
0.0
 11
37.83603499999999
 21
628.86
 31
0.0
  0
LINE
  5
72
330
1E
100
AcDbEntity
  8
0
100
AcDbLine
 10
39.34373499999999
 20
628.86
 30
0.0
 11
44.923235
 21
628.86
 31
0.0
  0
LINE
  5
73
330
1E
100
AcDbEntity
  8
0
100
AcDbLine
 10
38.589935
 20
642.323
 30
0.0
 11
38.589935
 21
646.804
 31
0.0
  0
LINE
  5
74
330
1E
100
AcDbEntity
  8
0
100
AcDbLine
 10
38.589935
 20
642.323
 30
0.0
 11
38.589935
 21
638.071
 31
0.0
  0
LINE
  5
75
330
1E
100
AcDbEntity
  8
0
100
AcDbLine
 10
38.589935
 20
646.804
 30
0.0
 11
38.589935
 21
651.388
 31
0.0
  0
LINE
  5
76
330
1E
100
AcDbEntity
  8
0
100
AcDbLine
 10
38.589935
 20
646.804
 30
0.0
 11
38.589935
 21
642.323
 31
0.0
  0
LINE
  5
77
330
1E
100
AcDbEntity
  8
0
100
AcDbLine
 10
38.589935
 20
651.388
 30
0.0
 11
38.589935
 21
655.6560000000001
 31
0.0
  0
LINE
  5
78
330
1E
100
AcDbEntity
  8
0
100
AcDbLine
 10
38.589935
 20
651.388
 30
0.0
 11
38.589935
 21
646.804
 31
0.0
  0
LINE
  5
79
330
1E
100
AcDbEntity
  8
0
100
AcDbLine
 10
38.589935
 20
664.368
 30
0.0
 11
38.589935
 21
663.776
 31
0.0
  0
LINE
  5
7A
330
1E
100
AcDbEntity
  8
0
100
AcDbLine
 10
38.589935
 20
664.368
 30
0.0
 11
39.34373499999999
 21
664.85
 31
0.0
  0
LINE
  5
7B
330
1E
100
AcDbEntity
  8
0
100
AcDbLine
 10
38.589935
 20
663.776
 30
0.0
 11
38.589935
 21
664.368
 31
0.0
  0
LINE
  5
7C
330
1E
100
AcDbEntity
  8
0
100
AcDbLine
 10
38.589935
 20
663.776
 30
0.0
 11
38.589935
 21
662.0689999999999
 31
0.0
  0
LINE
  5
7D
330
1E
100
AcDbEntity
  8
0
100
AcDbLine
 10
38.589935
 20
662.0689999999999
 30
0.0
 11
38.589935
 21
659.24
 31
0.0
  0
LINE
  5
7E
330
1E
100
AcDbEntity
  8
0
100
AcDbLine
 10
38.589935
 20
662.0689999999999
 30
0.0
 11
38.589935
 21
663.776
 31
0.0
  0
LINE
  5
7F
330
1E
100
AcDbEntity
  8
0
100
AcDbLine
 10
38.589935
 20
655.6560000000001
 30
0.0
 11
38.589935
 21
659.24
 31
0.0
  0
LINE
  5
80
330
1E
100
AcDbEntity
  8
0
100
AcDbLine
 10
38.589935
 20
655.6560000000001
 30
0.0
 11
38.589935
 21
651.388
 31
0.0
  0
LINE
  5
81
330
1E
100
AcDbEntity
  8
0
100
AcDbLine
 10
38.589935
 20
659.24
 30
0.0
 11
38.589935
 21
662.0689999999999
 31
0.0
  0
LINE
  5
82
330
1E
100
AcDbEntity
  8
0
100
AcDbLine
 10
38.589935
 20
659.24
 30
0.0
 11
38.589935
 21
655.6560000000001
 31
0.0
  0
LINE
  5
83
330
1E
100
AcDbEntity
  8
0
100
AcDbLine
 10
38.589935
 20
638.071
 30
0.0
 11
38.589935
 21
634.4669999999999
 31
0.0
  0
LINE
  5
84
330
1E
100
AcDbEntity
  8
0
100
AcDbLine
 10
38.589935
 20
638.071
 30
0.0
 11
38.589935
 21
642.323
 31
0.0
  0
LINE
  5
85
330
1E
100
AcDbEntity
  8
0
100
AcDbLine
 10
38.589935
 20
634.4669999999999
 30
0.0
 11
38.589935
 21
638.071
 31
0.0
  0
LINE
  5
86
330
1E
100
AcDbEntity
  8
0
100
AcDbLine
 10
38.589935
 20
634.4669999999999
 30
0.0
 11
38.589935
 21
631.7140000000001
 31
0.0
  0
LINE
  5
87
330
1E
100
AcDbEntity
  8
0
100
AcDbLine
 10
38.589935
 20
631.7140000000001
 30
0.0
 11
38.589935
 21
634.4669999999999
 31
0.0
  0
LINE
  5
88
330
1E
100
AcDbEntity
  8
0
100
AcDbLine
 10
38.589935
 20
631.7140000000001
 30
0.0
 11
38.589935
 21
629.938
 31
0.0
  0
LINE
  5
89
330
1E
100
AcDbEntity
  8
0
100
AcDbLine
 10
39.34373499999999
 20
664.85
 30
0.0
 11
44.923235
 21
664.85
 31
0.0
  0
LINE
  5
8A
330
1E
100
AcDbEntity
  8
0
100
AcDbLine
 10
38.589935
 20
629.938
 30
0.0
 11
38.589935
 21
631.7140000000001
 31
0.0
  0
LINE
  5
8B
330
1E
100
AcDbEntity
  8
0
100
AcDbLine
 10
38.589935
 20
629.938
 30
0.0
 11
38.589935
 21
629.342
 31
0.0
  0
LINE
  5
8C
330
1E
100
AcDbEntity
  8
0
100
AcDbLine
 10
38.589935
 20
629.342
 30
0.0
 11
38.589935
 21
629.938
 31
0.0
  0
LINE
  5
8D
330
1E
100
AcDbEntity
  8
0
100
AcDbLine
 10
38.589935
 20
629.342
 30
0.0
 11
39.34373499999999
 21
628.86
 31
0.0
  0
LINE
  5
8E
330
1E
100
AcDbEntity
  8
0
100
AcDbLine
 10
37.83603499999999
 20
628.86
 30
0.0
 11
38.589935
 21
629.342
 31
0.0
  0
LINE
  5
8F
330
1E
100
AcDbEntity
  8
0
100
AcDbLine
 10
2.923235000000009
 20
451.855
 30
0.0
 11
5.223235000000009
 21
451.855
 31
0.0
  0
LINE
  5
90
330
1E
100
AcDbEntity
  8
0
100
AcDbLine
 10
1.52323500000001
 20
451.855
 30
0.0
 11
2.923235000000009
 21
451.855
 31
0.0
  0
LINE
  5
91
330
1E
100
AcDbEntity
  8
0
100
AcDbLine
 10
1.52323500000001
 20
428.8549999999999
 30
0.0
 11
2.923235000000009
 21
428.8549999999999
 31
0.0
  0
LINE
  5
92
330
1E
100
AcDbEntity
  8
0
100
AcDbLine
 10
0.923235000000011
 20
428.8549999999999
 30
0.0
 11
1.52323500000001
 21
428.8549999999999
 31
0.0
  0
LINE
  5
93
330
1E
100
AcDbEntity
  8
0
100
AcDbLine
 10
0.923235000000011
 20
428.8549999999999
 30
0.0
 11
0.923235000000011
 21
451.855
 31
0.0
  0
LINE
  5
96
330
1E
100
AcDbEntity
  8
0
100
AcDbLine
 10
40.52323499999999
 20
428.8549999999999
 30
0.0
 11
42.923235
 21
428.8549999999999
 31
0.0
  0
LINE
  5
A9
330
1E
100
AcDbEntity
  8
0
100
AcDbLine
 10
45.32323499999999
 20
329.355
 30
0.0
 11
46.42323499999999
 21
329.355
 31
0.0
  0
LINE
  5
AA
330
1E
100
AcDbEntity
  8
0
100
AcDbLine
 10
44.923235
 20
329.355
 30
0.0
 11
44.923235
 21
380.355
 31
0.0
  0
LINE
  5
AB
330
1E
100
AcDbEntity
  8
0
100
AcDbLine
 10
44.923235
 20
329.355
 30
0.0
 11
45.32323499999999
 21
329.355
 31
0.0
  0
LINE
  5
AC
330
1E
100
AcDbEntity
  8
0
100
AcDbLine
 10
44.923235
 20
329.355
 30
0.0
 11
45.423235
 21
328.855
 31
0.0
  0
LINE
  5
AD
330
1E
100
AcDbEntity
  8
0
100
AcDbLine
 10
45.823235
 20
328.855
 30
0.0
 11
46.82323499999999
 21
328.855
 31
0.0
  0
LINE
  5
AE
330
1E
100
AcDbEntity
  8
0
100
AcDbLine
 10
45.423235
 20
328.855
 30
0.0
 11
55.923235
 21
328.855
 31
0.0
  0
LINE
  5
AF
330
1E
100
AcDbEntity
  8
0
100
AcDbLine
 10
45.423235
 20
328.855
 30
0.0
 11
45.823235
 21
328.855
 31
0.0
  0
LINE
  5
B0
330
1E
100
AcDbEntity
  8
0
100
AcDbLine
 10
45.32323499999999
 20
380.355
 30
0.0
 11
46.42323499999999
 21
380.355
 31
0.0
  0
LINE
  5
B1
330
1E
100
AcDbEntity
  8
0
100
AcDbLine
 10
44.923235
 20
380.355
 30
0.0
 11
45.423235
 21
380.855
 31
0.0
  0
LINE
  5
B2
330
1E
100
AcDbEntity
  8
0
100
AcDbLine
 10
44.923235
 20
380.355
 30
0.0
 11
45.32323499999999
 21
380.355
 31
0.0
  0
LINE
  5
B3
330
1E
100
AcDbEntity
  8
0
100
AcDbLine
 10
44.923235
 20
380.355
 30
0.0
 11
44.923235
 21
329.355
 31
0.0
  0
LINE
  5
B4
330
1E
100
AcDbEntity
  8
0
100
AcDbLine
 10
46.82323499999999
 20
328.855
 30
0.0
 11
48.523235
 21
328.855
 31
0.0
  0
LINE
  5
B5
330
1E
100
AcDbEntity
  8
0
100
AcDbLine
 10
48.123235
 20
329.355
 30
0.0
 11
50.423235
 21
329.355
 31
0.0
  0
LINE
  5
B6
330
1E
100
AcDbEntity
  8
0
100
AcDbLine
 10
46.42323499999999
 20
329.355
 30
0.0
 11
48.123235
 21
329.355
 31
0.0
  0
LINE
  5
B7
330
1E
100
AcDbEntity
  8
0
100
AcDbLine
 10
48.523235
 20
328.855
 30
0.0
 11
50.72323499999999
 21
328.855
 31
0.0
  0
LINE
  5
B8
330
1E
100
AcDbEntity
  8
0
100
AcDbLine
 10
48.123235
 20
380.355
 30
0.0
 11
50.423235
 21
380.355
 31
0.0
  0
LINE
  5
B9
330
1E
100
AcDbEntity
  8
0
100
AcDbLine
 10
46.42323499999999
 20
380.355
 30
0.0
 11
48.123235
 21
380.355
 31
0.0
  0
LINE
  5
BA
330
1E
100
AcDbEntity
  8
0
100
AcDbLine
 10
50.72323499999999
 20
328.855
 30
0.0
 11
53.22323499999999
 21
328.855
 31
0.0
  0
LINE
  5
BB
330
1E
100
AcDbEntity
  8
0
100
AcDbLine
 10
53.123235
 20
329.355
 30
0.0
 11
55.923235
 21
329.355
 31
0.0
  0
LINE
  5
BC
330
1E
100
AcDbEntity
  8
0
100
AcDbLine
 10
50.423235
 20
329.355
 30
0.0
 11
53.123235
 21
329.355
 31
0.0
  0
LINE
  5
BD
330
1E
100
AcDbEntity
  8
0
100
AcDbLine
 10
53.22323499999999
 20
328.855
 30
0.0
 11
55.923235
 21
328.855
 31
0.0
  0
LINE
  5
BE
330
1E
100
AcDbEntity
  8
0
100
AcDbLine
 10
53.123235
 20
380.355
 30
0.0
 11
55.923235
 21
380.355
 31
0.0
  0
LINE
  5
BF
330
1E
100
AcDbEntity
  8
0
100
AcDbLine
 10
50.423235
 20
380.355
 30
0.0
 11
53.123235
 21
380.355
 31
0.0
  0
LINE
  5
C0
330
1E
100
AcDbEntity
  8
0
100
AcDbLine
 10
55.923235
 20
328.855
 30
0.0
 11
66.42323499999999
 21
328.855
 31
0.0
  0
LINE
  5
C1
330
1E
100
AcDbEntity
  8
0
100
AcDbLine
 10
55.923235
 20
328.855
 30
0.0
 11
58.623235
 21
328.855
 31
0.0
  0
LINE
  5
C2
330
1E
100
AcDbEntity
  8
0
100
AcDbLine
 10
55.923235
 20
329.355
 30
0.0
 11
58.723235
 21
329.355
 31
0.0
  0
LINE
  5
C3
330
1E
100
AcDbEntity
  8
0
100
AcDbLine
 10
55.923235
 20
380.355
 30
0.0
 11
58.723235
 21
380.355
 31
0.0
  0
LINE
  5
C4
330
1E
100
AcDbEntity
  8
0
100
AcDbLine
 10
55.923235
 20
380.855
 30
0.0
 11
58.623235
 21
380.855
 31
0.0
  0
LINE
  5
C5
330
1E
100
AcDbEntity
  8
0
100
AcDbLine
 10
53.22323499999999
 20
380.855
 30
0.0
 11
55.923235
 21
380.855
 31
0.0
  0
LINE
  5
C6
330
1E
100
AcDbEntity
  8
0
100
AcDbLine
 10
50.72323499999999
 20
380.855
 30
0.0
 11
53.22323499999999
 21
380.855
 31
0.0
  0
LINE
  5
C7
330
1E
100
AcDbEntity
  8
0
100
AcDbLine
 10
48.523235
 20
380.855
 30
0.0
 11
50.72323499999999
 21
380.855
 31
0.0
  0
LINE
  5
C8
330
1E
100
AcDbEntity
  8
0
100
AcDbLine
 10
46.82323499999999
 20
380.855
 30
0.0
 11
48.523235
 21
380.855
 31
0.0
  0
LINE
  5
C9
330
1E
100
AcDbEntity
  8
0
100
AcDbLine
 10
45.823235
 20
380.855
 30
0.0
 11
46.82323499999999
 21
380.855
 31
0.0
  0
LINE
  5
CA
330
1E
100
AcDbEntity
  8
0
100
AcDbLine
 10
44.63923499999999
 20
428.8549999999999
 30
0.0
 11
44.923235
 21
428.8549999999999
 31
0.0
  0
LINE
  5
CB
330
1E
100
AcDbEntity
  8
0
100
AcDbLine
 10
43.39123499999999
 20
428.8549999999999
 30
0.0
 11
44.63923499999999
 21
428.8549999999999
 31
0.0
  0
LINE
  5
CC
330
1E
100
AcDbEntity
  8
0
100
AcDbLine
 10
44.923235
 20
428.8549999999999
 30
0.0
 11
44.923235
 21
381.355
 31
0.0
  0
LINE
  5
CD
330
1E
100
AcDbEntity
  8
0
100
AcDbLine
 10
44.923235
 20
428.8549999999999
 30
0.0
 11
48.92323499999999
 21
428.8549999999999
 31
0.0
  0
LINE
  5
CE
330
1E
100
AcDbEntity
  8
0
100
AcDbLine
 10
55.923235
 20
381.355
 30
0.0
 11
58.723235
 21
381.355
 31
0.0
  0
LINE
  5
CF
330
1E
100
AcDbEntity
  8
0
100
AcDbLine
 10
53.123235
 20
381.355
 30
0.0
 11
55.923235
 21
381.355
 31
0.0
  0
LINE
  5
D0
330
1E
100
AcDbEntity
  8
0
100
AcDbLine
 10
50.423235
 20
381.355
 30
0.0
 11
53.123235
 21
381.355
 31
0.0
  0
LINE
  5
D1
330
1E
100
AcDbEntity
  8
0
100
AcDbLine
 10
48.123235
 20
381.355
 30
0.0
 11
50.423235
 21
381.355
 31
0.0
  0
LINE
  5
D2
330
1E
100
AcDbEntity
  8
0
100
AcDbLine
 10
46.42323499999999
 20
381.355
 30
0.0
 11
48.123235
 21
381.355
 31
0.0
  0
LINE
  5
D3
330
1E
100
AcDbEntity
  8
0
100
AcDbLine
 10
48.92323499999999
 20
428.8549999999999
 30
0.0
 11
55.923235
 21
428.8549999999999
 31
0.0
  0
LINE
  5
D4
330
1E
100
AcDbEntity
  8
0
100
AcDbLine
 10
45.32323499999999
 20
381.355
 30
0.0
 11
46.42323499999999
 21
381.355
 31
0.0
  0
LINE
  5
D5
330
1E
100
AcDbEntity
  8
0
100
AcDbLine
 10
44.923235
 20
381.355
 30
0.0
 11
45.32323499999999
 21
381.355
 31
0.0
  0
LINE
  5
D6
330
1E
100
AcDbEntity
  8
0
100
AcDbLine
 10
44.923235
 20
381.355
 30
0.0
 11
45.423235
 21
380.855
 31
0.0
  0
LINE
  5
D7
330
1E
100
AcDbEntity
  8
0
100
AcDbLine
 10
44.923235
 20
381.355
 30
0.0
 11
44.923235
 21
428.8549999999999
 31
0.0
  0
LINE
  5
D8
330
1E
100
AcDbEntity
  8
0
100
AcDbLine
 10
45.423235
 20
380.855
 30
0.0
 11
45.823235
 21
380.855
 31
0.0
  0
LINE
  5
D9
330
1E
100
AcDbEntity
  8
0
100
AcDbLine
 10
58.623235
 20
328.855
 30
0.0
 11
61.123235
 21
328.855
 31
0.0
  0
LINE
  5
DA
330
1E
100
AcDbEntity
  8
0
100
AcDbLine
 10
58.723235
 20
329.355
 30
0.0
 11
61.42323499999999
 21
329.355
 31
0.0
  0
LINE
  5
DB
330
1E
100
AcDbEntity
  8
0
100
AcDbLine
 10
61.123235
 20
328.855
 30
0.0
 11
63.323235
 21
328.855
 31
0.0
  0
LINE
  5
DC
330
1E
100
AcDbEntity
  8
0
100
AcDbLine
 10
58.723235
 20
380.355
 30
0.0
 11
61.42323499999999
 21
380.355
 31
0.0
  0
LINE
  5
DD
330
1E
100
AcDbEntity
  8
0
100
AcDbLine
 10
58.623235
 20
380.855
 30
0.0
 11
61.123235
 21
380.855
 31
0.0
  0
LINE
  5
DE
330
1E
100
AcDbEntity
  8
0
100
AcDbLine
 10
61.42323499999999
 20
329.355
 30
0.0
 11
63.723235
 21
329.355
 31
0.0
  0
LINE
  5
DF
330
1E
100
AcDbEntity
  8
0
100
AcDbLine
 10
63.323235
 20
328.855
 30
0.0
 11
65.023235
 21
328.855
 31
0.0
  0
LINE
  5
E0
330
1E
100
AcDbEntity
  8
0
100
AcDbLine
 10
65.023235
 20
328.855
 30
0.0
 11
66.023235
 21
328.855
 31
0.0
  0
LINE
  5
E1
330
1E
100
AcDbEntity
  8
0
100
AcDbLine
 10
63.723235
 20
329.355
 30
0.0
 11
65.42323499999999
 21
329.355
 31
0.0
  0
LINE
  5
E2
330
1E
100
AcDbEntity
  8
0
100
AcDbLine
 10
61.42323499999999
 20
380.355
 30
0.0
 11
63.723235
 21
380.355
 31
0.0
  0
LINE
  5
E3
330
1E
100
AcDbEntity
  8
0
100
AcDbLine
 10
63.723235
 20
380.355
 30
0.0
 11
65.42323499999999
 21
380.355
 31
0.0
  0
LINE
  5
E4
330
1E
100
AcDbEntity
  8
0
100
AcDbLine
 10
61.123235
 20
380.855
 30
0.0
 11
63.323235
 21
380.855
 31
0.0
  0
LINE
  5
E5
330
1E
100
AcDbEntity
  8
0
100
AcDbLine
 10
63.323235
 20
380.855
 30
0.0
 11
65.023235
 21
380.855
 31
0.0
  0
LINE
  5
E6
330
1E
100
AcDbEntity
  8
0
100
AcDbLine
 10
66.023235
 20
328.855
 30
0.0
 11
66.42323499999999
 21
328.855
 31
0.0
  0
LINE
  5
E7
330
1E
100
AcDbEntity
  8
0
100
AcDbLine
 10
65.42323499999999
 20
329.355
 30
0.0
 11
66.523235
 21
329.355
 31
0.0
  0
LINE
  5
E8
330
1E
100
AcDbEntity
  8
0
100
AcDbLine
 10
66.523235
 20
329.355
 30
0.0
 11
66.92323499999999
 21
329.355
 31
0.0
  0
LINE
  5
E9
330
1E
100
AcDbEntity
  8
0
100
AcDbLine
 10
65.42323499999999
 20
380.355
 30
0.0
 11
66.523235
 21
380.355
 31
0.0
  0
LINE
  5
EA
330
1E
100
AcDbEntity
  8
0
100
AcDbLine
 10
66.92323499999999
 20
329.355
 30
0.0
 11
66.92323499999999
 21
380.355
 31
0.0
  0
LINE
  5
EB
330
1E
100
AcDbEntity
  8
0
100
AcDbLine
 10
66.92323499999999
 20
380.355
 30
0.0
 11
66.92323499999999
 21
329.355
 31
0.0
  0
LINE
  5
EC
330
1E
100
AcDbEntity
  8
0
100
AcDbLine
 10
66.523235
 20
380.355
 30
0.0
 11
66.92323499999999
 21
380.355
 31
0.0
  0
LINE
  5
ED
330
1E
100
AcDbEntity
  8
0
100
AcDbLine
 10
66.42323499999999
 20
380.855
 30
0.0
 11
66.92323499999999
 21
380.355
 31
0.0
  0
LINE
  5
EE
330
1E
100
AcDbEntity
  8
0
100
AcDbLine
 10
66.42323499999999
 20
380.855
 30
0.0
 11
66.92323499999999
 21
381.355
 31
0.0
  0
LINE
  5
EF
330
1E
100
AcDbEntity
  8
0
100
AcDbLine
 10
65.023235
 20
380.855
 30
0.0
 11
66.023235
 21
380.855
 31
0.0
  0
LINE
  5
F0
330
1E
100
AcDbEntity
  8
0
100
AcDbLine
 10
58.723235
 20
381.355
 30
0.0
 11
61.42323499999999
 21
381.355
 31
0.0
  0
LINE
  5
F1
330
1E
100
AcDbEntity
  8
0
100
AcDbLine
 10
61.42323499999999
 20
381.355
 30
0.0
 11
63.723235
 21
381.355
 31
0.0
  0
LINE
  5
F2
330
1E
100
AcDbEntity
  8
0
100
AcDbLine
 10
63.723235
 20
381.355
 30
0.0
 11
65.42323499999999
 21
381.355
 31
0.0
  0
LINE
  5
F3
330
1E
100
AcDbEntity
  8
0
100
AcDbLine
 10
62.923235
 20
428.8549999999999
 30
0.0
 11
66.92323499999999
 21
428.8549999999999
 31
0.0
  0
LINE
  5
F4
330
1E
100
AcDbEntity
  8
0
100
AcDbLine
 10
65.42323499999999
 20
381.355
 30
0.0
 11
66.523235
 21
381.355
 31
0.0
  0
LINE
  5
F5
330
1E
100
AcDbEntity
  8
0
100
AcDbLine
 10
67.207235
 20
428.8549999999999
 30
0.0
 11
68.455235
 21
428.8549999999999
 31
0.0
  0
LINE
  5
F6
330
1E
100
AcDbEntity
  8
0
100
AcDbLine
 10
68.455235
 20
428.8549999999999
 30
0.0
 11
68.92323499999999
 21
428.8549999999999
 31
0.0
  0
LINE
  5
F7
330
1E
100
AcDbEntity
  8
0
100
AcDbLine
 10
66.92323499999999
 20
381.355
 30
0.0
 11
66.92323499999999
 21
428.8549999999999
 31
0.0
  0
LINE
  5
F8
330
1E
100
AcDbEntity
  8
0
100
AcDbLine
 10
66.92323499999999
 20
428.8549999999999
 30
0.0
 11
66.92323499999999
 21
381.355
 31
0.0
  0
LINE
  5
F9
330
1E
100
AcDbEntity
  8
0
100
AcDbLine
 10
66.92323499999999
 20
428.8549999999999
 30
0.0
 11
67.207235
 21
428.8549999999999
 31
0.0
  0
LINE
  5
FA
330
1E
100
AcDbEntity
  8
0
100
AcDbLine
 10
66.523235
 20
381.355
 30
0.0
 11
66.92323499999999
 21
381.355
 31
0.0
  0
LINE
  5
FB
330
1E
100
AcDbEntity
  8
0
100
AcDbLine
 10
66.023235
 20
380.855
 30
0.0
 11
66.42323499999999
 21
380.855
 31
0.0
  0
LINE
  5
FC
330
1E
100
AcDbEntity
  8
0
100
AcDbLine
 10
70.12323499999999
 20
428.8549999999999
 30
0.0
 11
76.92323499999999
 21
428.8549999999999
 31
0.0
  0
LINE
  5
FD
330
1E
100
AcDbEntity
  8
0
100
AcDbLine
 10
63.123235
 20
428.8549999999999
 30
0.0
 11
70.12323499999999
 21
428.8549999999999
 31
0.0
  0
LINE
  5
FE
330
1E
100
AcDbEntity
  8
0
100
AcDbLine
 10
71.323235
 20
428.8549999999999
 30
0.0
 11
76.92323499999999
 21
428.8549999999999
 31
0.0
  0
LINE
  5
FF
330
1E
100
AcDbEntity
  8
0
100
AcDbLine
 10
68.92323499999999
 20
428.8549999999999
 30
0.0
 11
71.323235
 21
428.8549999999999
 31
0.0
  0
LINE
  5
100
330
1E
100
AcDbEntity
  8
0
100
AcDbLine
 10
55.923235
 20
428.8549999999999
 30
0.0
 11
68.92323499999999
 21
428.8549999999999
 31
0.0
  0
LINE
  5
101
330
1E
100
AcDbEntity
  8
0
100
AcDbLine
 10
55.923235
 20
428.8549999999999
 30
0.0
 11
63.123235
 21
428.8549999999999
 31
0.0
  0
LINE
  5
102
330
1E
100
AcDbEntity
  8
0
100
AcDbLine
 10
55.923235
 20
428.8549999999999
 30
0.0
 11
62.923235
 21
428.8549999999999
 31
0.0
  0
LINE
  5
103
330
1E
100
AcDbEntity
  8
0
100
AcDbLine
 10
42.923235
 20
428.8549999999999
 30
0.0
 11
55.923235
 21
428.8549999999999
 31
0.0
  0
LINE
  5
104
330
1E
100
AcDbEntity
  8
0
100
AcDbLine
 10
42.923235
 20
428.8549999999999
 30
0.0
 11
43.39123499999999
 21
428.8549999999999
 31
0.0
  0
LINE
  5
105
330
1E
100
AcDbEntity
  8
0
100
AcDbLine
 10
41.723235
 20
428.8549999999999
 30
0.0
 11
48.723235
 21
428.8549999999999
 31
0.0
  0
LINE
  5
106
330
1E
100
AcDbEntity
  8
0
100
AcDbLine
 10
44.923235
 20
853.0718547385149
 30
0.0
 11
44.923235
 21
918.9493830424149
 31
0.0
  0
LINE
  5
107
330
1E
100
AcDbEntity
  8
0
100
AcDbLine
 10
44.923235
 20
918.9493830424149
 30
0.0
 11
44.923235
 21
853.0718547385149
 31
0.0
  0
LINE
  5
108
330
1E
100
AcDbEntity
  8
0
100
AcDbLine
 10
44.923235
 20
664.85
 30
0.0
 11
44.923235
 21
813.1162200255101
 31
0.0
  0
LINE
  5
109
330
1E
100
AcDbEntity
  8
0
100
AcDbLine
 10
41.723235
 20
451.855
 30
0.0
 11
48.723235
 21
451.855
 31
0.0
  0
LINE
  5
10A
330
1E
100
AcDbEntity
  8
0
100
AcDbLine
 10
66.92323499999999
 20
869.4649310258396
 30
0.0
 11
66.92323499999999
 21
918.86
 31
0.0
  0
LINE
  5
10B
330
1E
100
AcDbEntity
  8
0
100
AcDbLine
 10
70.12323499999999
 20
451.855
 30
0.0
 11
76.92323499999999
 21
451.855
 31
0.0
  0
LINE
  5
10C
330
1E
100
AcDbEntity
  8
0
100
AcDbLine
 10
63.123235
 20
451.855
 30
0.0
 11
70.12323499999999
 21
451.855
 31
0.0
  0
LINE
  5
10E
330
1E
100
AcDbEntity
  8
0
100
AcDbLine
 10
66.92323499999999
 20
664.85
 30
0.0
 11
75.92323499999999
 21
664.85
 31
0.0
  0
LINE
  5
10F
330
1E
100
AcDbEntity
  8
0
100
AcDbLine
 10
66.92323499999999
 20
628.86
 30
0.0
 11
75.92323499999999
 21
628.86
 31
0.0
  0
LINE
  5
110
330
1E
100
AcDbEntity
  8
0
100
AcDbLine
 10
66.92323499999999
 20
918.86
 30
0.0
 11
66.92323499999999
 21
869.4649310258396
 31
0.0
  0
LINE
  5
111
330
1E
100
AcDbEntity
  8
0
100
AcDbLine
 10
55.923235
 20
451.855
 30
0.0
 11
63.123235
 21
451.855
 31
0.0
  0
LINE
  5
112
330
1E
100
AcDbEntity
  8
0
100
AcDbLine
 10
48.723235
 20
451.855
 30
0.0
 11
55.923235
 21
451.855
 31
0.0
  0
LINE
  5
113
330
1E
100
AcDbEntity
  8
0
100
AcDbLine
 10
48.723235
 20
428.8549999999999
 30
0.0
 11
55.923235
 21
428.8549999999999
 31
0.0
  0
LINE
  5
116
330
1E
100
AcDbEntity
  8
0
100
AcDbLine
 10
75.92323499999999
 20
637.855
 30
0.0
 11
75.92323499999999
 21
642.1699999999999
 31
0.0
  0
LINE
  5
117
330
1E
100
AcDbEntity
  8
0
100
AcDbLine
 10
75.92323499999999
 20
637.855
 30
0.0
 11
75.92323499999999
 21
634.1879999999999
 31
0.0
  0
LINE
  5
118
330
1E
100
AcDbEntity
  8
0
100
AcDbLine
 10
75.92323499999999
 20
642.1699999999999
 30
0.0
 11
75.92323499999999
 21
646.7749999999999
 31
0.0
  0
LINE
  5
119
330
1E
100
AcDbEntity
  8
0
100
AcDbLine
 10
75.92323499999999
 20
642.1699999999999
 30
0.0
 11
75.92323499999999
 21
637.855
 31
0.0
  0
LINE
  5
11A
330
1E
100
AcDbEntity
  8
0
100
AcDbLine
 10
75.92323499999999
 20
646.7749999999999
 30
0.0
 11
75.92323499999999
 21
651.52
 31
0.0
  0
LINE
  5
11B
330
1E
100
AcDbEntity
  8
0
100
AcDbLine
 10
75.92323499999999
 20
646.7749999999999
 30
0.0
 11
75.92323499999999
 21
642.1699999999999
 31
0.0
  0
LINE
  5
11C
330
1E
100
AcDbEntity
  8
0
100
AcDbLine
 10
75.92323499999999
 20
651.52
 30
0.0
 11
75.92323499999999
 21
655.922
 31
0.0
  0
LINE
  5
11D
330
1E
100
AcDbEntity
  8
0
100
AcDbLine
 10
75.92323499999999
 20
651.52
 30
0.0
 11
75.92323499999999
 21
646.7749999999999
 31
0.0
  0
LINE
  5
11E
330
1E
100
AcDbEntity
  8
0
100
AcDbLine
 10
75.92323499999999
 20
655.922
 30
0.0
 11
75.92323499999999
 21
659.5779999999999
 31
0.0
  0
LINE
  5
11F
330
1E
100
AcDbEntity
  8
0
100
AcDbLine
 10
75.92323499999999
 20
655.922
 30
0.0
 11
75.92323499999999
 21
651.52
 31
0.0
  0
LINE
  5
121
330
1E
100
AcDbEntity
  8
0
100
AcDbLine
 10
75.92323499999999
 20
664.175
 30
0.0
 11
75.92323499999999
 21
702.281
 31
0.0
  0
LINE
  5
124
330
1E
100
AcDbEntity
  8
0
100
AcDbLine
 10
75.92323499999999
 20
664.175
 30
0.0
 11
75.92323499999999
 21
662.443
 31
0.0
  0
LINE
  5
125
330
1E
100
AcDbEntity
  8
0
100
AcDbLine
 10
75.92323499999999
 20
664.85
 30
0.0
 11
78.92323499999999
 21
664.85
 31
0.0
  0
LINE
  5
126
330
1E
100
AcDbEntity
  8
0
100
AcDbLine
 10
75.92323499999999
 20
664.85
 30
0.0
 11
75.92323499999999
 21
664.186
 31
0.0
  0
LINE
  5
127
330
1E
100
AcDbEntity
  8
0
100
AcDbLine
 10
75.92323499999999
 20
702.281
 30
0.0
 11
75.92323499999999
 21
664.175
 31
0.0
  0
LINE
  5
128
330
1E
100
AcDbEntity
  8
0
100
AcDbLine
 10
75.92323499999999
 20
702.281
 30
0.0
 11
76.42723499999999
 21
700.5169999999999
 31
0.0
  0
LINE
  5
129
330
1E
100
AcDbEntity
  8
0
100
AcDbLine
 10
75.92323499999999
 20
702.281
 30
0.0
 11
76.42723499999999
 21
704.044
 31
0.0
  0
LINE
  5
12A
330
1E
100
AcDbEntity
  8
0
100
AcDbLine
 10
75.92323499999999
 20
664.186
 30
0.0
 11
75.92323499999999
 21
664.85
 31
0.0
  0
LINE
  5
12B
330
1E
100
AcDbEntity
  8
0
100
AcDbLine
 10
75.92323499999999
 20
664.186
 30
0.0
 11
75.92323499999999
 21
662.443
 31
0.0
  0
LINE
  5
12C
330
1E
100
AcDbEntity
  8
0
100
AcDbLine
 10
75.92323499999999
 20
662.443
 30
0.0
 11
75.92323499999999
 21
664.186
 31
0.0
  0
LINE
  5
12D
330
1E
100
AcDbEntity
  8
0
100
AcDbLine
 10
75.92323499999999
 20
662.443
 30
0.0
 11
75.92323499999999
 21
664.175
 31
0.0
  0
LINE
  5
12E
330
1E
100
AcDbEntity
  8
0
100
AcDbLine
 10
75.92323499999999
 20
662.443
 30
0.0
 11
75.92323499999999
 21
659.5779999999999
 31
0.0
  0
LINE
  5
12F
330
1E
100
AcDbEntity
  8
0
100
AcDbLine
 10
75.92323499999999
 20
659.5779999999999
 30
0.0
 11
75.92323499999999
 21
662.443
 31
0.0
  0
LINE
  5
130
330
1E
100
AcDbEntity
  8
0
100
AcDbLine
 10
75.92323499999999
 20
659.5779999999999
 30
0.0
 11
75.92323499999999
 21
655.922
 31
0.0
  0
LINE
  5
131
330
1E
100
AcDbEntity
  8
0
100
AcDbLine
 10
75.92323499999999
 20
634.1879999999999
 30
0.0
 11
75.92323499999999
 21
637.855
 31
0.0
  0
LINE
  5
132
330
1E
100
AcDbEntity
  8
0
100
AcDbLine
 10
75.92323499999999
 20
634.1879999999999
 30
0.0
 11
75.92323499999999
 21
631.311
 31
0.0
  0
LINE
  5
133
330
1E
100
AcDbEntity
  8
0
100
AcDbLine
 10
75.92323499999999
 20
631.311
 30
0.0
 11
75.92323499999999
 21
634.1879999999999
 31
0.0
  0
LINE
  5
134
330
1E
100
AcDbEntity
  8
0
100
AcDbLine
 10
75.92323499999999
 20
631.311
 30
0.0
 11
75.92323499999999
 21
629.446
 31
0.0
  0
LINE
  5
135
330
1E
100
AcDbEntity
  8
0
100
AcDbLine
 10
75.92323499999999
 20
629.446
 30
0.0
 11
75.92323499999999
 21
631.311
 31
0.0
  0
LINE
  5
136
330
1E
100
AcDbEntity
  8
0
100
AcDbLine
 10
75.92323499999999
 20
629.446
 30
0.0
 11
75.92323499999999
 21
628.86
 31
0.0
  0
LINE
  5
137
330
1E
100
AcDbEntity
  8
0
100
AcDbLine
 10
75.92323499999999
 20
628.86
 30
0.0
 11
75.92323499999999
 21
629.446
 31
0.0
  0
LINE
  5
138
330
1E
100
AcDbEntity
  8
0
100
AcDbLine
 10
75.92323499999999
 20
628.86
 30
0.0
 11
81.92323499999998
 21
628.859
 31
0.0
  0
LINE
  5
139
330
1E
100
AcDbEntity
  8
0
100
AcDbLine
 10
75.86373499999999
 20
719.1310000000001
 30
0.0
 11
76.49133499999999
 21
704.333
 31
0.0
  0
LINE
  5
13A
330
1E
100
AcDbEntity
  8
0
100
AcDbLine
 10
75.19073500000001
 20
747.3339999999999
 30
0.0
 11
75.33563499999999
 21
737.8309999999999
 31
0.0
  0
LINE
  5
13B
330
1E
100
AcDbEntity
  8
0
100
AcDbLine
 10
75.183835
 20
747.9479999999999
 30
0.0
 11
75.19073500000001
 21
747.3339999999999
 31
0.0
  0
LINE
  5
13C
330
1E
100
AcDbEntity
  8
0
100
AcDbLine
 10
75.33563499999999
 20
737.8309999999999
 30
0.0
 11
75.55823499999999
 21
728.1539999999999
 31
0.0
  0
LINE
  5
13D
330
1E
100
AcDbEntity
  8
0
100
AcDbLine
 10
75.55823499999999
 20
728.1539999999999
 30
0.0
 11
75.755335
 21
721.447
 31
0.0
  0
LINE
  5
13E
330
1E
100
AcDbEntity
  8
0
100
AcDbLine
 10
76.28343499999999
 20
706.6569999999999
 30
0.0
 11
76.355435
 21
705.5579999999999
 31
0.0
  0
LINE
  5
13F
330
1E
100
AcDbEntity
  8
0
100
AcDbLine
 10
76.1201559418717
 20
713.084924318327
 30
0.0
 11
76.28343499999999
 21
706.6569999999999
 31
0.0
  0
LINE
  5
140
330
1E
100
AcDbEntity
  8
0
100
AcDbLine
 10
75.130635
 20
762.1110000000001
 30
0.0
 11
75.160235
 21
767.22
 31
0.0
  0
LINE
  5
2E3
330
1E
100
AcDbEntity
  8
0
100
AcDbLine
 10
44.923235
 20
628.86
 30
0.0
 11
44.92323499999996
 21
451.855
 31
0.0
  0
LINE
  5
2E4
330
1E
100
AcDbEntity
  8
0
100
AcDbLine
 10
66.92323499999999
 20
628.86
 30
0.0
 11
66.92323499999995
 21
451.855
 31
0.0
  0
LINE
  5
2E9
330
1E
100
AcDbEntity
  8
0
100
AcDbLine
 10
75.28833500000001
 20
776.4539999999999
 30
0.0
 11
75.511935
 21
785.4289999999999
 31
0.0
  0
LINE
  5
2EA
330
1E
100
AcDbEntity
  8
0
100
AcDbLine
 10
75.160235
 20
767.22
 30
0.0
 11
75.28833500000001
 21
776.4539999999999
 31
0.0
  0
LINE
  5
2EC
330
1E
100
AcDbEntity
  8
0
100
AcDbLine
 10
75.57203499999999
 20
787.2999999999999
 30
0.0
 11
75.62233499999999
 21
791.5079945812807
 31
0.0
  0
LINE
  5
2ED
330
1E
100
AcDbEntity
  8
0
100
AcDbLine
 10
75.513935
 20
785.473
 30
0.0
 11
75.57203499999999
 21
787.2999999999999
 31
0.0
  0
LINE
  5
321
330
1E
100
AcDbEntity
  8
0
100
AcDbLine
 10
75.126735
 20
757.243
 30
0.0
 11
75.130635
 21
762.1110000000001
 31
0.0
  0
LINE
  5
322
330
1E
100
AcDbEntity
  8
0
100
AcDbLine
 10
75.126735
 20
757.243
 30
0.0
 11
75.183835
 21
747.9479999999999
 31
0.0
  0
LINE
  5
329
330
1E
100
AcDbEntity
  8
0
100
AcDbLine
 10
76.42723499999999
 20
700.5169999999999
 30
0.0
 11
77.771235
 21
698.863
 31
0.0
  0
LINE
  5
32A
330
1E
100
AcDbEntity
  8
0
100
AcDbLine
 10
76.92323499999999
 20
451.855
 30
0.0
 11
83.32323499999999
 21
451.855
 31
0.0
  0
LINE
  5
331
330
1E
100
AcDbEntity
  8
0
100
AcDbLine
 10
77.771235
 20
698.863
 30
0.0
 11
80.011235
 21
697.4029999999999
 31
0.0
  0
LINE
  5
332
330
1E
100
AcDbEntity
  8
0
100
AcDbLine
 10
78.63349231967159
 20
699.0172030517419
 30
0.0
 11
79.92323499999999
 21
676.6779999999999
 31
0.0
  0
LINE
  5
333
330
1E
100
AcDbEntity
  8
0
100
AcDbLine
 10
76.92323499999999
 20
428.8549999999999
 30
0.0
 11
83.32323499999999
 21
428.8549999999999
 31
0.0
  0
LINE
  5
334
330
1E
100
AcDbEntity
  8
0
100
AcDbLine
 10
77.980135
 20
699.8919999999999
 30
0.0
 11
78.61083499999999
 21
699.0429999999999
 31
0.0
  0
LINE
  5
335
330
1E
100
AcDbEntity
  8
0
100
AcDbLine
 10
78.61083499999999
 20
699.0429999999999
 30
0.0
 11
78.724135
 21
698.9139999999999
 31
0.0
  0
LINE
  5
336
330
1E
100
AcDbEntity
  8
0
100
AcDbLine
 10
78.92323499999999
 20
629.5239999999999
 30
0.0
 11
81.92323499999998
 21
628.859
 31
0.0
  0
LINE
  5
337
330
1E
100
AcDbEntity
  8
0
100
AcDbLine
 10
78.92323499999999
 20
629.5239999999999
 30
0.0
 11
78.92323499999999
 21
631.2669999999999
 31
0.0
  0
LINE
  5
338
330
1E
100
AcDbEntity
  8
0
100
AcDbLine
 10
78.92323499999999
 20
629.5239999999999
 30
0.0
 11
78.92323499999999
 21
659.5779999999999
 31
0.0
  0
LINE
  5
339
330
1E
100
AcDbEntity
  8
0
100
AcDbLine
 10
78.92323499999999
 20
631.2669999999999
 30
0.0
 11
78.92323499999999
 21
634.1319999999999
 31
0.0
  0
LINE
  5
33A
330
1E
100
AcDbEntity
  8
0
100
AcDbLine
 10
78.92323499999999
 20
631.2669999999999
 30
0.0
 11
78.92323499999999
 21
629.5239999999999
 31
0.0
  0
LINE
  5
33B
330
1E
100
AcDbEntity
  8
0
100
AcDbLine
 10
78.92323499999999
 20
631.2669999999999
 30
0.0
 11
78.92323499999999
 21
662.443
 31
0.0
  0
LINE
  5
33C
330
1E
100
AcDbEntity
  8
0
100
AcDbLine
 10
78.92323499999999
 20
634.1319999999999
 30
0.0
 11
78.92323499999999
 21
631.2669999999999
 31
0.0
  0
LINE
  5
33D
330
1E
100
AcDbEntity
  8
0
100
AcDbLine
 10
78.92323499999999
 20
634.1319999999999
 30
0.0
 11
78.92323499999999
 21
637.788
 31
0.0
  0
LINE
  5
33E
330
1E
100
AcDbEntity
  8
0
100
AcDbLine
 10
78.92323499999999
 20
637.788
 30
0.0
 11
78.92323499999999
 21
634.1319999999999
 31
0.0
  0
LINE
  5
33F
330
1E
100
AcDbEntity
  8
0
100
AcDbLine
 10
78.92323499999999
 20
637.788
 30
0.0
 11
78.92323499999999
 21
642.19
 31
0.0
  0
LINE
  5
340
330
1E
100
AcDbEntity
  8
0
100
AcDbLine
 10
78.92323499999999
 20
646.855
 30
0.0
 11
78.92323499999999
 21
631.2669999999999
 31
0.0
  0
LINE
  5
341
330
1E
100
AcDbEntity
  8
0
100
AcDbLine
 10
78.92323499999999
 20
642.19
 30
0.0
 11
78.92323499999999
 21
637.788
 31
0.0
  0
LINE
  5
342
330
1E
100
AcDbEntity
  8
0
100
AcDbLine
 10
78.92323499999999
 20
642.19
 30
0.0
 11
78.92323499999999
 21
646.9349999999999
 31
0.0
  0
LINE
  5
343
330
1E
100
AcDbEntity
  8
0
100
AcDbLine
 10
78.92323499999999
 20
646.9349999999999
 30
0.0
 11
78.92323499999999
 21
642.19
 31
0.0
  0
LINE
  5
344
330
1E
100
AcDbEntity
  8
0
100
AcDbLine
 10
78.92323499999999
 20
646.9349999999999
 30
0.0
 11
78.92323499999999
 21
651.5399999999999
 31
0.0
  0
LINE
  5
345
330
1E
100
AcDbEntity
  8
0
100
AcDbLine
 10
78.92323499999999
 20
651.5399999999999
 30
0.0
 11
78.92323499999999
 21
646.9349999999999
 31
0.0
  0
LINE
  5
346
330
1E
100
AcDbEntity
  8
0
100
AcDbLine
 10
78.92323499999999
 20
651.5399999999999
 30
0.0
 11
78.92323499999999
 21
655.855
 31
0.0
  0
LINE
  5
347
330
1E
100
AcDbEntity
  8
0
100
AcDbLine
 10
78.92323499999999
 20
655.855
 30
0.0
 11
78.92323499999999
 21
659.5219999999999
 31
0.0
  0
LINE
  5
348
330
1E
100
AcDbEntity
  8
0
100
AcDbLine
 10
78.92323499999999
 20
655.855
 30
0.0
 11
78.92323499999999
 21
651.5399999999999
 31
0.0
  0
LINE
  5
34A
330
1E
100
AcDbEntity
  8
0
100
AcDbLine
 10
78.92323499999999
 20
659.5779999999999
 30
0.0
 11
78.92323499999999
 21
662.443
 31
0.0
  0
LINE
  5
34B
330
1E
100
AcDbEntity
  8
0
100
AcDbLine
 10
78.92323499999999
 20
659.5779999999999
 30
0.0
 11
78.92323499999999
 21
629.5239999999999
 31
0.0
  0
LINE
  5
34C
330
1E
100
AcDbEntity
  8
0
100
AcDbLine
 10
78.92323499999999
 20
662.443
 30
0.0
 11
78.92323499999999
 21
664.186
 31
0.0
  0
LINE
  5
34D
330
1E
100
AcDbEntity
  8
0
100
AcDbLine
 10
78.92323499999999
 20
662.443
 30
0.0
 11
78.92323499999999
 21
646.855
 31
0.0
  0
LINE
  5
34E
330
1E
100
AcDbEntity
  8
0
100
AcDbLine
 10
78.92323499999999
 20
662.443
 30
0.0
 11
78.92323499999999
 21
659.5779999999999
 31
0.0
  0
LINE
  5
34F
330
1E
100
AcDbEntity
  8
0
100
AcDbLine
 10
78.92323499999999
 20
664.186
 30
0.0
 11
78.92323499999999
 21
664.85
 31
0.0
  0
LINE
  5
350
330
1E
100
AcDbEntity
  8
0
100
AcDbLine
 10
78.92323499999999
 20
664.186
 30
0.0
 11
78.92323499999999
 21
662.443
 31
0.0
  0
LINE
  5
351
330
1E
100
AcDbEntity
  8
0
100
AcDbLine
 10
78.92323499999999
 20
664.85
 30
0.0
 11
78.92323499999999
 21
664.2639999999999
 31
0.0
  0
LINE
  5
352
330
1E
100
AcDbEntity
  8
0
100
AcDbLine
 10
78.92323499999999
 20
664.85
 30
0.0
 11
78.92323499999999
 21
664.186
 31
0.0
  0
LINE
  5
353
330
1E
100
AcDbEntity
  8
0
100
AcDbLine
 10
78.92323499999999
 20
664.2639999999999
 30
0.0
 11
78.92323499999999
 21
662.3989999999999
 31
0.0
  0
LINE
  5
354
330
1E
100
AcDbEntity
  8
0
100
AcDbLine
 10
78.92323499999999
 20
664.2639999999999
 30
0.0
 11
78.92323499999999
 21
664.85
 31
0.0
  0
LINE
  5
355
330
1E
100
AcDbEntity
  8
0
100
AcDbLine
 10
78.92323499999999
 20
662.3989999999999
 30
0.0
 11
78.92323499999999
 21
659.5219999999999
 31
0.0
  0
LINE
  5
356
330
1E
100
AcDbEntity
  8
0
100
AcDbLine
 10
78.92323499999999
 20
662.3989999999999
 30
0.0
 11
78.92323499999999
 21
664.2639999999999
 31
0.0
  0
LINE
  5
357
330
1E
100
AcDbEntity
  8
0
100
AcDbLine
 10
78.92323499999999
 20
659.5219999999999
 30
0.0
 11
78.92323499999999
 21
655.855
 31
0.0
  0
LINE
  5
358
330
1E
100
AcDbEntity
  8
0
100
AcDbLine
 10
78.92323499999999
 20
659.5219999999999
 30
0.0
 11
78.92323499999999
 21
662.3989999999999
 31
0.0
  0
LINE
  5
35A
330
1E
100
AcDbEntity
  8
0
100
AcDbLine
 10
78.92323499999999
 20
638.195
 30
0.0
 11
78.92323499999999
 21
664.175
 31
0.0
  0
LINE
  5
35C
330
1E
100
AcDbEntity
  8
0
100
AcDbLine
 10
78.92323499999999
 20
693.9986666666659
 30
0.0
 11
78.92323499999999
 21
664.175
 31
0.0
  0
LINE
  5
362
330
1E
100
AcDbEntity
  8
0
100
AcDbLine
 10
78.92323499999999
 20
664.175
 30
0.0
 11
78.92323499999999
 21
693.9986666666659
 31
0.0
  0
LINE
  5
364
330
1E
100
AcDbEntity
  8
0
100
AcDbLine
 10
78.92323499999999
 20
664.175
 30
0.0
 11
78.92323499999999
 21
638.195
 31
0.0
  0
LINE
  5
36F
330
1E
100
AcDbEntity
  8
0
100
AcDbLine
 10
81.11303499999999
 20
290.145
 30
0.0
 11
81.34691810158091
 21
428.8549999999999
 31
0.0
  0
LINE
  5
370
330
1E
100
AcDbEntity
  8
0
100
AcDbLine
 10
81.11303499999999
 20
290.145
 30
0.0
 11
81.37613499999998
 21
290.274
 31
0.0
  0
LINE
  5
371
330
1E
100
AcDbEntity
  8
0
100
AcDbLine
 10
81.11303499999999
 20
290.145
 30
0.0
 11
81.34691810158091
 21
428.8549999999999
 31
0.0
  0
LINE
  5
372
330
1E
100
AcDbEntity
  8
0
100
AcDbLine
 10
81.4238350000191
 20
290.2974000000093
 30
0.0
 11
82.149035
 21
290.653
 31
0.0
  0
LINE
  5
373
330
1E
100
AcDbEntity
  8
0
100
AcDbLine
 10
81.3856990931198
 20
451.855
 30
0.0
 11
81.99883499999994
 21
525.490000000118
 31
0.0
  0
LINE
  5
374
330
1E
100
AcDbEntity
  8
0
100
AcDbLine
 10
81.37613499999998
 20
290.274
 30
0.0
 11
82.807135
 21
290.9759999999999
 31
0.0
  0
LINE
  5
375
330
1E
100
AcDbEntity
  8
0
100
AcDbLine
 10
82.149035
 20
290.653
 30
0.0
 11
84.086935
 21
291.6039999999999
 31
0.0
  0
LINE
  5
376
330
1E
100
AcDbEntity
  8
0
100
AcDbLine
 10
81.982935
 20
558.4909999999999
 30
0.0
 11
81.998835
 21
525.49
 31
0.0
  0
LINE
  5
377
330
1E
100
AcDbEntity
  8
0
100
AcDbLine
 10
81.95483499999999
 20
581.488
 30
0.0
 11
81.982935
 21
558.4909999999999
 31
0.0
  0
LINE
  5
378
330
1E
100
AcDbEntity
  8
0
100
AcDbLine
 10
81.92323499999998
 20
628.859
 30
0.0
 11
81.92323499999998
 21
629.443
 31
0.0
  0
LINE
  5
379
330
1E
100
AcDbEntity
  8
0
100
AcDbLine
 10
81.92323499999998
 20
628.859
 30
0.0
 11
81.92323499999998
 21
655.921
 31
0.0
  0
LINE
  5
37A
330
1E
100
AcDbEntity
  8
0
100
AcDbLine
 10
81.92323499999998
 20
629.443
 30
0.0
 11
81.92323499999998
 21
631.311
 31
0.0
  0
LINE
  5
37B
330
1E
100
AcDbEntity
  8
0
100
AcDbLine
 10
81.92323499999998
 20
629.443
 30
0.0
 11
81.92323499999998
 21
628.859
 31
0.0
  0
LINE
  5
37C
330
1E
100
AcDbEntity
  8
0
100
AcDbLine
 10
81.92323499999998
 20
631.311
 30
0.0
 11
81.92323499999998
 21
634.1639999999999
 31
0.0
  0
LINE
  5
37D
330
1E
100
AcDbEntity
  8
0
100
AcDbLine
 10
81.92323499999998
 20
631.311
 30
0.0
 11
81.92323499999998
 21
629.443
 31
0.0
  0
LINE
  5
37E
330
1E
100
AcDbEntity
  8
0
100
AcDbLine
 10
81.92323499999998
 20
634.1639999999999
 30
0.0
 11
81.92323499999998
 21
637.855
 31
0.0
  0
LINE
  5
37F
330
1E
100
AcDbEntity
  8
0
100
AcDbLine
 10
81.92323499999998
 20
634.1639999999999
 30
0.0
 11
81.92323499999998
 21
631.311
 31
0.0
  0
LINE
  5
380
330
1E
100
AcDbEntity
  8
0
100
AcDbLine
 10
81.92323499999998
 20
651.5169999999999
 30
0.0
 11
81.92323499999998
 21
655.921
 31
0.0
  0
LINE
  5
381
330
1E
100
AcDbEntity
  8
0
100
AcDbLine
 10
81.92323499999998
 20
651.5169999999999
 30
0.0
 11
81.92323499999998
 21
646.7749999999999
 31
0.0
  0
LINE
  5
382
330
1E
100
AcDbEntity
  8
0
100
AcDbLine
 10
81.92323499999998
 20
646.7749999999999
 30
0.0
 11
81.92323499999998
 21
651.5169999999999
 31
0.0
  0
LINE
  5
383
330
1E
100
AcDbEntity
  8
0
100
AcDbLine
 10
81.92323499999998
 20
646.7749999999999
 30
0.0
 11
81.92323499999998
 21
642.1459999999999
 31
0.0
  0
LINE
  5
384
330
1E
100
AcDbEntity
  8
0
100
AcDbLine
 10
81.92323499999998
 20
642.1459999999999
 30
0.0
 11
81.92323499999998
 21
646.7749999999999
 31
0.0
  0
LINE
  5
385
330
1E
100
AcDbEntity
  8
0
100
AcDbLine
 10
81.92323499999998
 20
642.1459999999999
 30
0.0
 11
81.92323499999998
 21
637.855
 31
0.0
  0
LINE
  5
386
330
1E
100
AcDbEntity
  8
0
100
AcDbLine
 10
81.92323499999998
 20
637.855
 30
0.0
 11
81.92323499999998
 21
642.1459999999999
 31
0.0
  0
LINE
  5
387
330
1E
100
AcDbEntity
  8
0
100
AcDbLine
 10
81.92323499999998
 20
637.855
 30
0.0
 11
81.92323499999998
 21
634.1639999999999
 31
0.0
  0
LINE
  5
388
330
1E
100
AcDbEntity
  8
0
100
AcDbLine
 10
81.92323499999998
 20
635.1469999999999
 30
0.0
 11
81.92323499999998
 21
673.7186249999999
 31
0.0
  0
LINE
  5
389
330
1E
100
AcDbEntity
  8
0
100
AcDbLine
 10
81.92323499999998
 20
635.1469999999999
 30
0.0
 11
81.93063499999999
 21
633.3309999999999
 31
0.0
  0
LINE
  5
38A
330
1E
100
AcDbEntity
  8
0
100
AcDbLine
 10
81.912935
 20
606.285
 30
0.0
 11
81.95483499999999
 21
581.488
 31
0.0
  0
LINE
  5
38B
330
1E
100
AcDbEntity
  8
0
100
AcDbLine
 10
81.859035
 20
631.3819999999999
 30
0.0
 11
81.912935
 21
606.285
 31
0.0
  0
LINE
  5
38C
330
1E
100
AcDbEntity
  8
0
100
AcDbLine
 10
81.92323499999998
 20
655.921
 30
0.0
 11
81.92323499999998
 21
628.859
 31
0.0
  0
LINE
  5
38D
330
1E
100
AcDbEntity
  8
0
100
AcDbLine
 10
81.92323499999998
 20
655.921
 30
0.0
 11
81.92323499999998
 21
651.5169999999999
 31
0.0
  0
LINE
  5
38E
330
1E
100
AcDbEntity
  8
0
100
AcDbLine
 10
81.92323499999998
 20
673.7186249999999
 30
0.0
 11
81.92323499999998
 21
658.5650000000001
 31
0.0
  0
LINE
  5
390
330
1E
100
AcDbEntity
  8
0
100
AcDbLine
 10
81.92323499999998
 20
673.7186249999999
 30
0.0
 11
81.92323499999998
 21
635.1469999999999
 31
0.0
  0
LINE
  5
392
330
1E
100
AcDbEntity
  8
0
100
AcDbLine
 10
81.92323499999998
 20
658.5650000000001
 30
0.0
 11
81.92323499999998
 21
673.7186249999999
 31
0.0
  0
LINE
  5
393
330
1E
100
AcDbEntity
  8
0
100
AcDbLine
 10
81.92323499999998
 20
658.5650000000001
 30
0.0
 11
81.93063499999999
 21
633.3309999999999
 31
0.0
  0
LINE
  5
396
330
1E
100
AcDbEntity
  8
0
100
AcDbLine
 10
81.223235
 20
674.178
 30
0.0
 11
82.823235
 21
673.128
 31
0.0
  0
LINE
  5
397
330
1E
100
AcDbEntity
  8
0
100
AcDbLine
 10
80.323235
 20
675.378
 30
0.0
 11
81.223235
 21
674.178
 31
0.0
  0
LINE
  5
398
330
1E
100
AcDbEntity
  8
0
100
AcDbLine
 10
79.92323499999999
 20
676.6779999999999
 30
0.0
 11
80.323235
 21
675.378
 31
0.0
  0
LINE
  5
39E
330
1E
100
AcDbEntity
  8
0
100
AcDbLine
 10
80.421835
 20
697.422
 30
0.0
 11
81.50963500000001
 21
696.7660000000001
 31
0.0
  0
LINE
  5
39F
330
1E
100
AcDbEntity
  8
0
100
AcDbLine
 10
81.50963500000001
 20
696.7660000000001
 30
0.0
 11
82.74223499999999
 21
696.1789999999999
 31
0.0
  0
LINE
  5
3A0
330
1E
100
AcDbEntity
  8
0
100
AcDbLine
 10
84.086935
 20
291.6039999999999
 30
0.0
 11
85.51405823016608
 21
292.3048604325714
 31
0.0
  0
LINE
  5
3A1
330
1E
100
AcDbEntity
  8
0
100
AcDbLine
 10
82.807135
 20
290.9759999999999
 30
0.0
 11
85.204535
 21
292.153
 31
0.0
  0
LINE
  5
3A2
330
1E
100
AcDbEntity
  8
0
100
AcDbLine
 10
85.204535
 20
292.153
 30
0.0
 11
88.11713500000001
 21
293.582
 31
0.0
  0
LINE
  5
3A3
330
1E
100
AcDbEntity
  8
0
100
AcDbLine
 10
82.823235
 20
673.128
 30
0.0
 11
84.92323499999999
 21
672.3279999999999
 31
0.0
  0
LINE
  5
3A9
330
1E
100
AcDbEntity
  8
0
100
AcDbLine
 10
84.92323499999999
 20
672.3279999999999
 30
0.0
 11
87.32323499999999
 21
671.878
 31
0.0
  0
LINE
  5
3AA
330
1E
100
AcDbEntity
  8
0
100
AcDbLine
 10
83.32323499999999
 20
451.855
 30
0.0
 11
89.323235
 21
451.855
 31
0.0
  0
LINE
  5
3AB
330
1E
100
AcDbEntity
  8
0
100
AcDbLine
 10
83.32323499999999
 20
428.8549999999999
 30
0.0
 11
89.323235
 21
428.8549999999999
 31
0.0
  0
LINE
  5
3AC
330
1E
100
AcDbEntity
  8
0
100
AcDbLine
 10
88.11713500000001
 20
293.582
 30
0.0
 11
91.266835
 21
295.127
 31
0.0
  0
LINE
  5
3AE
330
1E
100
AcDbEntity
  8
0
100
AcDbLine
 10
87.32323499999999
 20
671.878
 30
0.0
 11
89.92323499999999
 21
671.6779999999999
 31
0.0
  0
LINE
  5
3B1
330
1E
100
AcDbEntity
  8
0
100
AcDbLine
 10
89.92323499999999
 20
671.6779999999999
 30
0.0
 11
92.52323500000001
 21
671.878
 31
0.0
  0
LINE
  5
3B2
330
1E
100
AcDbEntity
  8
0
100
AcDbLine
 10
89.323235
 20
451.855
 30
0.0
 11
94.72323499999999
 21
451.855
 31
0.0
  0
LINE
  5
3B3
330
1E
100
AcDbEntity
  8
0
100
AcDbLine
 10
89.323235
 20
428.8549999999999
 30
0.0
 11
94.72323499999999
 21
428.8549999999999
 31
0.0
  0
LINE
  5
3BC
330
1E
100
AcDbEntity
  8
0
100
AcDbLine
 10
87.708235
 20
694.945
 30
0.0
 11
89.92323499999999
 21
694.822
 31
0.0
  0
LINE
  5
3BD
330
1E
100
AcDbEntity
  8
0
100
AcDbLine
 10
91.266835
 20
295.127
 30
0.0
 11
94.06583499999999
 21
296.5009999999999
 31
0.0
  0
LINE
  5
3BF
330
1E
100
AcDbEntity
  8
0
100
AcDbLine
 10
92.235289698634
 20
295.6024043429522
 30
0.0
 11
92.93783499999999
 21
295.9469999999999
 31
0.0
  0
LINE
  5
3C0
330
1E
100
AcDbEntity
  8
0
100
AcDbLine
 10
92.93783499999999
 20
295.9469999999999
 30
0.0
 11
95.33383499999999
 21
297.123
 31
0.0
  0
LINE
  5
3C1
330
1E
100
AcDbEntity
  8
0
100
AcDbLine
 10
94.06583499999999
 20
296.5009999999999
 30
0.0
 11
96.00513499999999
 21
297.453
 31
0.0
  0
LINE
  5
3C2
330
1E
100
AcDbEntity
  8
0
100
AcDbLine
 10
95.33383499999999
 20
297.123
 30
0.0
 11
96.76853499999999
 21
297.827
 31
0.0
  0
LINE
  5
3C3
330
1E
100
AcDbEntity
  8
0
100
AcDbLine
 10
97.03523500000001
 20
297.958
 30
0.0
 11
97.27900499368152
 21
428.8549999999999
 31
0.0
  0
LINE
  5
3C4
330
1E
100
AcDbEntity
  8
0
100
AcDbLine
 10
96.76853499999999
 20
297.827
 30
0.0
 11
97.03523500000001
 21
297.9579999999999
 31
0.0
  0
LINE
  5
3C5
330
1E
100
AcDbEntity
  8
0
100
AcDbLine
 10
97.03523500000001
 20
297.9579999999999
 30
0.0
 11
97.27900499368152
 21
428.8549999999999
 31
0.0
  0
LINE
  5
3C6
330
1E
100
AcDbEntity
  8
0
100
AcDbLine
 10
96.00513499999999
 20
297.453
 30
0.0
 11
97.03523500000001
 21
297.9579999999999
 31
0.0
  0
LINE
  5
3C7
330
1E
100
AcDbEntity
  8
0
100
AcDbLine
 10
94.72323499999999
 20
428.8549999999999
 30
0.0
 11
99.523235
 21
428.8549999999999
 31
0.0
  0
LINE
  5
3C8
330
1E
100
AcDbEntity
  8
0
100
AcDbLine
 10
97.32183798339621
 20
451.855
 30
0.0
 11
97.99903499999999
 21
525.489
 31
0.0
  0
LINE
  5
3C9
330
1E
100
AcDbEntity
  8
0
100
AcDbLine
 10
92.52323500000001
 20
671.878
 30
0.0
 11
94.92323499999999
 21
672.3279999999999
 31
0.0
  0
LINE
  5
3CA
330
1E
100
AcDbEntity
  8
0
100
AcDbLine
 10
94.92323499999999
 20
672.3279999999999
 30
0.0
 11
97.023235
 21
673.128
 31
0.0
  0
LINE
  5
3CC
330
1E
100
AcDbEntity
  8
0
100
AcDbLine
 10
97.8000044328731
 20
650.5321212927669
 30
0.0
 11
99.86843499999999
 21
650.8580000000001
 31
0.0
  0
LINE
  5
3CD
330
1E
100
AcDbEntity
  8
0
100
AcDbLine
 10
97.982835
 20
558.49
 30
0.0
 11
97.99903499999999
 21
525.489
 31
0.0
  0
LINE
  5
3CE
330
1E
100
AcDbEntity
  8
0
100
AcDbLine
 10
97.95383499999999
 20
581.4969999999999
 30
0.0
 11
97.982835
 21
558.49
 31
0.0
  0
LINE
  5
3D3
330
1E
100
AcDbEntity
  8
0
100
AcDbLine
 10
97.96893500000001
 20
639.372
 30
0.0
 11
99.75513499999999
 21
641.0599999999999
 31
0.0
  0
LINE
  5
3D4
330
1E
100
AcDbEntity
  8
0
100
AcDbLine
 10
97.912835
 20
606.294
 30
0.0
 11
97.95383499999999
 21
581.4969999999999
 31
0.0
  0
LINE
  5
3D5
330
1E
100
AcDbEntity
  8
0
100
AcDbLine
 10
97.857935
 20
631.3909999999999
 30
0.0
 11
97.912835
 21
606.294
 31
0.0
  0
LINE
  5
3D6
330
1E
100
AcDbEntity
  8
0
100
AcDbLine
 10
97.923235
 20
660.4349999999999
 30
0.0
 11
97.923235
 21
658.5650000000001
 31
0.0
  0
LINE
  5
3E3
330
1E
100
AcDbEntity
  8
0
100
AcDbLine
 10
97.923235
 20
658.5650000000001
 30
0.0
 11
97.923235
 21
660.4349999999999
 31
0.0
  0
LINE
  5
3E5
330
1E
100
AcDbEntity
  8
0
100
AcDbLine
 10
97.788035
 20
654.4869999999999
 30
0.0
 11
98.12877842639579
 21
673.8535128735719
 31
0.0
  0
LINE
  5
3E6
330
1E
100
AcDbEntity
  8
0
100
AcDbLine
 10
97.788035
 20
654.4869999999999
 30
0.0
 11
97.857935
 21
631.3909999999999
 31
0.0
  0
LINE
  5
3E7
330
1E
100
AcDbEntity
  8
0
100
AcDbLine
 10
97.023235
 20
673.128
 30
0.0
 11
98.623235
 21
674.178
 31
0.0
  0
LINE
  5
3E8
330
1E
100
AcDbEntity
  8
0
100
AcDbLine
 10
98.623235
 20
674.178
 30
0.0
 11
99.523235
 21
675.378
 31
0.0
  0
LINE
  5
3E9
330
1E
100
AcDbEntity
  8
0
100
AcDbLine
 10
99.523235
 20
675.378
 30
0.0
 11
99.92323499999999
 21
676.6779999999999
 31
0.0
  0
LINE
  5
3EA
330
1E
100
AcDbEntity
  8
0
100
AcDbLine
 10
94.72323499999999
 20
451.855
 30
0.0
 11
99.523235
 21
451.855
 31
0.0
  0
LINE
  5
3EB
330
1E
100
AcDbEntity
  8
0
100
AcDbLine
 10
99.75513499999999
 20
641.0599999999999
 30
0.0
 11
102.0559349999999
 21
643.8969999999999
 31
0.0
  0
LINE
  5
3ED
330
1E
100
AcDbEntity
  8
0
100
AcDbLine
 10
99.86843499999999
 20
650.8580000000001
 30
0.0
 11
102.384235
 21
650.914
 31
0.0
  0
LINE
  5
3EF
330
1E
100
AcDbEntity
  8
0
100
AcDbLine
 10
99.92323499999999
 20
676.6779999999999
 30
0.0
 11
101.212977680328
 21
699.0172030517419
 31
0.0
  0
LINE
  5
3F0
330
1E
100
AcDbEntity
  8
0
100
AcDbLine
 10
99.523235
 20
451.855
 30
0.0
 11
103.523235
 21
451.855
 31
0.0
  0
LINE
  5
3F1
330
1E
100
AcDbEntity
  8
0
100
AcDbLine
 10
99.523235
 20
428.8549999999999
 30
0.0
 11
103.523235
 21
428.8549999999999
 31
0.0
  0
LINE
  5
3F2
330
1E
100
AcDbEntity
  8
0
100
AcDbLine
 10
103.523235
 20
428.8549999999999
 30
0.0
 11
106.623235
 21
428.8549999999999
 31
0.0
  0
LINE
  5
3F3
330
1E
100
AcDbEntity
  8
0
100
AcDbLine
 10
106.623235
 20
428.8549999999999
 30
0.0
 11
108.923235
 21
428.8549999999999
 31
0.0
  0
LINE
  5
3F4
330
1E
100
AcDbEntity
  8
0
100
AcDbLine
 10
110.923235
 20
428.8549999999999
 30
0.0
 11
110.923235
 21
451.855
 31
0.0
  0
LINE
  5
3F5
330
1E
100
AcDbEntity
  8
0
100
AcDbLine
 10
108.923235
 20
428.8549999999999
 30
0.0
 11
110.323235
 21
428.8549999999999
 31
0.0
  0
LINE
  5
3F6
330
1E
100
AcDbEntity
  8
0
100
AcDbLine
 10
103.523235
 20
451.855
 30
0.0
 11
106.623235
 21
451.855
 31
0.0
  0
LINE
  5
3F7
330
1E
100
AcDbEntity
  8
0
100
AcDbLine
 10
106.623235
 20
451.855
 30
0.0
 11
108.923235
 21
451.855
 31
0.0
  0
LINE
  5
3FB
330
1E
100
AcDbEntity
  8
0
100
AcDbLine
 10
102.0559349999999
 20
643.8969999999999
 30
0.0
 11
103.3577349999999
 21
646.4019999999999
 31
0.0
  0
LINE
  5
3FC
330
1E
100
AcDbEntity
  8
0
100
AcDbLine
 10
102.384235
 20
650.914
 30
0.0
 11
103.5532349999999
 21
649.9959999999999
 31
0.0
  0
LINE
  5
3FD
330
1E
100
AcDbEntity
  8
0
100
AcDbLine
 10
103.5532349999999
 20
649.9959999999999
 30
0.0
 11
103.923235
 21
648.587
 31
0.0
  0
LINE
  5
3FE
330
1E
100
AcDbEntity
  8
0
100
AcDbLine
 10
103.3577349999999
 20
646.4019999999999
 30
0.0
 11
103.923235
 21
648.587
 31
0.0
  0
LINE
  5
40A
330
1E
100
AcDbEntity
  8
0
100
AcDbLine
 10
103.923235
 20
648.587
 30
0.0
 11
103.923235
 21
702.281
 31
0.0
  0
LINE
  5
40B
330
1E
100
AcDbEntity
  8
0
100
AcDbLine
 10
108.923235
 20
451.855
 30
0.0
 11
110.323235
 21
451.855
 31
0.0
  0
LINE
  5
40C
330
1E
100
AcDbEntity
  8
0
100
AcDbLine
 10
110.923235
 20
451.855
 30
0.0
 11
110.923235
 21
428.8549999999999
 31
0.0
  0
LINE
  5
40D
330
1E
100
AcDbEntity
  8
0
100
AcDbLine
 10
110.323235
 20
451.855
 30
0.0
 11
110.923235
 21
451.855
 31
0.0
  0
LINE
  5
40E
330
1E
100
AcDbEntity
  8
0
100
AcDbLine
 10
110.323235
 20
428.8549999999999
 30
0.0
 11
110.923235
 21
428.8549999999999
 31
0.0
  0
LINE
  5
411
330
1E
100
AcDbEntity
  8
0
100
AcDbLine
 10
92.138235
 20
694.945
 30
0.0
 11
94.27933499999999
 21
695.296
 31
0.0
  0
LINE
  5
412
330
1E
100
AcDbEntity
  8
0
100
AcDbLine
 10
94.27933499999999
 20
695.296
 30
0.0
 11
95.744535
 21
695.682
 31
0.0
  0
LINE
  5
414
330
1E
100
AcDbEntity
  8
0
100
AcDbLine
 10
89.92323499999999
 20
694.822
 30
0.0
 11
92.138235
 21
694.945
 31
0.0
  0
LINE
  5
41A
330
1E
100
AcDbEntity
  8
0
100
AcDbLine
 10
99.835235
 20
697.4029999999999
 30
0.0
 11
102.0752349999999
 21
698.863
 31
0.0
  0
LINE
  5
41B
330
1E
100
AcDbEntity
  8
0
100
AcDbLine
 10
98.33683499999999
 20
696.7660000000001
 30
0.0
 11
99.424635
 21
697.422
 31
0.0
  0
LINE
  5
41C
330
1E
100
AcDbEntity
  8
0
100
AcDbLine
 10
97.104235
 20
696.1789999999999
 30
0.0
 11
98.33683499999999
 21
696.7660000000001
 31
0.0
  0
LINE
  5
41D
330
1E
100
AcDbEntity
  8
0
100
AcDbLine
 10
95.744535
 20
695.682
 30
0.0
 11
97.104235
 21
696.1789999999999
 31
0.0
  0
LINE
  5
41E
330
1E
100
AcDbEntity
  8
0
100
AcDbLine
 10
100.352835
 20
698.1389999999999
 30
0.0
 11
101.1223349999999
 21
698.9139999999999
 31
0.0
  0
LINE
  5
41F
330
1E
100
AcDbEntity
  8
0
100
AcDbLine
 10
99.424635
 20
697.422
 30
0.0
 11
100.352835
 21
698.1389999999999
 31
0.0
  0
LINE
  5
420
330
1E
100
AcDbEntity
  8
0
100
AcDbLine
 10
84.101935
 20
695.682
 30
0.0
 11
85.56713499999998
 21
695.296
 31
0.0
  0
LINE
  5
421
330
1E
100
AcDbEntity
  8
0
100
AcDbLine
 10
85.56713499999998
 20
695.296
 30
0.0
 11
87.708235
 21
694.945
 31
0.0
  0
LINE
  5
422
330
1E
100
AcDbEntity
  8
0
100
AcDbLine
 10
82.74223499999999
 20
696.1789999999999
 30
0.0
 11
84.101935
 21
695.682
 31
0.0
  0
LINE
  5
423
330
1E
100
AcDbEntity
  8
0
100
AcDbLine
 10
102.0752349999999
 20
698.863
 30
0.0
 11
103.419235
 21
700.5169999999999
 31
0.0
  0
LINE
  5
424
330
1E
100
AcDbEntity
  8
0
100
AcDbLine
 10
101.8663349999999
 20
699.8919999999999
 30
0.0
 11
102.379635
 21
700.8259999999999
 31
0.0
  0
LINE
  5
425
330
1E
100
AcDbEntity
  8
0
100
AcDbLine
 10
101.235635
 20
699.0429999999999
 30
0.0
 11
101.8663349999999
 21
699.8919999999999
 31
0.0
  0
LINE
  5
426
330
1E
100
AcDbEntity
  8
0
100
AcDbLine
 10
101.1223349999999
 20
698.9139999999999
 30
0.0
 11
101.235635
 21
699.0429999999999
 31
0.0
  0
LINE
  5
427
330
1E
100
AcDbEntity
  8
0
100
AcDbLine
 10
103.419235
 20
700.5169999999999
 30
0.0
 11
103.923235
 21
702.281
 31
0.0
  0
LINE
  5
428
330
1E
100
AcDbEntity
  8
0
100
AcDbLine
 10
102.379635
 20
700.8259999999999
 30
0.0
 11
102.9481349999999
 21
702.3369999999999
 31
0.0
  0
LINE
  5
429
330
1E
100
AcDbEntity
  8
0
100
AcDbLine
 10
79.493635
 20
698.1389999999999
 30
0.0
 11
80.421835
 21
697.422
 31
0.0
  0
LINE
  5
42A
330
1E
100
AcDbEntity
  8
0
100
AcDbLine
 10
78.724135
 20
698.9139999999999
 30
0.0
 11
79.493635
 21
698.1389999999999
 31
0.0
  0
LINE
  5
42B
330
1E
100
AcDbEntity
  8
0
100
AcDbLine
 10
103.923235
 20
702.281
 30
0.0
 11
103.923235
 21
648.587
 31
0.0
  0
LINE
  5
42C
330
1E
100
AcDbEntity
  8
0
100
AcDbLine
 10
102.9905349999999
 20
702.472
 30
0.0
 11
103.329435
 21
704.0119999999999
 31
0.0
  0
LINE
  5
42D
330
1E
100
AcDbEntity
  8
0
100
AcDbLine
 10
102.9481349999999
 20
702.3369999999999
 30
0.0
 11
102.9905349999999
 21
702.472
 31
0.0
  0
LINE
  5
42E
330
1E
100
AcDbEntity
  8
0
100
AcDbLine
 10
103.329435
 20
704.0119999999999
 30
0.0
 11
103.491035
 21
705.5579999999999
 31
0.0
  0
LINE
  5
42F
330
1E
100
AcDbEntity
  8
0
100
AcDbLine
 10
76.898335
 20
702.3369999999999
 30
0.0
 11
77.466835
 21
700.8259999999999
 31
0.0
  0
LINE
  5
430
330
1E
100
AcDbEntity
  8
0
100
AcDbLine
 10
77.466835
 20
700.8259999999999
 30
0.0
 11
77.980135
 21
699.8919999999999
 31
0.0
  0
LINE
  5
431
330
1E
100
AcDbEntity
  8
0
100
AcDbLine
 10
76.855935
 20
702.472
 30
0.0
 11
76.898335
 21
702.3369999999999
 31
0.0
  0
LINE
  5
432
330
1E
100
AcDbEntity
  8
0
100
AcDbLine
 10
76.42723499999999
 20
704.044
 30
0.0
 11
76.5038362987704
 21
704.1382697530999
 31
0.0
  0
LINE
  5
433
330
1E
100
AcDbEntity
  8
0
100
AcDbLine
 10
103.34263370123
 20
704.1382697530999
 30
0.0
 11
103.419235
 21
704.044
 31
0.0
  0
LINE
  5
434
330
1E
100
AcDbEntity
  8
0
100
AcDbLine
 10
103.419235
 20
704.044
 30
0.0
 11
103.923235
 21
702.281
 31
0.0
  0
LINE
  5
435
330
1E
100
AcDbEntity
  8
0
100
AcDbLine
 10
103.3551349999999
 20
704.333
 30
0.0
 11
103.9827349999999
 21
719.1310000000001
 31
0.0
  0
LINE
  5
43E
330
1E
100
AcDbEntity
  8
0
100
AcDbLine
 10
104.510835
 20
737.8309999999999
 30
0.0
 11
104.655735
 21
747.3339999999999
 31
0.0
  0
LINE
  5
43F
330
1E
100
AcDbEntity
  8
0
100
AcDbLine
 10
104.2882349999999
 20
728.1539999999999
 30
0.0
 11
104.510835
 21
737.8309999999999
 31
0.0
  0
LINE
  5
440
330
1E
100
AcDbEntity
  8
0
100
AcDbLine
 10
104.091135
 20
721.447
 30
0.0
 11
104.2882349999999
 21
728.1539999999999
 31
0.0
  0
LINE
  5
441
330
1E
100
AcDbEntity
  8
0
100
AcDbLine
 10
104.224135
 20
789.0449999999999
 30
0.0
 11
104.2744349999999
 21
787.2999999999999
 31
0.0
  0
LINE
  5
442
330
1E
100
AcDbEntity
  8
0
100
AcDbLine
 10
104.2744349999999
 20
787.2999999999999
 30
0.0
 11
104.3325349999999
 21
785.473
 31
0.0
  0
LINE
  5
443
330
1E
100
AcDbEntity
  8
0
100
AcDbLine
 10
104.334535
 20
785.4289999999999
 30
0.0
 11
104.5581349999999
 21
776.4539999999999
 31
0.0
  0
LINE
  5
444
330
1E
100
AcDbEntity
  8
0
100
AcDbLine
 10
104.5581349999999
 20
776.4539999999999
 30
0.0
 11
104.686235
 21
767.22
 31
0.0
  0
LINE
  5
445
330
1E
100
AcDbEntity
  8
0
100
AcDbLine
 10
104.686235
 20
767.22
 30
0.0
 11
104.7158349999999
 21
762.1110000000001
 31
0.0
  0
LINE
  5
446
330
1E
100
AcDbEntity
  8
0
100
AcDbLine
 10
104.6626349999999
 20
747.9479999999999
 30
0.0
 11
104.719735
 21
757.243
 31
0.0
  0
LINE
  5
447
330
1E
100
AcDbEntity
  8
0
100
AcDbLine
 10
104.655735
 20
747.3339999999999
 30
0.0
 11
104.6626349999999
 21
747.9479999999999
 31
0.0
  0
LINE
  5
448
330
1E
100
AcDbEntity
  8
0
100
AcDbLine
 10
103.9827349999999
 20
719.1310000000001
 30
0.0
 11
104.091135
 21
721.447
 31
0.0
  0
LINE
  5
449
330
1E
100
AcDbEntity
  8
0
100
AcDbLine
 10
103.5630349999999
 20
706.6569999999999
 30
0.0
 11
103.7263140581279
 21
713.0849243183259
 31
0.0
  0
LINE
  5
44A
330
1E
100
AcDbEntity
  8
0
100
AcDbLine
 10
103.491035
 20
705.5579999999999
 30
0.0
 11
103.5630349999999
 21
706.6569999999999
 31
0.0
  0
LINE
  5
5C5
330
1E
100
AcDbEntity
  8
0
100
AcDbLine
 10
104.221544468668
 20
789.298945043224
 30
0.0
 11
104.224135
 21
789.0449999999999
 31
0.0
  0
LINE
  5
780
330
1E
100
AcDbEntity
  8
0
100
AcDbLine
 10
104.7158349999999
 20
762.1110000000001
 30
0.0
 11
104.719735
 21
757.243
 31
0.0
  0
LINE
  5
781
330
1E
100
AcDbEntity
  8
0
100
AcDbLine
 10
76.51703499999999
 20
704.0119999999999
 30
0.0
 11
76.855935
 21
702.472
 31
0.0
  0
LINE
  5
782
330
1E
100
AcDbEntity
  8
0
100
AcDbLine
 10
76.355435
 20
705.5579999999999
 30
0.0
 11
76.51703499999999
 21
704.0119999999999
 31
0.0
  0
LINE
  5
94B
330
1E
100
AcDbEntity
  8
0
100
AcDbLine
 10
44.923235
 20
853.0718547385149
 30
0.0
 11
44.923235
 21
944.355
 31
0.0
  0
LINE
  5
94E
330
1E
100
AcDbEntity
  8
0
100
AcDbLine
 10
45.32323499999999
 20
944.355
 30
0.0
 11
46.42323499999999
 21
944.355
 31
0.0
  0
LINE
  5
94F
330
1E
100
AcDbEntity
  8
0
100
AcDbLine
 10
44.923235
 20
944.355
 30
0.0
 11
45.32323499999999
 21
944.355
 31
0.0
  0
LINE
  5
950
330
1E
100
AcDbEntity
  8
0
100
AcDbLine
 10
44.923235
 20
944.355
 30
0.0
 11
45.423235
 21
944.855
 31
0.0
  0
LINE
  5
951
330
1E
100
AcDbEntity
  8
0
100
AcDbLine
 10
44.923235
 20
944.355
 30
0.0
 11
44.923235
 21
853.0718547385149
 31
0.0
  0
LINE
  5
952
330
1E
100
AcDbEntity
  8
0
100
AcDbLine
 10
46.42323499999999
 20
944.355
 30
0.0
 11
48.123235
 21
944.355
 31
0.0
  0
LINE
  5
953
330
1E
100
AcDbEntity
  8
0
100
AcDbLine
 10
45.823235
 20
944.855
 30
0.0
 11
46.82323499999999
 21
944.855
 31
0.0
  0
LINE
  5
954
330
1E
100
AcDbEntity
  8
0
100
AcDbLine
 10
44.923235
 20
996.3549999999999
 30
0.0
 11
44.923235
 21
945.3549999999999
 31
0.0
  0
LINE
  5
955
330
1E
100
AcDbEntity
  8
0
100
AcDbLine
 10
44.923235
 20
996.3549999999999
 30
0.0
 11
45.32323499999999
 21
996.3549999999999
 31
0.0
  0
LINE
  5
956
330
1E
100
AcDbEntity
  8
0
100
AcDbLine
 10
44.923235
 20
996.3549999999999
 30
0.0
 11
45.423235
 21
996.855
 31
0.0
  0
LINE
  5
957
330
1E
100
AcDbEntity
  8
0
100
AcDbLine
 10
46.42323499999999
 20
945.3549999999999
 30
0.0
 11
48.123235
 21
945.3549999999999
 31
0.0
  0
LINE
  5
958
330
1E
100
AcDbEntity
  8
0
100
AcDbLine
 10
45.823235
 20
996.855
 30
0.0
 11
46.82323499999999
 21
996.855
 31
0.0
  0
LINE
  5
959
330
1E
100
AcDbEntity
  8
0
100
AcDbLine
 10
45.423235
 20
996.855
 30
0.0
 11
45.823235
 21
996.855
 31
0.0
  0
LINE
  5
95A
330
1E
100
AcDbEntity
  8
0
100
AcDbLine
 10
46.42323499999999
 20
996.3549999999999
 30
0.0
 11
48.123235
 21
996.3549999999999
 31
0.0
  0
LINE
  5
95B
330
1E
100
AcDbEntity
  8
0
100
AcDbLine
 10
45.32323499999999
 20
996.3549999999999
 30
0.0
 11
46.42323499999999
 21
996.3549999999999
 31
0.0
  0
LINE
  5
95C
330
1E
100
AcDbEntity
  8
0
100
AcDbLine
 10
45.32323499999999
 20
945.3549999999999
 30
0.0
 11
46.42323499999999
 21
945.3549999999999
 31
0.0
  0
LINE
  5
95D
330
1E
100
AcDbEntity
  8
0
100
AcDbLine
 10
44.923235
 20
945.3549999999999
 30
0.0
 11
45.423235
 21
944.855
 31
0.0
  0
LINE
  5
95E
330
1E
100
AcDbEntity
  8
0
100
AcDbLine
 10
44.923235
 20
945.3549999999999
 30
0.0
 11
45.32323499999999
 21
945.3549999999999
 31
0.0
  0
LINE
  5
95F
330
1E
100
AcDbEntity
  8
0
100
AcDbLine
 10
44.923235
 20
945.3549999999999
 30
0.0
 11
44.923235
 21
996.3549999999999
 31
0.0
  0
LINE
  5
960
330
1E
100
AcDbEntity
  8
0
100
AcDbLine
 10
45.423235
 20
944.855
 30
0.0
 11
45.823235
 21
944.855
 31
0.0
  0
LINE
  5
965
330
1E
100
AcDbEntity
  8
0
100
AcDbLine
 10
46.82323499999999
 20
996.855
 30
0.0
 11
48.523235
 21
996.855
 31
0.0
  0
LINE
  5
966
330
1E
100
AcDbEntity
  8
0
100
AcDbLine
 10
50.423235
 20
944.355
 30
0.0
 11
53.123235
 21
944.355
 31
0.0
  0
LINE
  5
967
330
1E
100
AcDbEntity
  8
0
100
AcDbLine
 10
48.123235
 20
944.355
 30
0.0
 11
50.423235
 21
944.355
 31
0.0
  0
LINE
  5
968
330
1E
100
AcDbEntity
  8
0
100
AcDbLine
 10
50.72323499999999
 20
944.855
 30
0.0
 11
53.22323499999999
 21
944.855
 31
0.0
  0
LINE
  5
969
330
1E
100
AcDbEntity
  8
0
100
AcDbLine
 10
48.123235
 20
996.3549999999999
 30
0.0
 11
50.423235
 21
996.3549999999999
 31
0.0
  0
LINE
  5
96A
330
1E
100
AcDbEntity
  8
0
100
AcDbLine
 10
48.523235
 20
996.855
 30
0.0
 11
50.72323499999999
 21
996.855
 31
0.0
  0
LINE
  5
96B
330
1E
100
AcDbEntity
  8
0
100
AcDbLine
 10
50.72323499999999
 20
996.855
 30
0.0
 11
53.22323499999999
 21
996.855
 31
0.0
  0
LINE
  5
96C
330
1E
100
AcDbEntity
  8
0
100
AcDbLine
 10
50.423235
 20
996.3549999999999
 30
0.0
 11
53.123235
 21
996.3549999999999
 31
0.0
  0
LINE
  5
96D
330
1E
100
AcDbEntity
  8
0
100
AcDbLine
 10
50.423235
 20
945.3549999999999
 30
0.0
 11
53.123235
 21
945.3549999999999
 31
0.0
  0
LINE
  5
96E
330
1E
100
AcDbEntity
  8
0
100
AcDbLine
 10
48.123235
 20
945.3549999999999
 30
0.0
 11
50.423235
 21
945.3549999999999
 31
0.0
  0
LINE
  5
96F
330
1E
100
AcDbEntity
  8
0
100
AcDbLine
 10
48.523235
 20
944.855
 30
0.0
 11
50.72323499999999
 21
944.855
 31
0.0
  0
LINE
  5
970
330
1E
100
AcDbEntity
  8
0
100
AcDbLine
 10
46.82323499999999
 20
944.855
 30
0.0
 11
48.523235
 21
944.855
 31
0.0
  0
LINE
  5
99D
330
1E
100
AcDbEntity
  8
0
100
AcDbLine
 10
53.123235
 20
944.355
 30
0.0
 11
55.923235
 21
944.355
 31
0.0
  0
LINE
  5
99E
330
1E
100
AcDbEntity
  8
0
100
AcDbLine
 10
53.123235
 20
945.3549999999999
 30
0.0
 11
55.923235
 21
945.3549999999999
 31
0.0
  0
LINE
  5
99F
330
1E
100
AcDbEntity
  8
0
100
AcDbLine
 10
55.923235
 20
944.355
 30
0.0
 11
58.723235
 21
944.355
 31
0.0
  0
LINE
  5
9A0
330
1E
100
AcDbEntity
  8
0
100
AcDbLine
 10
53.22323499999999
 20
944.855
 30
0.0
 11
55.923235
 21
944.855
 31
0.0
  0
LINE
  5
9A1
330
1E
100
AcDbEntity
  8
0
100
AcDbLine
 10
53.22323499999999
 20
996.855
 30
0.0
 11
55.923235
 21
996.855
 31
0.0
  0
LINE
  5
9A2
330
1E
100
AcDbEntity
  8
0
100
AcDbLine
 10
53.123235
 20
996.3549999999999
 30
0.0
 11
55.923235
 21
996.3549999999999
 31
0.0
  0
LINE
  5
9A3
330
1E
100
AcDbEntity
  8
0
100
AcDbLine
 10
55.923235
 20
996.855
 30
0.0
 11
58.623235
 21
996.855
 31
0.0
  0
LINE
  5
9A4
330
1E
100
AcDbEntity
  8
0
100
AcDbLine
 10
55.923235
 20
996.3549999999999
 30
0.0
 11
58.723235
 21
996.3549999999999
 31
0.0
  0
LINE
  5
9A5
330
1E
100
AcDbEntity
  8
0
100
AcDbLine
 10
55.923235
 20
945.3549999999999
 30
0.0
 11
58.723235
 21
945.3549999999999
 31
0.0
  0
LINE
  5
9A6
330
1E
100
AcDbEntity
  8
0
100
AcDbLine
 10
55.923235
 20
944.855
 30
0.0
 11
58.623235
 21
944.855
 31
0.0
  0
LINE
  5
9A8
330
1E
100
AcDbEntity
  8
0
100
AcDbLine
 10
58.723235
 20
944.355
 30
0.0
 11
61.42323499999999
 21
944.355
 31
0.0
  0
LINE
  5
9A9
330
1E
100
AcDbEntity
  8
0
100
AcDbLine
 10
61.42323499999999
 20
944.355
 30
0.0
 11
63.723235
 21
944.355
 31
0.0
  0
LINE
  5
9AA
330
1E
100
AcDbEntity
  8
0
100
AcDbLine
 10
58.623235
 20
944.855
 30
0.0
 11
61.123235
 21
944.855
 31
0.0
  0
LINE
  5
9AB
330
1E
100
AcDbEntity
  8
0
100
AcDbLine
 10
58.623235
 20
996.855
 30
0.0
 11
61.123235
 21
996.855
 31
0.0
  0
LINE
  5
9AC
330
1E
100
AcDbEntity
  8
0
100
AcDbLine
 10
61.123235
 20
996.855
 30
0.0
 11
63.323235
 21
996.855
 31
0.0
  0
LINE
  5
9AD
330
1E
100
AcDbEntity
  8
0
100
AcDbLine
 10
58.723235
 20
996.3549999999999
 30
0.0
 11
61.42323499999999
 21
996.3549999999999
 31
0.0
  0
LINE
  5
9AE
330
1E
100
AcDbEntity
  8
0
100
AcDbLine
 10
61.42323499999999
 20
996.3549999999999
 30
0.0
 11
63.723235
 21
996.3549999999999
 31
0.0
  0
LINE
  5
9AF
330
1E
100
AcDbEntity
  8
0
100
AcDbLine
 10
58.723235
 20
945.3549999999999
 30
0.0
 11
61.42323499999999
 21
945.3549999999999
 31
0.0
  0
LINE
  5
9B0
330
1E
100
AcDbEntity
  8
0
100
AcDbLine
 10
61.42323499999999
 20
945.3549999999999
 30
0.0
 11
63.723235
 21
945.3549999999999
 31
0.0
  0
LINE
  5
9B1
330
1E
100
AcDbEntity
  8
0
100
AcDbLine
 10
61.123235
 20
944.855
 30
0.0
 11
63.323235
 21
944.855
 31
0.0
  0
LINE
  5
9B2
330
1E
100
AcDbEntity
  8
0
100
AcDbLine
 10
63.723235
 20
944.355
 30
0.0
 11
65.42323499999999
 21
944.355
 31
0.0
  0
LINE
  5
9B3
330
1E
100
AcDbEntity
  8
0
100
AcDbLine
 10
65.42323499999999
 20
944.355
 30
0.0
 11
66.523235
 21
944.355
 31
0.0
  0
LINE
  5
9B4
330
1E
100
AcDbEntity
  8
0
100
AcDbLine
 10
63.323235
 20
944.855
 30
0.0
 11
65.023235
 21
944.855
 31
0.0
  0
LINE
  5
9B5
330
1E
100
AcDbEntity
  8
0
100
AcDbLine
 10
63.323235
 20
996.855
 30
0.0
 11
65.023235
 21
996.855
 31
0.0
  0
LINE
  5
9B6
330
1E
100
AcDbEntity
  8
0
100
AcDbLine
 10
65.023235
 20
996.855
 30
0.0
 11
66.023235
 21
996.855
 31
0.0
  0
LINE
  5
9B7
330
1E
100
AcDbEntity
  8
0
100
AcDbLine
 10
63.723235
 20
996.3549999999999
 30
0.0
 11
65.42323499999999
 21
996.3549999999999
 31
0.0
  0
LINE
  5
9B8
330
1E
100
AcDbEntity
  8
0
100
AcDbLine
 10
65.42323499999999
 20
996.3549999999999
 30
0.0
 11
66.523235
 21
996.3549999999999
 31
0.0
  0
LINE
  5
9B9
330
1E
100
AcDbEntity
  8
0
100
AcDbLine
 10
63.723235
 20
945.3549999999999
 30
0.0
 11
65.42323499999999
 21
945.3549999999999
 31
0.0
  0
LINE
  5
9BA
330
1E
100
AcDbEntity
  8
0
100
AcDbLine
 10
66.023235
 20
996.855
 30
0.0
 11
66.42323499999999
 21
996.855
 31
0.0
  0
LINE
  5
9BB
330
1E
100
AcDbEntity
  8
0
100
AcDbLine
 10
65.42323499999999
 20
945.3549999999999
 30
0.0
 11
66.523235
 21
945.3549999999999
 31
0.0
  0
LINE
  5
9BC
330
1E
100
AcDbEntity
  8
0
100
AcDbLine
 10
65.023235
 20
944.855
 30
0.0
 11
66.023235
 21
944.855
 31
0.0
  0
LINE
  5
9BD
330
1E
100
AcDbEntity
  8
0
100
AcDbLine
 10
66.023235
 20
944.855
 30
0.0
 11
66.42323499999999
 21
944.855
 31
0.0
  0
LINE
  5
9C3
330
1E
100
AcDbEntity
  8
0
100
AcDbLine
 10
66.42323499999999
 20
944.855
 30
0.0
 11
66.92323499999999
 21
944.355
 31
0.0
  0
LINE
  5
9C4
330
1E
100
AcDbEntity
  8
0
100
AcDbLine
 10
66.523235
 20
944.355
 30
0.0
 11
66.92323499999999
 21
944.355
 31
0.0
  0
LINE
  5
9C5
330
1E
100
AcDbEntity
  8
0
100
AcDbLine
 10
66.42323499999999
 20
996.855
 30
0.0
 11
66.92323499999999
 21
996.3549999999999
 31
0.0
  0
LINE
  5
9C6
330
1E
100
AcDbEntity
  8
0
100
AcDbLine
 10
66.523235
 20
996.3549999999999
 30
0.0
 11
66.92323499999999
 21
996.3549999999999
 31
0.0
  0
LINE
  5
9C7
330
1E
100
AcDbEntity
  8
0
100
AcDbLine
 10
66.523235
 20
945.3549999999999
 30
0.0
 11
66.92323499999999
 21
945.3549999999999
 31
0.0
  0
LINE
  5
9DA
330
1E
100
AcDbEntity
  8
0
100
AcDbLine
 10
66.85403500000001
 20
869.205
 30
0.0
 11
66.92323499999999
 21
944.355
 31
0.0
  0
LINE
  5
9DE
330
1E
100
AcDbEntity
  8
0
100
AcDbLine
 10
66.92323499999999
 20
944.355
 30
0.0
 11
66.85403500000001
 21
869.205
 31
0.0
  0
LINE
  5
A26
330
1E
100
AcDbEntity
  8
0
100
AcDbLine
 10
66.92323499999999
 20
996.3549999999999
 30
0.0
 11
66.923235
 21
945.3549999999999
 31
0.0
210
0.0
220
0.0
230
-1.0
  0
LINE
  5
A27
330
1E
100
AcDbEntity
  8
0
100
AcDbLine
 10
66.923235
 20
945.3549999999999
 30
0.0
 11
66.42323499999999
 21
944.855
 31
0.0
210
0.0
220
0.0
230
-1.0
  0
LINE
  5
E23
330
1E
100
AcDbEntity
  8
0
100
AcDbLine
 10
89.756735
 20
873.5269999999999
 30
0.0
 11
84.918835
 21
873.3549999999999
 31
0.0
210
0.0
220
0.0
230
-1.0
  0
LINE
  5
E24
330
1E
100
AcDbEntity
  8
0
100
AcDbLine
 10
89.756735
 20
873.2419999999999
 30
0.0
 11
86.790935
 21
873.179
 31
0.0
210
0.0
220
0.0
230
-1.0
  0
LINE
  5
E25
330
1E
100
AcDbEntity
  8
0
100
AcDbLine
 10
89.756735
 20
864.7350000000001
 30
0.0
 11
77.21273500000001
 21
863.446
 31
0.0
210
0.0
220
0.0
230
-1.0
  0
LINE
  5
E26
330
1E
100
AcDbEntity
  8
0
100
AcDbLine
 10
89.756735
 20
850.331
 30
0.0
 11
89.070735
 21
850.1159999999998
 31
0.0
210
0.0
220
0.0
230
-1.0
  0
LINE
  5
E27
330
1E
100
AcDbEntity
  8
0
100
AcDbLine
 10
89.756735
 20
848.8989999999999
 30
0.0
 11
89.070735
 21
849.1139999999999
 31
0.0
210
0.0
220
0.0
230
-1.0
  0
LINE
  5
E28
330
1E
100
AcDbEntity
  8
0
100
AcDbLine
 10
89.756735
 20
838.39
 30
0.0
 11
89.070735
 21
838.175
 31
0.0
210
0.0
220
0.0
230
-1.0
  0
LINE
  5
E29
330
1E
100
AcDbEntity
  8
0
100
AcDbLine
 10
89.756735
 20
836.9569999999999
 30
0.0
 11
89.070735
 21
837.1719999999999
 31
0.0
210
0.0
220
0.0
230
-1.0
  0
LINE
  5
E2A
330
1E
100
AcDbEntity
  8
0
100
AcDbLine
 10
89.91703499999999
 20
832.4439999999999
 30
0.0
 11
89.20803500000001
 21
832.2729999999999
 31
0.0
210
0.0
220
0.0
230
-1.0
  0
LINE
  5
E2B
330
1E
100
AcDbEntity
  8
0
100
AcDbLine
 10
90.45523500000001
 20
831.187
 30
0.0
 11
89.74623500000001
 21
831.0169999999999
 31
0.0
210
0.0
220
0.0
230
-1.0
  0
LINE
  5
E2C
330
1E
100
AcDbEntity
  8
0
100
AcDbLine
 10
89.756735
 20
805.4999999999999
 30
0.0
 11
89.070735
 21
805.2849999999999
 31
0.0
210
0.0
220
0.0
230
-1.0
  0
LINE
  5
E2D
330
1E
100
AcDbEntity
  8
0
100
AcDbLine
 10
90.009735
 20
811.119
 30
0.0
 11
89.300735
 21
810.9489999999999
 31
0.0
210
0.0
220
0.0
230
-1.0
  0
LINE
  5
E2E
330
1E
100
AcDbEntity
  8
0
100
AcDbLine
 10
89.83883500000001
 20
809.6919999999999
 30
0.0
 11
89.18113500000002
 21
809.9499999999999
 31
0.0
210
0.0
220
0.0
230
-1.0
  0
LINE
  5
E2F
330
1E
100
AcDbEntity
  8
0
100
AcDbLine
 10
89.756735
 20
804.0669999999998
 30
0.0
 11
89.070735
 21
804.2819999999998
 31
0.0
210
0.0
220
0.0
230
-1.0
  0
LINE
  5
E30
330
1E
100
AcDbEntity
  8
0
100
AcDbLine
 10
89.756735
 20
794.4749999999999
 30
0.0
 11
89.070735
 21
794.261
 31
0.0
210
0.0
220
0.0
230
-1.0
  0
LINE
  5
E31
330
1E
100
AcDbEntity
  8
0
100
AcDbLine
 10
89.756735
 20
793.043
 30
0.0
 11
89.070735
 21
793.2579999999999
 31
0.0
210
0.0
220
0.0
230
-1.0
  0
LINE
  5
E32
330
1E
100
AcDbEntity
  8
0
100
AcDbLine
 10
89.756735
 20
789.6749999999999
 30
0.0
 11
77.70273500000001
 21
790.8919999999999
 31
0.0
210
0.0
220
0.0
230
-1.0
  0
LINE
  5
E33
330
1E
100
AcDbEntity
  8
0
100
AcDbLine
 10
121.123335
 20
865.4229999999998
 30
0.0
 11
117.220535
 21
867.506
 31
0.0
210
0.0
220
0.0
230
-1.0
  0
LINE
  5
E34
330
1E
100
AcDbEntity
  8
0
100
AcDbLine
 10
121.804235
 20
864.8059999999999
 30
0.0
 11
118.653135
 21
866.5639999999999
 31
0.0
210
0.0
220
0.0
230
-1.0
  0
LINE
  5
E35
330
1E
100
AcDbEntity
  8
0
100
AcDbLine
 10
124.894785567164
 20
853.6912213553989
 30
0.0
 11
120.824835
 21
856.4379999999999
 31
0.0
210
0.0
220
0.0
230
-1.0
  0
LINE
  5
E36
330
1E
100
AcDbEntity
  8
0
100
AcDbLine
 10
122.978735
 20
799.7719999999999
 30
0.0
 11
113.1787349999999
 21
794.2579999999999
 31
0.0
210
0.0
220
0.0
230
-1.0
  0
LINE
  5
E37
330
1E
100
AcDbEntity
  8
0
100
AcDbLine
 10
131.7987349999999
 20
808.0589999999999
 30
0.0
 11
124.056735
 21
800.6119999999999
 31
0.0
210
0.0
220
0.0
230
-1.0
  0
LINE
  5
E38
330
1E
100
AcDbEntity
  8
0
100
AcDbLine
 10
124.056735
 20
800.6119999999999
 30
0.0
 11
122.978735
 21
799.7719999999999
 31
0.0
210
0.0
220
0.0
230
-1.0
  0
LINE
  5
E39
330
1E
100
AcDbEntity
  8
0
100
AcDbLine
 10
136.633235
 20
839.2849999999999
 30
0.0
 11
135.012435
 21
842.5689999999999
 31
0.0
210
0.0
220
0.0
230
-1.0
  0
LINE
  5
E3A
330
1E
100
AcDbEntity
  8
0
100
AcDbLine
 10
137.246135
 20
848.4259999999999
 30
0.0
 11
135.8529349999999
 21
851.0989999999999
 31
0.0
210
0.0
220
0.0
230
-1.0
  0
LINE
  5
E3B
330
1E
100
AcDbEntity
  8
0
100
AcDbLine
 10
136.992735
 20
818.1359999999999
 30
0.0
 11
136.502735
 21
816.581
 31
0.0
210
0.0
220
0.0
230
-1.0
  0
LINE
  5
E3C
330
1E
100
AcDbEntity
  8
0
100
AcDbLine
 10
138.7392906940708
 20
829.0206431452078
 30
0.0
 11
138.508335
 21
832.451
 31
0.0
210
0.0
220
0.0
230
-1.0
  0
LINE
  5
E3D
330
1E
100
AcDbEntity
  8
0
100
AcDbLine
 10
139.576435
 20
834.1629999999998
 30
0.0
 11
139.3192349999999
 21
831.0929999999999
 31
0.0
210
0.0
220
0.0
230
-1.0
  0
LINE
  5
E3E
330
1E
100
AcDbEntity
  8
0
100
AcDbLine
 10
139.576435
 20
834.1629999999998
 30
0.0
 11
139.3192349999999
 21
831.0929999999999
 31
0.0
210
0.0
220
0.0
230
-1.0
  0
LINE
  5
E3F
330
1E
100
AcDbEntity
  8
0
100
AcDbLine
 10
138.665035
 20
824.773
 30
0.0
 11
138.0856349999999
 21
822.1909999999999
 31
0.0
210
0.0
220
0.0
230
-1.0
  0
LINE
  5
E40
330
1E
100
AcDbEntity
  8
0
100
AcDbLine
 10
138.7567349999999
 20
827.302
 30
0.0
 11
136.992735
 21
818.1359999999999
 31
0.0
210
0.0
220
0.0
230
-1.0
  0
LINE
  5
E41
330
1E
100
AcDbEntity
  8
0
100
AcDbLine
 10
138.7567349999999
 20
827.302
 30
0.0
 11
136.992735
 21
818.1359999999999
 31
0.0
210
0.0
220
0.0
230
-1.0
  0
LINE
  5
E42
330
1E
100
AcDbEntity
  8
0
100
AcDbLine
 10
139.3192349999999
 20
831.0929999999999
 30
0.0
 11
139.040435
 21
828.4839999999999
 31
0.0
210
0.0
220
0.0
230
-1.0
  0
LINE
  5
E43
330
1E
100
AcDbEntity
  8
0
100
AcDbLine
 10
138.6377864840963
 20
826.6839262489948
 30
0.0
 11
138.631535
 21
826.5479999999998
 31
0.0
210
0.0
220
0.0
230
-1.0
  0
LINE
  5
E44
330
1E
100
AcDbEntity
  8
0
100
AcDbLine
 10
139.040435
 20
828.4839999999999
 30
0.0
 11
138.890635
 21
826.7079999999999
 31
0.0
210
0.0
220
0.0
230
-1.0
  0
LINE
  5
E45
330
1E
100
AcDbEntity
  8
0
100
AcDbLine
 10
138.890635
 20
826.7079999999999
 30
0.0
 11
138.665035
 21
824.773
 31
0.0
210
0.0
220
0.0
230
-1.0
  0
LINE
  5
E46
330
1E
100
AcDbEntity
  8
0
100
AcDbLine
 10
138.7392906940708
 20
829.0206431452078
 30
0.0
 11
138.7567349999999
 21
827.302
 31
0.0
210
0.0
220
0.0
230
-1.0
  0
LINE
  5
E47
330
1E
100
AcDbEntity
  8
0
100
AcDbLine
 10
138.7567349999999
 20
827.302
 30
0.0
 11
138.7392906940708
 21
829.0206431452078
 31
0.0
210
0.0
220
0.0
230
-1.0
  0
LINE
  5
E48
330
1E
100
AcDbEntity
  8
0
100
AcDbLine
 10
137.8605161015213
 20
821.5074839148989
 30
0.0
 11
137.3338100250532
 21
819.908275328593
 31
0.0
210
0.0
220
0.0
230
-1.0
  0
LINE
  5
E49
330
1E
100
AcDbEntity
  8
0
100
AcDbLine
 10
137.8605161015213
 20
821.5074839148989
 30
0.0
 11
137.3338100250532
 21
819.908275328593
 31
0.0
210
0.0
220
0.0
230
-1.0
  0
LINE
  5
E4A
330
1E
100
AcDbEntity
  8
0
100
AcDbLine
 10
137.7329349999999
 20
821.7539999999999
 30
0.0
 11
137.6291642728855
 21
821.4429788635309
 31
0.0
210
0.0
220
0.0
230
-1.0
  0
LINE
  5
E4B
330
1E
100
AcDbEntity
  8
0
100
AcDbLine
 10
138.0856349999999
 20
822.1909999999999
 30
0.0
 11
137.9903753928806
 21
821.9017685131429
 31
0.0
210
0.0
220
0.0
230
-1.0
  0
LINE
  5
E4C
330
1E
100
AcDbEntity
  8
0
100
AcDbLine
 10
138.007835
 20
846.6049999999999
 30
0.0
 11
137.246135
 21
848.4259999999999
 31
0.0
210
0.0
220
0.0
230
-1.0
  0
LINE
  5
E4D
330
1E
100
AcDbEntity
  8
0
100
AcDbLine
 10
138.6344349999999
 20
844.7619999999998
 30
0.0
 11
138.007835
 21
846.6049999999999
 31
0.0
210
0.0
220
0.0
230
-1.0
  0
LINE
  5
E4E
330
1E
100
AcDbEntity
  8
0
100
AcDbLine
 10
139.685835
 20
839.141
 30
0.0
 11
139.474935
 21
841.0239999999999
 31
0.0
210
0.0
220
0.0
230
-1.0
  0
LINE
  5
E4F
330
1E
100
AcDbEntity
  8
0
100
AcDbLine
 10
139.685835
 20
839.141
 30
0.0
 11
139.474935
 21
841.0239999999999
 31
0.0
210
0.0
220
0.0
230
-1.0
  0
LINE
  5
E50
330
1E
100
AcDbEntity
  8
0
100
AcDbLine
 10
139.7567349999999
 20
837.256
 30
0.0
 11
139.685835
 21
839.141
 31
0.0
210
0.0
220
0.0
230
-1.0
  0
LINE
  5
E51
330
1E
100
AcDbEntity
  8
0
100
AcDbLine
 10
139.7567349999999
 20
837.2419999999999
 30
0.0
 11
139.576435
 21
834.1629999999998
 31
0.0
210
0.0
220
0.0
230
-1.0
  0
LINE
  5
E52
330
1E
100
AcDbEntity
  8
0
100
AcDbLine
 10
139.124135
 20
842.899
 30
0.0
 11
138.6344349999999
 21
844.7619999999998
 31
0.0
210
0.0
220
0.0
230
-1.0
  0
LINE
  5
E53
330
1E
100
AcDbEntity
  8
0
100
AcDbLine
 10
139.474935
 20
841.0239999999999
 30
0.0
 11
139.124135
 21
842.899
 31
0.0
210
0.0
220
0.0
230
-1.0
  0
LINE
  5
E54
330
1E
100
AcDbEntity
  8
0
100
AcDbLine
 10
137.802835
 20
835.9009999999999
 30
0.0
 11
136.633235
 21
839.2849999999999
 31
0.0
210
0.0
220
0.0
230
-1.0
  0
LINE
  5
E55
330
1E
100
AcDbEntity
  8
0
100
AcDbLine
 10
138.508335
 20
832.451
 30
0.0
 11
137.802835
 21
835.9009999999999
 31
0.0
210
0.0
220
0.0
230
-1.0
  0
LINE
  5
E56
330
1E
100
AcDbEntity
  8
0
100
AcDbLine
 10
126.595835
 20
861.4989999999998
 30
0.0
 11
124.752335
 21
862.8769999999999
 31
0.0
210
0.0
220
0.0
230
-1.0
  0
LINE
  5
E57
330
1E
100
AcDbEntity
  8
0
100
AcDbLine
 10
128.116135
 20
860.4049999999999
 30
0.0
 11
124.726635
 21
863.0779999999999
 31
0.0
210
0.0
220
0.0
230
-1.0
  0
LINE
  5
E58
330
1E
100
AcDbEntity
  8
0
100
AcDbLine
 10
130.481935
 20
848.713
 30
0.0
 11
127.616635
 21
851.5129999999999
 31
0.0
210
0.0
220
0.0
230
-1.0
  0
LINE
  5
E59
330
1E
100
AcDbEntity
  8
0
100
AcDbLine
 10
129.968535
 20
858.5469999999999
 30
0.0
 11
128.335935
 21
860.055
 31
0.0
210
0.0
220
0.0
230
-1.0
  0
LINE
  5
E5A
330
1E
100
AcDbEntity
  8
0
100
AcDbLine
 10
131.052435
 20
857.5679999999998
 30
0.0
 11
128.116135
 21
860.4049999999999
 31
0.0
210
0.0
220
0.0
230
-1.0
  0
LINE
  5
E5B
330
1E
100
AcDbEntity
  8
0
100
AcDbLine
 10
128.956735
 20
821.687
 30
0.0
 11
128.662735
 21
822.188
 31
0.0
210
0.0
220
0.0
230
-1.0
  0
LINE
  5
E5C
330
1E
100
AcDbEntity
  8
0
100
AcDbLine
 10
128.956735
 20
821.687
 30
0.0
 11
128.662735
 21
821.1859999999999
 31
0.0
210
0.0
220
0.0
230
-1.0
  0
LINE
  5
E5D
330
1E
100
AcDbEntity
  8
0
100
AcDbLine
 10
136.502735
 20
816.581
 30
0.0
 11
131.7987349999999
 21
808.0589999999999
 31
0.0
210
0.0
220
0.0
230
-1.0
  0
LINE
  5
E5E
330
1E
100
AcDbEntity
  8
0
100
AcDbLine
 10
132.955035
 20
845.7209999999999
 30
0.0
 11
132.3846953872793
 21
846.4110069229958
 31
0.0
210
0.0
220
0.0
230
-1.0
  0
LINE
  5
E5F
330
1E
100
AcDbEntity
  8
0
100
AcDbLine
 10
132.888035
 20
855.358
 30
0.0
 11
131.485935
 21
856.9789999999999
 31
0.0
210
0.0
220
0.0
230
-1.0
  0
LINE
  5
E60
330
1E
100
AcDbEntity
  8
0
100
AcDbLine
 10
133.586635
 20
854.541
 30
0.0
 11
131.052435
 21
857.5679999999998
 31
0.0
210
0.0
220
0.0
230
-1.0
  0
LINE
  5
E61
330
1E
100
AcDbEntity
  8
0
100
AcDbLine
 10
135.012435
 20
842.5689999999999
 30
0.0
 11
132.955035
 21
845.7209999999999
 31
0.0
210
0.0
220
0.0
230
-1.0
  0
LINE
  5
E62
330
1E
100
AcDbEntity
  8
0
100
AcDbLine
 10
135.8529349999999
 20
851.0989999999999
 30
0.0
 11
134.468535
 21
853.2619999999999
 31
0.0
210
0.0
220
0.0
230
-1.0
  0
LINE
  5
E63
330
1E
100
AcDbEntity
  8
0
100
AcDbLine
 10
135.696235
 20
851.3559999999998
 30
0.0
 11
135.4650556011282
 21
851.7050265383989
 31
0.0
210
0.0
220
0.0
230
-1.0
  0
LINE
  5
E64
330
1E
100
AcDbEntity
  8
0
100
AcDbLine
 10
135.696235
 20
851.3559999999998
 30
0.0
 11
135.4650556011282
 21
851.7050265383989
 31
0.0
210
0.0
220
0.0
230
-1.0
  0
LINE
  5
E65
330
1E
100
AcDbEntity
  8
0
100
AcDbLine
 10
135.7273026396226
 20
851.295289219515
 30
0.0
 11
135.696235
 21
851.3559999999998
 31
0.0
210
0.0
220
0.0
230
-1.0
  0
LINE
  5
E66
330
1E
100
AcDbEntity
  8
0
100
AcDbLine
 10
134.1827997019811
 20
853.6409314676669
 30
0.0
 11
133.586635
 21
854.541
 31
0.0
210
0.0
220
0.0
230
-1.0
  0
LINE
  5
E67
330
1E
100
AcDbEntity
  8
0
100
AcDbLine
 10
134.1827997019811
 20
853.6409314676669
 30
0.0
 11
133.586635
 21
854.541
 31
0.0
210
0.0
220
0.0
230
-1.0
  0
LINE
  5
E68
330
1E
100
AcDbEntity
  8
0
100
AcDbLine
 10
134.468535
 20
853.2619999999999
 30
0.0
 11
132.888035
 21
855.358
 31
0.0
210
0.0
220
0.0
230
-1.0
  0
LINE
  5
E69
330
1E
100
AcDbEntity
  8
0
100
AcDbLine
 10
132.3846953872793
 20
846.4110069229958
 30
0.0
 11
130.481935
 21
848.713
 31
0.0
210
0.0
220
0.0
230
-1.0
  0
LINE
  5
E6A
330
1E
100
AcDbEntity
  8
0
100
AcDbLine
 10
131.485935
 20
856.9789999999999
 30
0.0
 11
129.968535
 21
858.5469999999999
 31
0.0
210
0.0
220
0.0
230
-1.0
  0
LINE
  5
E6B
330
1E
100
AcDbEntity
  8
0
100
AcDbLine
 10
125.336635
 20
831.9119999999999
 30
0.0
 11
124.792535
 21
831.5389999999998
 31
0.0
210
0.0
220
0.0
230
-1.0
  0
LINE
  5
E6C
330
1E
100
AcDbEntity
  8
0
100
AcDbLine
 10
126.592735
 20
831.484
 30
0.0
 11
126.081835
 21
831.8809999999999
 31
0.0
210
0.0
220
0.0
230
-1.0
  0
LINE
  5
E6D
330
1E
100
AcDbEntity
  8
0
100
AcDbLine
 10
125.261835
 20
830.5959999999998
 30
0.0
 11
124.750935
 21
830.994
 31
0.0
210
0.0
220
0.0
230
-1.0
  0
LINE
  5
E6E
330
1E
100
AcDbEntity
  8
0
100
AcDbLine
 10
125.261835
 20
812.7779999999999
 30
0.0
 11
124.750935
 21
812.3799999999999
 31
0.0
210
0.0
220
0.0
230
-1.0
  0
LINE
  5
E6F
330
1E
100
AcDbEntity
  8
0
100
AcDbLine
 10
125.336635
 20
811.4619999999998
 30
0.0
 11
124.792535
 21
811.8359999999999
 31
0.0
210
0.0
220
0.0
230
-1.0
  0
LINE
  5
E70
330
1E
100
AcDbEntity
  8
0
100
AcDbLine
 10
126.601435
 20
816.4309999999998
 30
0.0
 11
126.4309349999999
 21
816.9619999999998
 31
0.0
210
0.0
220
0.0
230
-1.0
  0
LINE
  5
E71
330
1E
100
AcDbEntity
  8
0
100
AcDbLine
 10
128.361235
 20
816.713
 30
0.0
 11
128.1908349999999
 21
817.2439999999999
 31
0.0
210
0.0
220
0.0
230
-1.0
  0
LINE
  5
E72
330
1E
100
AcDbEntity
  8
0
100
AcDbLine
 10
127.225935
 20
816.1319999999999
 30
0.0
 11
126.601435
 21
816.4309999999998
 31
0.0
210
0.0
220
0.0
230
-1.0
  0
LINE
  5
E73
330
1E
100
AcDbEntity
  8
0
100
AcDbLine
 10
127.952535
 20
816.2569999999998
 30
0.0
 11
127.225935
 21
816.1319999999999
 31
0.0
210
0.0
220
0.0
230
-1.0
  0
LINE
  5
E74
330
1E
100
AcDbEntity
  8
0
100
AcDbLine
 10
128.361235
 20
816.713
 30
0.0
 11
127.952535
 21
816.2569999999998
 31
0.0
210
0.0
220
0.0
230
-1.0
  0
LINE
  5
E75
330
1E
100
AcDbEntity
  8
0
100
AcDbLine
 10
126.081835
 20
811.4929999999999
 30
0.0
 11
125.336635
 21
811.4619999999998
 31
0.0
210
0.0
220
0.0
230
-1.0
  0
LINE
  5
E76
330
1E
100
AcDbEntity
  8
0
100
AcDbLine
 10
126.0069349999999
 20
812.8079999999998
 30
0.0
 11
125.261835
 21
812.7779999999999
 31
0.0
210
0.0
220
0.0
230
-1.0
  0
LINE
  5
E77
330
1E
100
AcDbEntity
  8
0
100
AcDbLine
 10
126.592735
 20
811.89
 30
0.0
 11
126.551035
 21
812.4349999999999
 31
0.0
210
0.0
220
0.0
230
-1.0
  0
LINE
  5
E78
330
1E
100
AcDbEntity
  8
0
100
AcDbLine
 10
126.592735
 20
811.89
 30
0.0
 11
126.081835
 21
811.4929999999999
 31
0.0
210
0.0
220
0.0
230
-1.0
  0
LINE
  5
E79
330
1E
100
AcDbEntity
  8
0
100
AcDbLine
 10
126.551035
 20
812.4349999999999
 30
0.0
 11
126.0069349999999
 21
812.8079999999998
 31
0.0
210
0.0
220
0.0
230
-1.0
  0
LINE
  5
E7A
330
1E
100
AcDbEntity
  8
0
100
AcDbLine
 10
127.225935
 20
827.242
 30
0.0
 11
126.601435
 21
826.9429999999998
 31
0.0
210
0.0
220
0.0
230
-1.0
  0
LINE
  5
E7B
330
1E
100
AcDbEntity
  8
0
100
AcDbLine
 10
127.566235
 20
825.8309999999999
 30
0.0
 11
126.8396349999999
 21
825.956
 31
0.0
210
0.0
220
0.0
230
-1.0
  0
LINE
  5
E7C
330
1E
100
AcDbEntity
  8
0
100
AcDbLine
 10
127.566235
 20
817.543
 30
0.0
 11
126.8396349999999
 21
817.4179999999999
 31
0.0
210
0.0
220
0.0
230
-1.0
  0
LINE
  5
E7D
330
1E
100
AcDbEntity
  8
0
100
AcDbLine
 10
127.9767349999999
 20
822.4029999999999
 30
0.0
 11
127.290735
 21
822.188
 31
0.0
210
0.0
220
0.0
230
-1.0
  0
LINE
  5
E7E
330
1E
100
AcDbEntity
  8
0
100
AcDbLine
 10
127.9767349999999
 20
820.9709999999999
 30
0.0
 11
127.290735
 21
821.1859999999999
 31
0.0
210
0.0
220
0.0
230
-1.0
  0
LINE
  5
E7F
330
1E
100
AcDbEntity
  8
0
100
AcDbLine
 10
128.1908349999999
 20
817.2439999999999
 30
0.0
 11
127.566235
 21
817.543
 31
0.0
210
0.0
220
0.0
230
-1.0
  0
LINE
  5
E80
330
1E
100
AcDbEntity
  8
0
100
AcDbLine
 10
128.662735
 20
822.188
 30
0.0
 11
127.9767349999999
 21
822.4029999999999
 31
0.0
210
0.0
220
0.0
230
-1.0
  0
LINE
  5
E81
330
1E
100
AcDbEntity
  8
0
100
AcDbLine
 10
128.662735
 20
821.1859999999999
 30
0.0
 11
127.9767349999999
 21
820.9709999999999
 31
0.0
210
0.0
220
0.0
230
-1.0
  0
LINE
  5
E82
330
1E
100
AcDbEntity
  8
0
100
AcDbLine
 10
127.290735
 20
822.188
 30
0.0
 11
126.9967349999999
 21
821.687
 31
0.0
210
0.0
220
0.0
230
-1.0
  0
LINE
  5
E83
330
1E
100
AcDbEntity
  8
0
100
AcDbLine
 10
127.290735
 20
821.1859999999999
 30
0.0
 11
126.9967349999999
 21
821.687
 31
0.0
210
0.0
220
0.0
230
-1.0
  0
LINE
  5
E84
330
1E
100
AcDbEntity
  8
0
100
AcDbLine
 10
127.952535
 20
827.1169999999999
 30
0.0
 11
127.225935
 21
827.242
 31
0.0
210
0.0
220
0.0
230
-1.0
  0
LINE
  5
E85
330
1E
100
AcDbEntity
  8
0
100
AcDbLine
 10
128.1908349999999
 20
826.13
 30
0.0
 11
127.566235
 21
825.8309999999999
 31
0.0
210
0.0
220
0.0
230
-1.0
  0
LINE
  5
E86
330
1E
100
AcDbEntity
  8
0
100
AcDbLine
 10
128.361235
 20
826.661
 30
0.0
 11
128.1908349999999
 21
826.13
 31
0.0
210
0.0
220
0.0
230
-1.0
  0
LINE
  5
E87
330
1E
100
AcDbEntity
  8
0
100
AcDbLine
 10
128.361235
 20
826.661
 30
0.0
 11
127.952535
 21
827.1169999999999
 31
0.0
210
0.0
220
0.0
230
-1.0
  0
LINE
  5
E88
330
1E
100
AcDbEntity
  8
0
100
AcDbLine
 10
126.8396349999999
 20
817.4179999999999
 30
0.0
 11
126.4309349999999
 21
816.9619999999998
 31
0.0
210
0.0
220
0.0
230
-1.0
  0
LINE
  5
E89
330
1E
100
AcDbEntity
  8
0
100
AcDbLine
 10
126.0069349999999
 20
830.5659999999999
 30
0.0
 11
125.261835
 21
830.5959999999998
 31
0.0
210
0.0
220
0.0
230
-1.0
  0
LINE
  5
E8A
330
1E
100
AcDbEntity
  8
0
100
AcDbLine
 10
126.592735
 20
831.484
 30
0.0
 11
126.551035
 21
830.939
 31
0.0
210
0.0
220
0.0
230
-1.0
  0
LINE
  5
E8B
330
1E
100
AcDbEntity
  8
0
100
AcDbLine
 10
126.551035
 20
830.939
 30
0.0
 11
126.0069349999999
 21
830.5659999999999
 31
0.0
210
0.0
220
0.0
230
-1.0
  0
LINE
  5
E8C
330
1E
100
AcDbEntity
  8
0
100
AcDbLine
 10
126.601435
 20
826.9429999999998
 30
0.0
 11
126.4309349999999
 21
826.412
 31
0.0
210
0.0
220
0.0
230
-1.0
  0
LINE
  5
E8D
330
1E
100
AcDbEntity
  8
0
100
AcDbLine
 10
126.8396349999999
 20
825.956
 30
0.0
 11
126.4309349999999
 21
826.412
 31
0.0
210
0.0
220
0.0
230
-1.0
  0
LINE
  5
E8E
330
1E
100
AcDbEntity
  8
0
100
AcDbLine
 10
123.107335
 20
807.0379999999998
 30
0.0
 11
122.366235
 21
807.103
 31
0.0
210
0.0
220
0.0
230
-1.0
  0
LINE
  5
E8F
330
1E
100
AcDbEntity
  8
0
100
AcDbLine
 10
123.346235
 20
808.3429999999999
 30
0.0
 11
122.605135
 21
808.408
 31
0.0
210
0.0
220
0.0
230
-1.0
  0
LINE
  5
E90
330
1E
100
AcDbEntity
  8
0
100
AcDbLine
 10
123.704935
 20
807.3649999999998
 30
0.0
 11
123.107335
 21
807.0379999999998
 31
0.0
210
0.0
220
0.0
230
-1.0
  0
LINE
  5
E91
330
1E
100
AcDbEntity
  8
0
100
AcDbLine
 10
123.793335
 20
807.9069999999999
 30
0.0
 11
123.346235
 21
808.3429999999999
 31
0.0
210
0.0
220
0.0
230
-1.0
  0
LINE
  5
E92
330
1E
100
AcDbEntity
  8
0
100
AcDbLine
 10
123.793335
 20
807.9069999999999
 30
0.0
 11
123.704935
 21
807.3649999999998
 31
0.0
210
0.0
220
0.0
230
-1.0
  0
LINE
  5
E93
330
1E
100
AcDbEntity
  8
0
100
AcDbLine
 10
124.792535
 20
811.8359999999999
 30
0.0
 11
124.750935
 21
812.3799999999999
 31
0.0
210
0.0
220
0.0
230
-1.0
  0
LINE
  5
E94
330
1E
100
AcDbEntity
  8
0
100
AcDbLine
 10
122.007535
 20
808.0809999999999
 30
0.0
 11
121.919135
 21
807.54
 31
0.0
210
0.0
220
0.0
230
-1.0
  0
LINE
  5
E95
330
1E
100
AcDbEntity
  8
0
100
AcDbLine
 10
122.366235
 20
807.103
 30
0.0
 11
121.919135
 21
807.54
 31
0.0
210
0.0
220
0.0
230
-1.0
  0
LINE
  5
E96
330
1E
100
AcDbEntity
  8
0
100
AcDbLine
 10
122.605135
 20
808.408
 30
0.0
 11
122.007535
 21
808.0809999999999
 31
0.0
210
0.0
220
0.0
230
-1.0
  0
LINE
  5
E97
330
1E
100
AcDbEntity
  8
0
100
AcDbLine
 10
124.792535
 20
831.5389999999998
 30
0.0
 11
124.750935
 21
830.994
 31
0.0
210
0.0
220
0.0
230
-1.0
  0
LINE
  5
E98
330
1E
100
AcDbEntity
  8
0
100
AcDbLine
 10
127.616635
 20
851.5129999999999
 30
0.0
 11
124.894785567164
 21
853.6912213553989
 31
0.0
210
0.0
220
0.0
230
-1.0
  0
LINE
  5
E99
330
1E
100
AcDbEntity
  8
0
100
AcDbLine
 10
126.081835
 20
831.8809999999999
 30
0.0
 11
125.336635
 21
831.9119999999999
 31
0.0
210
0.0
220
0.0
230
-1.0
  0
LINE
  5
E9A
330
1E
100
AcDbEntity
  8
0
100
AcDbLine
 10
128.335935
 20
860.055
 30
0.0
 11
126.595835
 21
861.4989999999998
 31
0.0
210
0.0
220
0.0
230
-1.0
  0
LINE
  5
E9B
330
1E
100
AcDbEntity
  8
0
100
AcDbLine
 10
123.107335
 20
836.3359999999998
 30
0.0
 11
122.366235
 21
836.2709999999999
 31
0.0
210
0.0
220
0.0
230
-1.0
  0
LINE
  5
E9C
330
1E
100
AcDbEntity
  8
0
100
AcDbLine
 10
123.346235
 20
835.031
 30
0.0
 11
122.605135
 21
834.966
 31
0.0
210
0.0
220
0.0
230
-1.0
  0
LINE
  5
E9D
330
1E
100
AcDbEntity
  8
0
100
AcDbLine
 10
123.704935
 20
836.0089999999999
 30
0.0
 11
123.107335
 21
836.3359999999998
 31
0.0
210
0.0
220
0.0
230
-1.0
  0
LINE
  5
E9E
330
1E
100
AcDbEntity
  8
0
100
AcDbLine
 10
123.793335
 20
835.467
 30
0.0
 11
123.346235
 21
835.031
 31
0.0
210
0.0
220
0.0
230
-1.0
  0
LINE
  5
E9F
330
1E
100
AcDbEntity
  8
0
100
AcDbLine
 10
123.793335
 20
835.467
 30
0.0
 11
123.704935
 21
836.0089999999999
 31
0.0
210
0.0
220
0.0
230
-1.0
  0
LINE
  5
EA0
330
1E
100
AcDbEntity
  8
0
100
AcDbLine
 10
122.007535
 20
835.293
 30
0.0
 11
121.919135
 21
835.834
 31
0.0
210
0.0
220
0.0
230
-1.0
  0
LINE
  5
EA1
330
1E
100
AcDbEntity
  8
0
100
AcDbLine
 10
122.366235
 20
836.2709999999999
 30
0.0
 11
121.919135
 21
835.834
 31
0.0
210
0.0
220
0.0
230
-1.0
  0
LINE
  5
EA2
330
1E
100
AcDbEntity
  8
0
100
AcDbLine
 10
122.605135
 20
834.966
 30
0.0
 11
122.007535
 21
835.293
 31
0.0
210
0.0
220
0.0
230
-1.0
  0
LINE
  5
EA3
330
1E
100
AcDbEntity
  8
0
100
AcDbLine
 10
124.752335
 20
862.8769999999999
 30
0.0
 11
121.804235
 21
864.8059999999999
 31
0.0
210
0.0
220
0.0
230
-1.0
  0
LINE
  5
EA4
330
1E
100
AcDbEntity
  8
0
100
AcDbLine
 10
124.726635
 20
863.0779999999999
 30
0.0
 11
121.123335
 21
865.4229999999998
 31
0.0
210
0.0
220
0.0
230
-1.0
  0
LINE
  5
EA5
330
1E
100
AcDbEntity
  8
0
100
AcDbLine
 10
102.167135
 20
802.0099999999999
 30
0.0
 11
101.6696349999999
 21
801.604
 31
0.0
210
0.0
220
0.0
230
-1.0
  0
LINE
  5
EA6
330
1E
100
AcDbEntity
  8
0
100
AcDbLine
 10
103.469435
 20
801.6639999999998
 30
0.0
 11
102.913135
 21
802.027
 31
0.0
210
0.0
220
0.0
230
-1.0
  0
LINE
  5
EA7
330
1E
100
AcDbEntity
  8
0
100
AcDbLine
 10
113.1787349999999
 20
794.2579999999999
 30
0.0
 11
101.810735
 21
790.8919999999999
 31
0.0
210
0.0
220
0.0
230
-1.0
  0
LINE
  5
EA8
330
1E
100
AcDbEntity
  8
0
100
AcDbLine
 10
115.290535
 20
800.2309999999999
 30
0.0
 11
115.074835
 21
800.7529999999999
 31
0.0
210
0.0
220
0.0
230
-1.0
  0
LINE
  5
EA9
330
1E
100
AcDbEntity
  8
0
100
AcDbLine
 10
115.290535
 20
800.2309999999999
 30
0.0
 11
114.954035
 21
799.745
 31
0.0
210
0.0
220
0.0
230
-1.0
  0
LINE
  5
EAA
330
1E
100
AcDbEntity
  8
0
100
AcDbLine
 10
114.239535
 20
799.5869999999999
 30
0.0
 11
113.573335
 21
799.833
 31
0.0
210
0.0
220
0.0
230
-1.0
  0
LINE
  5
EAB
330
1E
100
AcDbEntity
  8
0
100
AcDbLine
 10
114.408635
 20
800.9989999999998
 30
0.0
 11
113.694135
 21
800.8419999999999
 31
0.0
210
0.0
220
0.0
230
-1.0
  0
LINE
  5
EAC
330
1E
100
AcDbEntity
  8
0
100
AcDbLine
 10
114.954035
 20
799.745
 30
0.0
 11
114.239535
 21
799.5869999999999
 31
0.0
210
0.0
220
0.0
230
-1.0
  0
LINE
  5
EAD
330
1E
100
AcDbEntity
  8
0
100
AcDbLine
 10
115.074835
 20
800.7529999999999
 30
0.0
 11
114.408635
 21
800.9989999999998
 31
0.0
210
0.0
220
0.0
230
-1.0
  0
LINE
  5
EAE
330
1E
100
AcDbEntity
  8
0
100
AcDbLine
 10
113.694135
 20
800.8419999999999
 30
0.0
 11
113.357635
 21
800.3549999999998
 31
0.0
210
0.0
220
0.0
230
-1.0
  0
LINE
  5
EAF
330
1E
100
AcDbEntity
  8
0
100
AcDbLine
 10
113.573335
 20
799.833
 30
0.0
 11
113.357635
 21
800.3549999999998
 31
0.0
210
0.0
220
0.0
230
-1.0
  0
LINE
  5
EB0
330
1E
100
AcDbEntity
  8
0
100
AcDbLine
 10
109.356735
 20
796.8809999999999
 30
0.0
 11
108.6156349999999
 21
796.8159999999999
 31
0.0
210
0.0
220
0.0
230
-1.0
  0
LINE
  5
EB1
330
1E
100
AcDbEntity
  8
0
100
AcDbLine
 10
109.715435
 20
797.8589999999999
 30
0.0
 11
109.117835
 21
798.1859999999999
 31
0.0
210
0.0
220
0.0
230
-1.0
  0
LINE
  5
EB2
330
1E
100
AcDbEntity
  8
0
100
AcDbLine
 10
109.803835
 20
797.3169999999998
 30
0.0
 11
109.715435
 21
797.8589999999999
 31
0.0
210
0.0
220
0.0
230
-1.0
  0
LINE
  5
EB3
330
1E
100
AcDbEntity
  8
0
100
AcDbLine
 10
109.803835
 20
797.3169999999998
 30
0.0
 11
109.356735
 21
796.8809999999999
 31
0.0
210
0.0
220
0.0
230
-1.0
  0
LINE
  5
EB4
330
1E
100
AcDbEntity
  8
0
100
AcDbLine
 10
108.376735
 20
798.1209999999999
 30
0.0
 11
107.929635
 21
797.684
 31
0.0
210
0.0
220
0.0
230
-1.0
  0
LINE
  5
EB5
330
1E
100
AcDbEntity
  8
0
100
AcDbLine
 10
108.6156349999999
 20
796.8159999999999
 30
0.0
 11
108.018035
 21
797.1429999999998
 31
0.0
210
0.0
220
0.0
230
-1.0
  0
LINE
  5
EB6
330
1E
100
AcDbEntity
  8
0
100
AcDbLine
 10
109.117835
 20
798.1859999999999
 30
0.0
 11
108.376735
 21
798.1209999999999
 31
0.0
210
0.0
220
0.0
230
-1.0
  0
LINE
  5
EB7
330
1E
100
AcDbEntity
  8
0
100
AcDbLine
 10
108.018035
 20
797.1429999999998
 30
0.0
 11
107.929635
 21
797.684
 31
0.0
210
0.0
220
0.0
230
-1.0
  0
LINE
  5
EB8
330
1E
100
AcDbEntity
  8
0
100
AcDbLine
 10
107.929635
 20
797.8421858148889
 30
0.0
 11
107.929635
 21
797.684
 31
0.0
210
0.0
220
0.0
230
-1.0
  0
LINE
  5
EB9
330
1E
100
AcDbEntity
  8
0
100
AcDbLine
 10
107.929635
 20
797.684
 30
0.0
 11
107.929635
 21
797.8421858148889
 31
0.0
210
0.0
220
0.0
230
-1.0
  0
LINE
  5
EBA
330
1E
100
AcDbEntity
  8
0
100
AcDbLine
 10
98.09583500000002
 20
800.6529999999999
 30
0.0
 11
97.35703499999999
 21
800.7309999999998
 31
0.0
210
0.0
220
0.0
230
-1.0
  0
LINE
  5
EBB
330
1E
100
AcDbEntity
  8
0
100
AcDbLine
 10
97.86433500000001
 20
799.3479999999999
 30
0.0
 11
97.12563500000001
 21
799.425
 31
0.0
210
0.0
220
0.0
230
-1.0
  0
LINE
  5
EBC
330
1E
100
AcDbEntity
  8
0
100
AcDbLine
 10
101.810735
 20
790.8919999999999
 30
0.0
 11
89.756735
 21
789.6749999999999
 31
0.0
210
0.0
220
0.0
230
-1.0
  0
LINE
  5
EC0
330
1E
100
AcDbEntity
  8
0
100
AcDbLine
 10
103.492935
 20
801.119
 30
0.0
 11
102.995435
 21
800.7119999999998
 31
0.0
210
0.0
220
0.0
230
-1.0
  0
LINE
  5
EC1
330
1E
100
AcDbEntity
  8
0
100
AcDbLine
 10
103.749635
 20
795.6879999999999
 30
0.0
 11
103.238735
 21
796.0859999999999
 31
0.0
210
0.0
220
0.0
230
-1.0
  0
LINE
  5
EC2
330
1E
100
AcDbEntity
  8
0
100
AcDbLine
 10
103.708035
 20
795.1439999999998
 30
0.0
 11
103.163935
 21
794.7709999999999
 31
0.0
210
0.0
220
0.0
230
-1.0
  0
LINE
  5
EC3
330
1E
100
AcDbEntity
  8
0
100
AcDbLine
 10
104.5211634973183
 20
791.694542428041
 30
0.0
 11
104.224135
 21
789.0449999999999
 31
0.0
210
0.0
220
0.0
230
-1.0
  0
LINE
  5
EC4
330
1E
100
AcDbEntity
  8
0
100
AcDbLine
 10
103.492935
 20
801.119
 30
0.0
 11
103.469435
 21
801.6639999999998
 31
0.0
210
0.0
220
0.0
230
-1.0
  0
LINE
  5
EC5
330
1E
100
AcDbEntity
  8
0
100
AcDbLine
 10
103.749635
 20
795.6879999999999
 30
0.0
 11
103.708035
 21
795.1439999999998
 31
0.0
210
0.0
220
0.0
230
-1.0
  0
LINE
  5
EC6
330
1E
100
AcDbEntity
  8
0
100
AcDbLine
 10
102.995435
 20
800.7119999999998
 30
0.0
 11
102.249435
 21
800.6949999999999
 31
0.0
210
0.0
220
0.0
230
-1.0
  0
LINE
  5
EC7
330
1E
100
AcDbEntity
  8
0
100
AcDbLine
 10
102.493535
 20
796.1159999999998
 30
0.0
 11
101.9495349999999
 21
795.7429999999999
 31
0.0
210
0.0
220
0.0
230
-1.0
  0
LINE
  5
EC8
330
1E
100
AcDbEntity
  8
0
100
AcDbLine
 10
103.163935
 20
794.7709999999999
 30
0.0
 11
102.418735
 21
794.8009999999999
 31
0.0
210
0.0
220
0.0
230
-1.0
  0
LINE
  5
EC9
330
1E
100
AcDbEntity
  8
0
100
AcDbLine
 10
103.238735
 20
796.0859999999999
 30
0.0
 11
102.493535
 21
796.1159999999998
 31
0.0
210
0.0
220
0.0
230
-1.0
  0
LINE
  5
ECA
330
1E
100
AcDbEntity
  8
0
100
AcDbLine
 10
102.249435
 20
800.6949999999999
 30
0.0
 11
101.693135
 21
801.059
 31
0.0
210
0.0
220
0.0
230
-1.0
  0
LINE
  5
ECB
330
1E
100
AcDbEntity
  8
0
100
AcDbLine
 10
101.693135
 20
801.059
 30
0.0
 11
101.6696349999999
 21
801.604
 31
0.0
210
0.0
220
0.0
230
-1.0
  0
LINE
  5
ECC
330
1E
100
AcDbEntity
  8
0
100
AcDbLine
 10
101.9495349999999
 20
795.7429999999999
 30
0.0
 11
101.907835
 21
795.1989999999999
 31
0.0
210
0.0
220
0.0
230
-1.0
  0
LINE
  5
ECD
330
1E
100
AcDbEntity
  8
0
100
AcDbLine
 10
102.418735
 20
794.8009999999999
 30
0.0
 11
101.907835
 21
795.1989999999999
 31
0.0
210
0.0
220
0.0
230
-1.0
  0
LINE
  5
ECE
330
1E
100
AcDbEntity
  8
0
100
AcDbLine
 10
98.55733500000001
 20
800.2239999999998
 30
0.0
 11
98.09583500000002
 21
800.6529999999999
 31
0.0
210
0.0
220
0.0
230
-1.0
  0
LINE
  5
ECF
330
1E
100
AcDbEntity
  8
0
100
AcDbLine
 10
98.55733500000001
 20
800.2239999999998
 30
0.0
 11
98.45093500000002
 21
799.6849999999999
 31
0.0
210
0.0
220
0.0
230
-1.0
  0
LINE
  5
ED0
330
1E
100
AcDbEntity
  8
0
100
AcDbLine
 10
98.45093500000002
 20
799.6849999999999
 30
0.0
 11
97.86433500000001
 21
799.3479999999999
 31
0.0
210
0.0
220
0.0
230
-1.0
  0
LINE
  5
ED1
330
1E
100
AcDbEntity
  8
0
100
AcDbLine
 10
95.83713499999999
 20
793.6029999999999
 30
0.0
 11
95.42843500000001
 21
794.059
 31
0.0
210
0.0
220
0.0
230
-1.0
  0
LINE
  5
ED2
330
1E
100
AcDbEntity
  8
0
100
AcDbLine
 10
96.22343500000001
 20
794.889
 30
0.0
 11
95.59883500000001
 21
794.5899999999999
 31
0.0
210
0.0
220
0.0
230
-1.0
  0
LINE
  5
ED3
330
1E
100
AcDbEntity
  8
0
100
AcDbLine
 10
97.358635
 20
794.3079999999999
 30
0.0
 11
96.95003500000002
 21
794.764
 31
0.0
210
0.0
220
0.0
230
-1.0
  0
LINE
  5
ED4
330
1E
100
AcDbEntity
  8
0
100
AcDbLine
 10
97.188235
 20
793.7769999999999
 30
0.0
 11
96.563735
 21
793.4779999999999
 31
0.0
210
0.0
220
0.0
230
-1.0
  0
LINE
  5
ED5
330
1E
100
AcDbEntity
  8
0
100
AcDbLine
 10
97.358635
 20
794.3079999999999
 30
0.0
 11
97.188235
 21
793.7769999999999
 31
0.0
210
0.0
220
0.0
230
-1.0
  0
LINE
  5
ED6
330
1E
100
AcDbEntity
  8
0
100
AcDbLine
 10
96.563735
 20
793.4779999999999
 30
0.0
 11
95.83713499999999
 21
793.6029999999999
 31
0.0
210
0.0
220
0.0
230
-1.0
  0
LINE
  5
ED7
330
1E
100
AcDbEntity
  8
0
100
AcDbLine
 10
96.95003500000002
 20
794.764
 30
0.0
 11
96.22343500000001
 21
794.889
 31
0.0
210
0.0
220
0.0
230
-1.0
  0
LINE
  5
ED8
330
1E
100
AcDbEntity
  8
0
100
AcDbLine
 10
97.35703499999999
 20
800.7309999999998
 30
0.0
 11
96.77053500000001
 21
800.3939999999998
 31
0.0
210
0.0
220
0.0
230
-1.0
  0
LINE
  5
ED9
330
1E
100
AcDbEntity
  8
0
100
AcDbLine
 10
96.77053500000001
 20
800.3939999999998
 30
0.0
 11
96.66413500000002
 21
799.8539999999999
 31
0.0
210
0.0
220
0.0
230
-1.0
  0
LINE
  5
EDA
330
1E
100
AcDbEntity
  8
0
100
AcDbLine
 10
97.12563500000001
 20
799.425
 30
0.0
 11
96.66413500000002
 21
799.8539999999999
 31
0.0
210
0.0
220
0.0
230
-1.0
  0
LINE
  5
EDB
330
1E
100
AcDbEntity
  8
0
100
AcDbLine
 10
95.59883500000001
 20
794.5899999999999
 30
0.0
 11
95.42843500000001
 21
794.059
 31
0.0
210
0.0
220
0.0
230
-1.0
  0
LINE
  5
EDC
330
1E
100
AcDbEntity
  8
0
100
AcDbLine
 10
91.77793500000001
 20
798.8249999999999
 30
0.0
 11
91.42523500000001
 21
799.3059999999999
 31
0.0
210
0.0
220
0.0
230
-1.0
  0
LINE
  5
EDD
330
1E
100
AcDbEntity
  8
0
100
AcDbLine
 10
92.31613499999999
 20
800.0809999999999
 30
0.0
 11
91.65833500000001
 21
799.824
 31
0.0
210
0.0
220
0.0
230
-1.0
  0
LINE
  5
EDE
330
1E
100
AcDbEntity
  8
0
100
AcDbLine
 10
93.14473500000001
 20
798.9119999999999
 30
0.0
 11
92.48693500000001
 21
798.655
 31
0.0
210
0.0
220
0.0
230
-1.0
  0
LINE
  5
EDF
330
1E
100
AcDbEntity
  8
0
100
AcDbLine
 10
93.02513500000001
 20
799.9109999999999
 30
0.0
 11
92.31613499999999
 21
800.0809999999999
 31
0.0
210
0.0
220
0.0
230
-1.0
  0
LINE
  5
EE0
330
1E
100
AcDbEntity
  8
0
100
AcDbLine
 10
93.377835
 20
799.4299999999999
 30
0.0
 11
93.02513500000001
 21
799.9109999999999
 31
0.0
210
0.0
220
0.0
230
-1.0
  0
LINE
  5
EE1
330
1E
100
AcDbEntity
  8
0
100
AcDbLine
 10
93.377835
 20
799.4299999999999
 30
0.0
 11
93.14473500000001
 21
798.9119999999999
 31
0.0
210
0.0
220
0.0
230
-1.0
  0
LINE
  5
EE2
330
1E
100
AcDbEntity
  8
0
100
AcDbLine
 10
92.48693500000001
 20
798.655
 30
0.0
 11
91.77793500000001
 21
798.8249999999999
 31
0.0
210
0.0
220
0.0
230
-1.0
  0
LINE
  5
EE3
330
1E
100
AcDbEntity
  8
0
100
AcDbLine
 10
90.442735
 20
794.261
 30
0.0
 11
89.756735
 21
794.4749999999999
 31
0.0
210
0.0
220
0.0
230
-1.0
  0
LINE
  5
EE4
330
1E
100
AcDbEntity
  8
0
100
AcDbLine
 10
90.73673500000001
 20
793.7589999999999
 30
0.0
 11
90.442735
 21
794.261
 31
0.0
210
0.0
220
0.0
230
-1.0
  0
LINE
  5
EE5
330
1E
100
AcDbEntity
  8
0
100
AcDbLine
 10
90.73673500000001
 20
793.7589999999999
 30
0.0
 11
90.442735
 21
793.2579999999999
 31
0.0
210
0.0
220
0.0
230
-1.0
  0
LINE
  5
EE6
330
1E
100
AcDbEntity
  8
0
100
AcDbLine
 10
90.442735
 20
793.2579999999999
 30
0.0
 11
89.756735
 21
793.043
 31
0.0
210
0.0
220
0.0
230
-1.0
  0
LINE
  5
EE7
330
1E
100
AcDbEntity
  8
0
100
AcDbLine
 10
91.65833500000001
 20
799.824
 30
0.0
 11
91.42523500000001
 21
799.3059999999999
 31
0.0
210
0.0
220
0.0
230
-1.0
  0
LINE
  5
EE8
330
1E
100
AcDbEntity
  8
0
100
AcDbLine
 10
108.666935
 20
870.805
 30
0.0
 11
104.098035
 21
871.987
 31
0.0
210
0.0
220
0.0
230
-1.0
  0
LINE
  5
EE9
330
1E
100
AcDbEntity
  8
0
100
AcDbLine
 10
106.013535
 20
871.2669999999999
 30
0.0
 11
103.802435
 21
871.7779999999999
 31
0.0
210
0.0
220
0.0
230
-1.0
  0
LINE
  5
EEA
330
1E
100
AcDbEntity
  8
0
100
AcDbLine
 10
115.7350187589196
 20
859.0509590213059
 30
0.0
 11
102.300735
 21
863.446
 31
0.0
210
0.0
220
0.0
230
-1.0
  0
LINE
  5
EEB
330
1E
100
AcDbEntity
  8
0
100
AcDbLine
 10
117.5909349999999
 20
831.4949999999999
 30
0.0
 11
116.844935
 21
831.4769999999999
 31
0.0
210
0.0
220
0.0
230
-1.0
  0
LINE
  5
EEC
330
1E
100
AcDbEntity
  8
0
100
AcDbLine
 10
117.6732349999999
 20
830.179
 30
0.0
 11
116.927235
 21
830.1619999999999
 31
0.0
210
0.0
220
0.0
230
-1.0
  0
LINE
  5
EED
330
1E
100
AcDbEntity
  8
0
100
AcDbLine
 10
117.6732349999999
 20
812.7349999999999
 30
0.0
 11
116.927235
 21
812.753
 31
0.0
210
0.0
220
0.0
230
-1.0
  0
LINE
  5
EEE
330
1E
100
AcDbEntity
  8
0
100
AcDbLine
 10
117.5909349999999
 20
811.42
 30
0.0
 11
116.844935
 21
811.437
 31
0.0
210
0.0
220
0.0
230
-1.0
  0
LINE
  5
EEF
330
1E
100
AcDbEntity
  8
0
100
AcDbLine
 10
119.553335
 20
815.104
 30
0.0
 11
118.814535
 21
815.0269999999999
 31
0.0
210
0.0
220
0.0
230
-1.0
  0
LINE
  5
EF0
330
1E
100
AcDbEntity
  8
0
100
AcDbLine
 10
119.321835
 20
816.4099999999999
 30
0.0
 11
118.5831349999999
 21
816.332
 31
0.0
210
0.0
220
0.0
230
-1.0
  0
LINE
  5
EF1
330
1E
100
AcDbEntity
  8
0
100
AcDbLine
 10
119.119535
 20
803.0289999999999
 30
0.0
 11
118.4050349999999
 21
803.1869999999999
 31
0.0
210
0.0
220
0.0
230
-1.0
  0
LINE
  5
EF2
330
1E
100
AcDbEntity
  8
0
100
AcDbLine
 10
119.664835
 20
804.2839999999999
 30
0.0
 11
118.9504349999999
 21
804.4419999999998
 31
0.0
210
0.0
220
0.0
230
-1.0
  0
LINE
  5
EF3
330
1E
100
AcDbEntity
  8
0
100
AcDbLine
 10
119.785635
 20
803.275
 30
0.0
 11
119.119535
 21
803.0289999999999
 31
0.0
210
0.0
220
0.0
230
-1.0
  0
LINE
  5
EF4
330
1E
100
AcDbEntity
  8
0
100
AcDbLine
 10
120.001435
 20
803.7969999999999
 30
0.0
 11
119.664835
 21
804.2839999999999
 31
0.0
210
0.0
220
0.0
230
-1.0
  0
LINE
  5
EF5
330
1E
100
AcDbEntity
  8
0
100
AcDbLine
 10
120.001435
 20
803.7969999999999
 30
0.0
 11
119.785635
 21
803.275
 31
0.0
210
0.0
220
0.0
230
-1.0
  0
LINE
  5
EF6
330
1E
100
AcDbEntity
  8
0
100
AcDbLine
 10
120.014835
 20
815.5330000000001
 30
0.0
 11
119.908435
 21
816.0729999999999
 31
0.0
210
0.0
220
0.0
230
-1.0
  0
LINE
  5
EF7
330
1E
100
AcDbEntity
  8
0
100
AcDbLine
 10
120.014835
 20
815.5330000000001
 30
0.0
 11
119.553335
 21
815.104
 31
0.0
210
0.0
220
0.0
230
-1.0
  0
LINE
  5
EF8
330
1E
100
AcDbEntity
  8
0
100
AcDbLine
 10
119.908435
 20
816.0729999999999
 30
0.0
 11
119.321835
 21
816.4099999999999
 31
0.0
210
0.0
220
0.0
230
-1.0
  0
LINE
  5
EF9
330
1E
100
AcDbEntity
  8
0
100
AcDbLine
 10
118.284235
 20
804.1959999999999
 30
0.0
 11
118.068535
 21
803.6739999999998
 31
0.0
210
0.0
220
0.0
230
-1.0
  0
LINE
  5
EFA
330
1E
100
AcDbEntity
  8
0
100
AcDbLine
 10
118.4050349999999
 20
803.1869999999999
 30
0.0
 11
118.068535
 21
803.6739999999998
 31
0.0
210
0.0
220
0.0
230
-1.0
  0
LINE
  5
EFB
330
1E
100
AcDbEntity
  8
0
100
AcDbLine
 10
118.9504349999999
 20
804.4419999999998
 30
0.0
 11
118.284235
 21
804.1959999999999
 31
0.0
210
0.0
220
0.0
230
-1.0
  0
LINE
  5
EFC
330
1E
100
AcDbEntity
  8
0
100
AcDbLine
 10
118.147235
 20
811.7839999999999
 30
0.0
 11
117.5909349999999
 21
811.42
 31
0.0
210
0.0
220
0.0
230
-1.0
  0
LINE
  5
EFD
330
1E
100
AcDbEntity
  8
0
100
AcDbLine
 10
118.170735
 20
812.3289999999999
 30
0.0
 11
117.6732349999999
 21
812.7349999999999
 31
0.0
210
0.0
220
0.0
230
-1.0
  0
LINE
  5
EFE
330
1E
100
AcDbEntity
  8
0
100
AcDbLine
 10
118.5831349999999
 20
816.332
 30
0.0
 11
118.1216349999999
 21
815.9039999999999
 31
0.0
210
0.0
220
0.0
230
-1.0
  0
LINE
  5
EFF
330
1E
100
AcDbEntity
  8
0
100
AcDbLine
 10
118.228035
 20
815.3639999999999
 30
0.0
 11
118.1216349999999
 21
815.9039999999999
 31
0.0
210
0.0
220
0.0
230
-1.0
  0
LINE
  5
F00
330
1E
100
AcDbEntity
  8
0
100
AcDbLine
 10
118.170735
 20
812.3289999999999
 30
0.0
 11
118.147235
 21
811.7839999999999
 31
0.0
210
0.0
220
0.0
230
-1.0
  0
LINE
  5
F01
330
1E
100
AcDbEntity
  8
0
100
AcDbLine
 10
118.814535
 20
815.0269999999999
 30
0.0
 11
118.228035
 21
815.3639999999999
 31
0.0
210
0.0
220
0.0
230
-1.0
  0
LINE
  5
F02
330
1E
100
AcDbEntity
  8
0
100
AcDbLine
 10
119.553335
 20
827.81
 30
0.0
 11
118.814535
 21
827.8879999999999
 31
0.0
210
0.0
220
0.0
230
-1.0
  0
LINE
  5
F03
330
1E
100
AcDbEntity
  8
0
100
AcDbLine
 10
119.321835
 20
826.505
 30
0.0
 11
118.5831349999999
 21
826.5819999999999
 31
0.0
210
0.0
220
0.0
230
-1.0
  0
LINE
  5
F04
330
1E
100
AcDbEntity
  8
0
100
AcDbLine
 10
119.243535
 20
823.8459999999999
 30
0.0
 11
119.010435
 21
823.3279999999998
 31
0.0
210
0.0
220
0.0
230
-1.0
  0
LINE
  5
F05
330
1E
100
AcDbEntity
  8
0
100
AcDbLine
 10
119.3631349999999
 20
822.8469999999997
 30
0.0
 11
119.010435
 21
823.3279999999998
 31
0.0
210
0.0
220
0.0
230
-1.0
  0
LINE
  5
F06
330
1E
100
AcDbEntity
  8
0
100
AcDbLine
 10
119.3631349999999
 20
820.0679999999998
 30
0.0
 11
119.010435
 21
819.5869999999999
 31
0.0
210
0.0
220
0.0
230
-1.0
  0
LINE
  5
F07
330
1E
100
AcDbEntity
  8
0
100
AcDbLine
 10
119.243535
 20
819.069
 30
0.0
 11
119.010435
 21
819.5869999999999
 31
0.0
210
0.0
220
0.0
230
-1.0
  0
LINE
  5
F08
330
1E
100
AcDbEntity
  8
0
100
AcDbLine
 10
120.610335
 20
823.9329999999998
 30
0.0
 11
119.9013349999999
 21
824.103
 31
0.0
210
0.0
220
0.0
230
-1.0
  0
LINE
  5
F09
330
1E
100
AcDbEntity
  8
0
100
AcDbLine
 10
120.072135
 20
822.677
 30
0.0
 11
119.3631349999999
 21
822.8469999999997
 31
0.0
210
0.0
220
0.0
230
-1.0
  0
LINE
  5
F0A
330
1E
100
AcDbEntity
  8
0
100
AcDbLine
 10
120.072135
 20
820.2379999999999
 30
0.0
 11
119.3631349999999
 21
820.0679999999998
 31
0.0
210
0.0
220
0.0
230
-1.0
  0
LINE
  5
F0B
330
1E
100
AcDbEntity
  8
0
100
AcDbLine
 10
120.610335
 20
818.9819999999999
 30
0.0
 11
119.9013349999999
 21
818.8109999999999
 31
0.0
210
0.0
220
0.0
230
-1.0
  0
LINE
  5
F0C
330
1E
100
AcDbEntity
  8
0
100
AcDbLine
 10
120.963035
 20
823.4519999999999
 30
0.0
 11
120.610335
 21
823.9329999999998
 31
0.0
210
0.0
220
0.0
230
-1.0
  0
LINE
  5
F0D
330
1E
100
AcDbEntity
  8
0
100
AcDbLine
 10
120.963035
 20
823.4519999999999
 30
0.0
 11
120.729935
 21
822.934
 31
0.0
210
0.0
220
0.0
230
-1.0
  0
LINE
  5
F0E
330
1E
100
AcDbEntity
  8
0
100
AcDbLine
 10
120.729935
 20
822.934
 30
0.0
 11
120.072135
 21
822.677
 31
0.0
210
0.0
220
0.0
230
-1.0
  0
LINE
  5
F0F
330
1E
100
AcDbEntity
  8
0
100
AcDbLine
 10
120.729935
 20
819.9809999999999
 30
0.0
 11
120.072135
 21
820.2379999999999
 31
0.0
210
0.0
220
0.0
230
-1.0
  0
LINE
  5
F10
330
1E
100
AcDbEntity
  8
0
100
AcDbLine
 10
120.963035
 20
819.4619999999998
 30
0.0
 11
120.963035
 21
819.5156241203379
 31
0.0
210
0.0
220
0.0
230
-1.0
  0
LINE
  5
F11
330
1E
100
AcDbEntity
  8
0
100
AcDbLine
 10
120.963035
 20
819.4619999999998
 30
0.0
 11
120.729935
 21
819.9809999999999
 31
0.0
210
0.0
220
0.0
230
-1.0
  0
LINE
  5
F12
330
1E
100
AcDbEntity
  8
0
100
AcDbLine
 10
120.963035
 20
819.4619999999998
 30
0.0
 11
120.610335
 21
818.9819999999999
 31
0.0
210
0.0
220
0.0
230
-1.0
  0
LINE
  5
F13
330
1E
100
AcDbEntity
  8
0
100
AcDbLine
 10
120.963035
 20
819.5156241203379
 30
0.0
 11
120.963035
 21
819.4619999999998
 31
0.0
210
0.0
220
0.0
230
-1.0
  0
LINE
  5
F14
330
1E
100
AcDbEntity
  8
0
100
AcDbLine
 10
119.9013349999999
 20
824.103
 30
0.0
 11
119.243535
 21
823.8459999999999
 31
0.0
210
0.0
220
0.0
230
-1.0
  0
LINE
  5
F15
330
1E
100
AcDbEntity
  8
0
100
AcDbLine
 10
119.9013349999999
 20
818.8109999999999
 30
0.0
 11
119.243535
 21
819.069
 31
0.0
210
0.0
220
0.0
230
-1.0
  0
LINE
  5
F16
330
1E
100
AcDbEntity
  8
0
100
AcDbLine
 10
120.014835
 20
827.3819999999998
 30
0.0
 11
119.908435
 21
826.842
 31
0.0
210
0.0
220
0.0
230
-1.0
  0
LINE
  5
F17
330
1E
100
AcDbEntity
  8
0
100
AcDbLine
 10
120.014835
 20
827.3819999999998
 30
0.0
 11
119.553335
 21
827.81
 31
0.0
210
0.0
220
0.0
230
-1.0
  0
LINE
  5
F18
330
1E
100
AcDbEntity
  8
0
100
AcDbLine
 10
119.908435
 20
826.842
 30
0.0
 11
119.321835
 21
826.505
 31
0.0
210
0.0
220
0.0
230
-1.0
  0
LINE
  5
F19
330
1E
100
AcDbEntity
  8
0
100
AcDbLine
 10
118.147235
 20
831.131
 30
0.0
 11
117.5909349999999
 21
831.4949999999999
 31
0.0
210
0.0
220
0.0
230
-1.0
  0
LINE
  5
F1A
330
1E
100
AcDbEntity
  8
0
100
AcDbLine
 10
118.170735
 20
830.5859999999999
 30
0.0
 11
117.6732349999999
 21
830.179
 31
0.0
210
0.0
220
0.0
230
-1.0
  0
LINE
  5
F1B
330
1E
100
AcDbEntity
  8
0
100
AcDbLine
 10
118.1216349999999
 20
827.488611725067
 30
0.0
 11
118.1216349999999
 21
827.0109999999998
 31
0.0
210
0.0
220
0.0
230
-1.0
  0
LINE
  5
F1C
330
1E
100
AcDbEntity
  8
0
100
AcDbLine
 10
118.228035
 20
827.5509999999998
 30
0.0
 11
118.1216349999999
 21
827.0109999999998
 31
0.0
210
0.0
220
0.0
230
-1.0
  0
LINE
  5
F1D
330
1E
100
AcDbEntity
  8
0
100
AcDbLine
 10
118.170735
 20
830.5859999999999
 30
0.0
 11
118.147235
 21
831.131
 31
0.0
210
0.0
220
0.0
230
-1.0
  0
LINE
  5
F1E
330
1E
100
AcDbEntity
  8
0
100
AcDbLine
 10
118.814535
 20
827.8879999999999
 30
0.0
 11
118.228035
 21
827.5509999999998
 31
0.0
210
0.0
220
0.0
230
-1.0
  0
LINE
  5
F1F
330
1E
100
AcDbEntity
  8
0
100
AcDbLine
 10
118.1216349999999
 20
827.0109999999998
 30
0.0
 11
118.1216349999999
 21
827.488611725067
 31
0.0
210
0.0
220
0.0
230
-1.0
  0
LINE
  5
F20
330
1E
100
AcDbEntity
  8
0
100
AcDbLine
 10
118.5831349999999
 20
826.5819999999999
 30
0.0
 11
118.1216349999999
 21
827.0109999999998
 31
0.0
210
0.0
220
0.0
230
-1.0
  0
LINE
  5
F21
330
1E
100
AcDbEntity
  8
0
100
AcDbLine
 10
115.417035
 20
808.3279999999998
 30
0.0
 11
114.782735
 21
808.0409999999998
 31
0.0
210
0.0
220
0.0
230
-1.0
  0
LINE
  5
F22
330
1E
100
AcDbEntity
  8
0
100
AcDbLine
 10
115.176435
 20
809.3259999999999
 30
0.0
 11
114.445835
 21
809.4369999999999
 31
0.0
210
0.0
220
0.0
230
-1.0
  0
LINE
  5
F23
330
1E
100
AcDbEntity
  8
0
100
AcDbLine
 10
115.569735
 20
808.862
 30
0.0
 11
115.176435
 21
809.3259999999999
 31
0.0
210
0.0
220
0.0
230
-1.0
  0
LINE
  5
F24
330
1E
100
AcDbEntity
  8
0
100
AcDbLine
 10
115.569735
 20
808.862
 30
0.0
 11
115.417035
 21
808.3279999999998
 31
0.0
210
0.0
220
0.0
230
-1.0
  0
LINE
  5
F25
330
1E
100
AcDbEntity
  8
0
100
AcDbLine
 10
116.927235
 20
812.753
 30
0.0
 11
116.3709349999999
 21
812.3889999999999
 31
0.0
210
0.0
220
0.0
230
-1.0
  0
LINE
  5
F26
330
1E
100
AcDbEntity
  8
0
100
AcDbLine
 10
116.3709349999999
 20
812.3889999999999
 30
0.0
 11
116.3474349999999
 21
811.8439999999999
 31
0.0
210
0.0
220
0.0
230
-1.0
  0
LINE
  5
F27
330
1E
100
AcDbEntity
  8
0
100
AcDbLine
 10
116.844935
 20
811.437
 30
0.0
 11
116.3474349999999
 21
811.8439999999999
 31
0.0
210
0.0
220
0.0
230
-1.0
  0
LINE
  5
F28
330
1E
100
AcDbEntity
  8
0
100
AcDbLine
 10
114.445835
 20
809.4369999999999
 30
0.0
 11
113.811535
 21
809.1499999999999
 31
0.0
210
0.0
220
0.0
230
-1.0
  0
LINE
  5
F29
330
1E
100
AcDbEntity
  8
0
100
AcDbLine
 10
114.782735
 20
808.0409999999998
 30
0.0
 11
114.052235
 21
808.1519999999999
 31
0.0
210
0.0
220
0.0
230
-1.0
  0
LINE
  5
F2A
330
1E
100
AcDbEntity
  8
0
100
AcDbLine
 10
113.811535
 20
809.1499999999999
 30
0.0
 11
113.658935
 21
808.6159999999999
 31
0.0
210
0.0
220
0.0
230
-1.0
  0
LINE
  5
F2B
330
1E
100
AcDbEntity
  8
0
100
AcDbLine
 10
114.052235
 20
808.1519999999999
 30
0.0
 11
113.658935
 21
808.6159999999999
 31
0.0
210
0.0
220
0.0
230
-1.0
  0
LINE
  5
F2C
330
1E
100
AcDbEntity
  8
0
100
AcDbLine
 10
116.3709349999999
 20
830.526
 30
0.0
 11
116.3474349999999
 21
831.071
 31
0.0
210
0.0
220
0.0
230
-1.0
  0
LINE
  5
F2D
330
1E
100
AcDbEntity
  8
0
100
AcDbLine
 10
116.844935
 20
831.4769999999999
 30
0.0
 11
116.3474349999999
 21
831.071
 31
0.0
210
0.0
220
0.0
230
-1.0
  0
LINE
  5
F2E
330
1E
100
AcDbEntity
  8
0
100
AcDbLine
 10
116.927235
 20
830.1619999999999
 30
0.0
 11
116.3709349999999
 21
830.526
 31
0.0
210
0.0
220
0.0
230
-1.0
  0
LINE
  5
F2F
330
1E
100
AcDbEntity
  8
0
100
AcDbLine
 10
120.824835
 20
856.4379999999999
 30
0.0
 11
116.965335
 21
858.516
 31
0.0
210
0.0
220
0.0
230
-1.0
  0
LINE
  5
F30
330
1E
100
AcDbEntity
  8
0
100
AcDbLine
 10
119.119535
 20
840.3449999999999
 30
0.0
 11
118.4050349999999
 21
840.187
 31
0.0
210
0.0
220
0.0
230
-1.0
  0
LINE
  5
F31
330
1E
100
AcDbEntity
  8
0
100
AcDbLine
 10
119.664835
 20
839.0899999999998
 30
0.0
 11
118.9504349999999
 21
838.9319999999999
 31
0.0
210
0.0
220
0.0
230
-1.0
  0
LINE
  5
F32
330
1E
100
AcDbEntity
  8
0
100
AcDbLine
 10
120.001435
 20
839.5769999999998
 30
0.0
 11
119.664835
 21
839.0899999999998
 31
0.0
210
0.0
220
0.0
230
-1.0
  0
LINE
  5
F33
330
1E
100
AcDbEntity
  8
0
100
AcDbLine
 10
119.785635
 20
840.099
 30
0.0
 11
119.119535
 21
840.3449999999999
 31
0.0
210
0.0
220
0.0
230
-1.0
  0
LINE
  5
F34
330
1E
100
AcDbEntity
  8
0
100
AcDbLine
 10
120.001435
 20
839.5769999999998
 30
0.0
 11
119.785635
 21
840.099
 31
0.0
210
0.0
220
0.0
230
-1.0
  0
LINE
  5
F35
330
1E
100
AcDbEntity
  8
0
100
AcDbLine
 10
118.284235
 20
839.178
 30
0.0
 11
118.068535
 21
839.7
 31
0.0
210
0.0
220
0.0
230
-1.0
  0
LINE
  5
F36
330
1E
100
AcDbEntity
  8
0
100
AcDbLine
 10
118.9504349999999
 20
838.9319999999999
 30
0.0
 11
118.284235
 21
839.178
 31
0.0
210
0.0
220
0.0
230
-1.0
  0
LINE
  5
F37
330
1E
100
AcDbEntity
  8
0
100
AcDbLine
 10
118.4050349999999
 20
840.187
 30
0.0
 11
118.068535
 21
839.7
 31
0.0
210
0.0
220
0.0
230
-1.0
  0
LINE
  5
F38
330
1E
100
AcDbEntity
  8
0
100
AcDbLine
 10
115.290535
 20
843.1429999999998
 30
0.0
 11
115.074835
 21
842.6209999999999
 31
0.0
210
0.0
220
0.0
230
-1.0
  0
LINE
  5
F39
330
1E
100
AcDbEntity
  8
0
100
AcDbLine
 10
115.290535
 20
843.1429999999998
 30
0.0
 11
114.954035
 21
843.6299999999999
 31
0.0
210
0.0
220
0.0
230
-1.0
  0
LINE
  5
F3A
330
1E
100
AcDbEntity
  8
0
100
AcDbLine
 10
115.417035
 20
834.5859999999998
 30
0.0
 11
114.782735
 21
834.8739999999999
 31
0.0
210
0.0
220
0.0
230
-1.0
  0
LINE
  5
F3B
330
1E
100
AcDbEntity
  8
0
100
AcDbLine
 10
115.176435
 20
833.5889999999999
 30
0.0
 11
114.445835
 21
833.478
 31
0.0
210
0.0
220
0.0
230
-1.0
  0
LINE
  5
F3C
330
1E
100
AcDbEntity
  8
0
100
AcDbLine
 10
115.569735
 20
834.0529999999999
 30
0.0
 11
115.176435
 21
833.5889999999999
 31
0.0
210
0.0
220
0.0
230
-1.0
  0
LINE
  5
F3D
330
1E
100
AcDbEntity
  8
0
100
AcDbLine
 10
115.569735
 20
834.0529999999999
 30
0.0
 11
115.417035
 21
834.5859999999998
 31
0.0
210
0.0
220
0.0
230
-1.0
  0
LINE
  5
F3E
330
1E
100
AcDbEntity
  8
0
100
AcDbLine
 10
114.782735
 20
834.8739999999999
 30
0.0
 11
114.052235
 21
834.7619999999999
 31
0.0
210
0.0
220
0.0
230
-1.0
  0
LINE
  5
F3F
330
1E
100
AcDbEntity
  8
0
100
AcDbLine
 10
114.445835
 20
833.478
 30
0.0
 11
113.811535
 21
833.765
 31
0.0
210
0.0
220
0.0
230
-1.0
  0
LINE
  5
F40
330
1E
100
AcDbEntity
  8
0
100
AcDbLine
 10
113.811535
 20
833.765
 30
0.0
 11
113.658935
 21
834.2989999999998
 31
0.0
210
0.0
220
0.0
230
-1.0
  0
LINE
  5
F41
330
1E
100
AcDbEntity
  8
0
100
AcDbLine
 10
114.052235
 20
834.7619999999999
 30
0.0
 11
113.658935
 21
834.2989999999998
 31
0.0
210
0.0
220
0.0
230
-1.0
  0
LINE
  5
F42
330
1E
100
AcDbEntity
  8
0
100
AcDbLine
 10
114.239535
 20
843.787
 30
0.0
 11
113.573335
 21
843.5409999999999
 31
0.0
210
0.0
220
0.0
230
-1.0
  0
LINE
  5
F43
330
1E
100
AcDbEntity
  8
0
100
AcDbLine
 10
114.408635
 20
842.3749999999998
 30
0.0
 11
113.694135
 21
842.5319999999999
 31
0.0
210
0.0
220
0.0
230
-1.0
  0
LINE
  5
F44
330
1E
100
AcDbEntity
  8
0
100
AcDbLine
 10
114.954035
 20
843.6299999999999
 30
0.0
 11
114.239535
 21
843.787
 31
0.0
210
0.0
220
0.0
230
-1.0
  0
LINE
  5
F45
330
1E
100
AcDbEntity
  8
0
100
AcDbLine
 10
115.074835
 20
842.6209999999999
 30
0.0
 11
114.408635
 21
842.3749999999998
 31
0.0
210
0.0
220
0.0
230
-1.0
  0
LINE
  5
F46
330
1E
100
AcDbEntity
  8
0
100
AcDbLine
 10
113.573335
 20
843.5409999999999
 30
0.0
 11
113.357635
 21
843.0189999999999
 31
0.0
210
0.0
220
0.0
230
-1.0
  0
LINE
  5
F47
330
1E
100
AcDbEntity
  8
0
100
AcDbLine
 10
113.694135
 20
842.5319999999999
 30
0.0
 11
113.357635
 21
843.0189999999999
 31
0.0
210
0.0
220
0.0
230
-1.0
  0
LINE
  5
F48
330
1E
100
AcDbEntity
  8
0
100
AcDbLine
 10
116.965335
 20
858.516
 30
0.0
 11
115.7350187589196
 21
859.0509590213059
 31
0.0
210
0.0
220
0.0
230
-1.0
  0
LINE
  5
F49
330
1E
100
AcDbEntity
  8
0
100
AcDbLine
 10
109.498135
 20
830.1359999999998
 30
0.0
 11
108.757035
 21
830.071
 31
0.0
210
0.0
220
0.0
230
-1.0
  0
LINE
  5
F4A
330
1E
100
AcDbEntity
  8
0
100
AcDbLine
 10
109.737035
 20
828.831
 30
0.0
 11
108.9959349999999
 21
828.7659999999998
 31
0.0
210
0.0
220
0.0
230
-1.0
  0
LINE
  5
F4B
330
1E
100
AcDbEntity
  8
0
100
AcDbLine
 10
109.498135
 20
812.321
 30
0.0
 11
108.757035
 21
812.386
 31
0.0
210
0.0
220
0.0
230
-1.0
  0
LINE
  5
F4C
330
1E
100
AcDbEntity
  8
0
100
AcDbLine
 10
109.737035
 20
813.6259999999998
 30
0.0
 11
108.9959349999999
 21
813.6909999999998
 31
0.0
210
0.0
220
0.0
230
-1.0
  0
LINE
  5
F4D
330
1E
100
AcDbEntity
  8
0
100
AcDbLine
 10
111.907235
 20
805.2719999999998
 30
0.0
 11
111.214235
 21
805.0689999999999
 31
0.0
210
0.0
220
0.0
230
-1.0
  0
LINE
  5
F4E
330
1E
100
AcDbEntity
  8
0
100
AcDbLine
 10
111.907235
 20
806.2849999999999
 30
0.0
 11
111.214235
 21
806.4869999999999
 31
0.0
210
0.0
220
0.0
230
-1.0
  0
LINE
  5
F4F
330
1E
100
AcDbEntity
  8
0
100
AcDbLine
 10
112.184435
 20
805.7779999999999
 30
0.0
 11
111.907235
 21
806.2849999999999
 31
0.0
210
0.0
220
0.0
230
-1.0
  0
LINE
  5
F50
330
1E
100
AcDbEntity
  8
0
100
AcDbLine
 10
112.184435
 20
805.7779999999999
 30
0.0
 11
111.907235
 21
805.2719999999998
 31
0.0
210
0.0
220
0.0
230
-1.0
  0
LINE
  5
F51
330
1E
100
AcDbEntity
  8
0
100
AcDbLine
 10
110.521235
 20
806.2849999999999
 30
0.0
 11
110.244035
 21
805.7779999999999
 31
0.0
210
0.0
220
0.0
230
-1.0
  0
LINE
  5
F52
330
1E
100
AcDbEntity
  8
0
100
AcDbLine
 10
110.521235
 20
805.2719999999998
 30
0.0
 11
110.244035
 21
805.7779999999999
 31
0.0
210
0.0
220
0.0
230
-1.0
  0
LINE
  5
F53
330
1E
100
AcDbEntity
  8
0
100
AcDbLine
 10
111.214235
 20
805.0689999999999
 30
0.0
 11
110.521235
 21
805.2719999999998
 31
0.0
210
0.0
220
0.0
230
-1.0
  0
LINE
  5
F54
330
1E
100
AcDbEntity
  8
0
100
AcDbLine
 10
111.214235
 20
806.4869999999999
 30
0.0
 11
110.521235
 21
806.2849999999999
 31
0.0
210
0.0
220
0.0
230
-1.0
  0
LINE
  5
F55
330
1E
100
AcDbEntity
  8
0
100
AcDbLine
 10
110.095735
 20
812.648
 30
0.0
 11
109.498135
 21
812.321
 31
0.0
210
0.0
220
0.0
230
-1.0
  0
LINE
  5
F56
330
1E
100
AcDbEntity
  8
0
100
AcDbLine
 10
110.1841349999999
 20
813.189
 30
0.0
 11
109.737035
 21
813.6259999999998
 31
0.0
210
0.0
220
0.0
230
-1.0
  0
LINE
  5
F57
330
1E
100
AcDbEntity
  8
0
100
AcDbLine
 10
110.1841349999999
 20
813.189
 30
0.0
 11
110.095735
 21
812.648
 31
0.0
210
0.0
220
0.0
230
-1.0
  0
LINE
  5
F58
330
1E
100
AcDbEntity
  8
0
100
AcDbLine
 10
111.7501349999999
 20
824.7889999999998
 30
0.0
 11
111.125635
 21
824.4909999999999
 31
0.0
210
0.0
220
0.0
230
-1.0
  0
LINE
  5
F59
330
1E
100
AcDbEntity
  8
0
100
AcDbLine
 10
111.363835
 20
823.503
 30
0.0
 11
110.9552349999999
 21
823.9599999999999
 31
0.0
210
0.0
220
0.0
230
-1.0
  0
LINE
  5
F5A
330
1E
100
AcDbEntity
  8
0
100
AcDbLine
 10
111.363835
 20
818.9529999999999
 30
0.0
 11
110.9552349999999
 21
818.4969999999999
 31
0.0
210
0.0
220
0.0
230
-1.0
  0
LINE
  5
F5B
330
1E
100
AcDbEntity
  8
0
100
AcDbLine
 10
111.7501349999999
 20
817.6680000000001
 30
0.0
 11
111.125635
 21
817.966
 31
0.0
210
0.0
220
0.0
230
-1.0
  0
LINE
  5
F5C
330
1E
100
AcDbEntity
  8
0
100
AcDbLine
 10
112.885435
 20
824.2079999999999
 30
0.0
 11
112.476735
 21
824.6649999999998
 31
0.0
210
0.0
220
0.0
230
-1.0
  0
LINE
  5
F5D
330
1E
100
AcDbEntity
  8
0
100
AcDbLine
 10
112.7150349999999
 20
823.6769999999999
 30
0.0
 11
112.090435
 21
823.379
 31
0.0
210
0.0
220
0.0
230
-1.0
  0
LINE
  5
F5E
330
1E
100
AcDbEntity
  8
0
100
AcDbLine
 10
112.7150349999999
 20
818.7789999999999
 30
0.0
 11
112.090435
 21
819.0779999999998
 31
0.0
210
0.0
220
0.0
230
-1.0
  0
LINE
  5
F5F
330
1E
100
AcDbEntity
  8
0
100
AcDbLine
 10
112.476735
 20
817.792
 30
0.0
 11
111.7501349999999
 21
817.6680000000001
 31
0.0
210
0.0
220
0.0
230
-1.0
  0
LINE
  5
F60
330
1E
100
AcDbEntity
  8
0
100
AcDbLine
 10
112.885435
 20
824.2079999999999
 30
0.0
 11
112.7150349999999
 21
823.6769999999999
 31
0.0
210
0.0
220
0.0
230
-1.0
  0
LINE
  5
F61
330
1E
100
AcDbEntity
  8
0
100
AcDbLine
 10
112.885435
 20
818.2479999999999
 30
0.0
 11
112.7150349999999
 21
818.7789999999999
 31
0.0
210
0.0
220
0.0
230
-1.0
  0
LINE
  5
F62
330
1E
100
AcDbEntity
  8
0
100
AcDbLine
 10
112.885435
 20
818.2479999999999
 30
0.0
 11
112.476735
 21
817.792
 31
0.0
210
0.0
220
0.0
230
-1.0
  0
LINE
  5
F63
330
1E
100
AcDbEntity
  8
0
100
AcDbLine
 10
112.090435
 20
823.379
 30
0.0
 11
111.363835
 21
823.503
 31
0.0
210
0.0
220
0.0
230
-1.0
  0
LINE
  5
F64
330
1E
100
AcDbEntity
  8
0
100
AcDbLine
 10
112.090435
 20
819.0779999999998
 30
0.0
 11
111.363835
 21
818.9529999999999
 31
0.0
210
0.0
220
0.0
230
-1.0
  0
LINE
  5
F65
330
1E
100
AcDbEntity
  8
0
100
AcDbLine
 10
112.476735
 20
824.6649999999998
 30
0.0
 11
111.7501349999999
 21
824.7889999999998
 31
0.0
210
0.0
220
0.0
230
-1.0
  0
LINE
  5
F66
330
1E
100
AcDbEntity
  8
0
100
AcDbLine
 10
111.125635
 20
824.4909999999999
 30
0.0
 11
110.9552349999999
 21
823.9599999999999
 31
0.0
210
0.0
220
0.0
230
-1.0
  0
LINE
  5
F67
330
1E
100
AcDbEntity
  8
0
100
AcDbLine
 10
111.125635
 20
817.966
 30
0.0
 11
110.9552349999999
 21
818.4969999999999
 31
0.0
210
0.0
220
0.0
230
-1.0
  0
LINE
  5
F68
330
1E
100
AcDbEntity
  8
0
100
AcDbLine
 10
109.498135
 20
830.1359999999998
 30
0.0
 11
109.498135
 21
830.2098836594909
 31
0.0
210
0.0
220
0.0
230
-1.0
  0
LINE
  5
F69
330
1E
100
AcDbEntity
  8
0
100
AcDbLine
 10
109.498135
 20
830.2098836594909
 30
0.0
 11
109.498135
 21
830.1359999999998
 31
0.0
210
0.0
220
0.0
230
-1.0
  0
LINE
  5
F6A
330
1E
100
AcDbEntity
  8
0
100
AcDbLine
 10
110.095735
 20
829.809
 30
0.0
 11
109.498135
 21
830.1359999999998
 31
0.0
210
0.0
220
0.0
230
-1.0
  0
LINE
  5
F6B
330
1E
100
AcDbEntity
  8
0
100
AcDbLine
 10
110.1841349999999
 20
829.2669999999999
 30
0.0
 11
109.737035
 21
828.831
 31
0.0
210
0.0
220
0.0
230
-1.0
  0
LINE
  5
F6C
330
1E
100
AcDbEntity
  8
0
100
AcDbLine
 10
110.1841349999999
 20
829.2669999999999
 30
0.0
 11
110.095735
 21
829.809
 31
0.0
210
0.0
220
0.0
230
-1.0
  0
LINE
  5
F6D
330
1E
100
AcDbEntity
  8
0
100
AcDbLine
 10
107.724335
 20
802.707
 30
0.0
 11
106.993735
 21
802.5959999999999
 31
0.0
210
0.0
220
0.0
230
-1.0
  0
LINE
  5
F6E
330
1E
100
AcDbEntity
  8
0
100
AcDbLine
 10
107.964935
 20
803.7039999999999
 30
0.0
 11
107.3306349999999
 21
803.992
 31
0.0
210
0.0
220
0.0
230
-1.0
  0
LINE
  5
F6F
330
1E
100
AcDbEntity
  8
0
100
AcDbLine
 10
108.1176349999999
 20
803.171
 30
0.0
 11
107.964935
 21
803.7039999999999
 31
0.0
210
0.0
220
0.0
230
-1.0
  0
LINE
  5
F70
330
1E
100
AcDbEntity
  8
0
100
AcDbLine
 10
108.1176349999999
 20
803.171
 30
0.0
 11
107.724335
 21
802.707
 31
0.0
210
0.0
220
0.0
230
-1.0
  0
LINE
  5
F71
330
1E
100
AcDbEntity
  8
0
100
AcDbLine
 10
108.398335
 20
813.3639999999999
 30
0.0
 11
108.309935
 21
812.822
 31
0.0
210
0.0
220
0.0
230
-1.0
  0
LINE
  5
F72
330
1E
100
AcDbEntity
  8
0
100
AcDbLine
 10
108.757035
 20
812.386
 30
0.0
 11
108.309935
 21
812.822
 31
0.0
210
0.0
220
0.0
230
-1.0
  0
LINE
  5
F73
330
1E
100
AcDbEntity
  8
0
100
AcDbLine
 10
108.9959349999999
 20
813.6909999999998
 30
0.0
 11
108.398335
 21
813.3639999999999
 31
0.0
210
0.0
220
0.0
230
-1.0
  0
LINE
  5
F74
330
1E
100
AcDbEntity
  8
0
100
AcDbLine
 10
106.600035
 20
803.88
 30
0.0
 11
106.206735
 21
803.4169999999999
 31
0.0
210
0.0
220
0.0
230
-1.0
  0
LINE
  5
F75
330
1E
100
AcDbEntity
  8
0
100
AcDbLine
 10
106.359435
 20
802.8829999999999
 30
0.0
 11
106.206735
 21
803.4169999999999
 31
0.0
210
0.0
220
0.0
230
-1.0
  0
LINE
  5
F76
330
1E
100
AcDbEntity
  8
0
100
AcDbLine
 10
106.993735
 20
802.5959999999999
 30
0.0
 11
106.359435
 21
802.8829999999999
 31
0.0
210
0.0
220
0.0
230
-1.0
  0
LINE
  5
F77
330
1E
100
AcDbEntity
  8
0
100
AcDbLine
 10
107.3306349999999
 20
803.992
 30
0.0
 11
106.600035
 21
803.88
 31
0.0
210
0.0
220
0.0
230
-1.0
  0
LINE
  5
F78
330
1E
100
AcDbEntity
  8
0
100
AcDbLine
 10
108.398335
 20
829.0929999999999
 30
0.0
 11
108.309935
 21
829.6339999999998
 31
0.0
210
0.0
220
0.0
230
-1.0
  0
LINE
  5
F79
330
1E
100
AcDbEntity
  8
0
100
AcDbLine
 10
108.757035
 20
830.071
 30
0.0
 11
108.309935
 21
829.6339999999998
 31
0.0
210
0.0
220
0.0
230
-1.0
  0
LINE
  5
F7A
330
1E
100
AcDbEntity
  8
0
100
AcDbLine
 10
108.9959349999999
 20
828.7659999999998
 30
0.0
 11
108.398335
 21
829.0929999999999
 31
0.0
210
0.0
220
0.0
230
-1.0
  0
LINE
  5
F7B
330
1E
100
AcDbEntity
  8
0
100
AcDbLine
 10
108.309935
 20
829.8676574783339
 30
0.0
 11
108.309935
 21
829.6339999999998
 31
0.0
210
0.0
220
0.0
230
-1.0
  0
LINE
  5
F7C
330
1E
100
AcDbEntity
  8
0
100
AcDbLine
 10
108.309935
 20
829.6339999999998
 30
0.0
 11
108.309935
 21
829.8676574783339
 31
0.0
210
0.0
220
0.0
230
-1.0
  0
LINE
  5
F7D
330
1E
100
AcDbEntity
  8
0
100
AcDbLine
 10
109.356735
 20
846.4929999999998
 30
0.0
 11
108.6156349999999
 21
846.5579999999999
 31
0.0
210
0.0
220
0.0
230
-1.0
  0
LINE
  5
F7E
330
1E
100
AcDbEntity
  8
0
100
AcDbLine
 10
109.715435
 20
845.5149999999999
 30
0.0
 11
109.117835
 21
845.1879999999999
 31
0.0
210
0.0
220
0.0
230
-1.0
  0
LINE
  5
F7F
330
1E
100
AcDbEntity
  8
0
100
AcDbLine
 10
111.907235
 20
837.6429999999999
 30
0.0
 11
111.214235
 21
837.8459999999998
 31
0.0
210
0.0
220
0.0
230
-1.0
  0
LINE
  5
F80
330
1E
100
AcDbEntity
  8
0
100
AcDbLine
 10
111.907235
 20
836.63
 30
0.0
 11
111.214235
 21
836.428
 31
0.0
210
0.0
220
0.0
230
-1.0
  0
LINE
  5
F81
330
1E
100
AcDbEntity
  8
0
100
AcDbLine
 10
112.184435
 20
837.1369999999998
 30
0.0
 11
111.907235
 21
836.63
 31
0.0
210
0.0
220
0.0
230
-1.0
  0
LINE
  5
F82
330
1E
100
AcDbEntity
  8
0
100
AcDbLine
 10
112.184435
 20
837.1369999999998
 30
0.0
 11
111.907235
 21
837.6429999999999
 31
0.0
210
0.0
220
0.0
230
-1.0
  0
LINE
  5
F83
330
1E
100
AcDbEntity
  8
0
100
AcDbLine
 10
110.521235
 20
836.63
 30
0.0
 11
110.244035
 21
837.1369999999998
 31
0.0
210
0.0
220
0.0
230
-1.0
  0
LINE
  5
F84
330
1E
100
AcDbEntity
  8
0
100
AcDbLine
 10
110.521235
 20
837.6429999999999
 30
0.0
 11
110.244035
 21
837.1369999999998
 31
0.0
210
0.0
220
0.0
230
-1.0
  0
LINE
  5
F85
330
1E
100
AcDbEntity
  8
0
100
AcDbLine
 10
111.214235
 20
837.8459999999998
 30
0.0
 11
110.521235
 21
837.6429999999999
 31
0.0
210
0.0
220
0.0
230
-1.0
  0
LINE
  5
F86
330
1E
100
AcDbEntity
  8
0
100
AcDbLine
 10
111.214235
 20
836.428
 30
0.0
 11
110.521235
 21
836.63
 31
0.0
210
0.0
220
0.0
230
-1.0
  0
LINE
  5
F87
330
1E
100
AcDbEntity
  8
0
100
AcDbLine
 10
109.803835
 20
846.0569999999998
 30
0.0
 11
109.715435
 21
845.5149999999999
 31
0.0
210
0.0
220
0.0
230
-1.0
  0
LINE
  5
F88
330
1E
100
AcDbEntity
  8
0
100
AcDbLine
 10
109.803835
 20
846.0569999999998
 30
0.0
 11
109.356735
 21
846.4929999999998
 31
0.0
210
0.0
220
0.0
230
-1.0
  0
LINE
  5
F89
330
1E
100
AcDbEntity
  8
0
100
AcDbLine
 10
107.724335
 20
840.2079999999999
 30
0.0
 11
106.993735
 21
840.319
 31
0.0
210
0.0
220
0.0
230
-1.0
  0
LINE
  5
F8A
330
1E
100
AcDbEntity
  8
0
100
AcDbLine
 10
107.964935
 20
839.2099999999999
 30
0.0
 11
107.3306349999999
 21
838.9229999999999
 31
0.0
210
0.0
220
0.0
230
-1.0
  0
LINE
  5
F8B
330
1E
100
AcDbEntity
  8
0
100
AcDbLine
 10
108.6156349999999
 20
846.5579999999999
 30
0.0
 11
108.018035
 21
846.2309999999998
 31
0.0
210
0.0
220
0.0
230
-1.0
  0
LINE
  5
F8C
330
1E
100
AcDbEntity
  8
0
100
AcDbLine
 10
108.376735
 20
845.2529999999999
 30
0.0
 11
107.929635
 21
845.6899999999999
 31
0.0
210
0.0
220
0.0
230
-1.0
  0
LINE
  5
F8D
330
1E
100
AcDbEntity
  8
0
100
AcDbLine
 10
109.117835
 20
845.1879999999999
 30
0.0
 11
108.376735
 21
845.2529999999999
 31
0.0
210
0.0
220
0.0
230
-1.0
  0
LINE
  5
F8E
330
1E
100
AcDbEntity
  8
0
100
AcDbLine
 10
108.018035
 20
846.2309999999998
 30
0.0
 11
107.929635
 21
845.6899999999999
 31
0.0
210
0.0
220
0.0
230
-1.0
  0
LINE
  5
F8F
330
1E
100
AcDbEntity
  8
0
100
AcDbLine
 10
108.1176349999999
 20
839.7439999999999
 30
0.0
 11
107.964935
 21
839.2099999999999
 31
0.0
210
0.0
220
0.0
230
-1.0
  0
LINE
  5
F90
330
1E
100
AcDbEntity
  8
0
100
AcDbLine
 10
108.1176349999999
 20
839.7439999999999
 30
0.0
 11
107.724335
 21
840.2079999999999
 31
0.0
210
0.0
220
0.0
230
-1.0
  0
LINE
  5
F91
330
1E
100
AcDbEntity
  8
0
100
AcDbLine
 10
106.600035
 20
839.034
 30
0.0
 11
106.206735
 21
839.498
 31
0.0
210
0.0
220
0.0
230
-1.0
  0
LINE
  5
F92
330
1E
100
AcDbEntity
  8
0
100
AcDbLine
 10
107.3306349999999
 20
838.9229999999999
 30
0.0
 11
106.600035
 21
839.034
 31
0.0
210
0.0
220
0.0
230
-1.0
  0
LINE
  5
F93
330
1E
100
AcDbEntity
  8
0
100
AcDbLine
 10
106.359435
 20
840.0319999999998
 30
0.0
 11
106.206735
 21
839.498
 31
0.0
210
0.0
220
0.0
230
-1.0
  0
LINE
  5
F94
330
1E
100
AcDbEntity
  8
0
100
AcDbLine
 10
106.993735
 20
840.319
 30
0.0
 11
106.359435
 21
840.0319999999998
 31
0.0
210
0.0
220
0.0
230
-1.0
  0
LINE
  5
F95
330
1E
100
AcDbEntity
  8
0
100
AcDbLine
 10
117.220535
 20
867.506
 30
0.0
 11
113.055535
 21
869.3059999999999
 31
0.0
210
0.0
220
0.0
230
-1.0
  0
LINE
  5
F96
330
1E
100
AcDbEntity
  8
0
100
AcDbLine
 10
116.450035
 20
867.632
 30
0.0
 11
112.6594349999999
 21
869.205
 31
0.0
210
0.0
220
0.0
230
-1.0
  0
LINE
  5
F97
330
1E
100
AcDbEntity
  8
0
100
AcDbLine
 10
118.653135
 20
866.5639999999999
 30
0.0
 11
116.450035
 21
867.632
 31
0.0
210
0.0
220
0.0
230
-1.0
  0
LINE
  5
F98
330
1E
100
AcDbEntity
  8
0
100
AcDbLine
 10
109.415835
 20
870.3149999999999
 30
0.0
 11
106.013535
 21
871.2669999999999
 31
0.0
210
0.0
220
0.0
230
-1.0
  0
LINE
  5
F99
330
1E
100
AcDbEntity
  8
0
100
AcDbLine
 10
113.055535
 20
869.3059999999999
 30
0.0
 11
108.666935
 21
870.805
 31
0.0
210
0.0
220
0.0
230
-1.0
  0
LINE
  5
F9A
330
1E
100
AcDbEntity
  8
0
100
AcDbLine
 10
112.6594349999999
 20
869.205
 30
0.0
 11
109.415835
 21
870.3149999999999
 31
0.0
210
0.0
220
0.0
230
-1.0
  0
LINE
  5
F9B
330
1E
100
AcDbEntity
  8
0
100
AcDbLine
 10
97.86433500000001
 20
843.5669999999998
 30
0.0
 11
97.12563500000001
 21
843.4899999999998
 31
0.0
210
0.0
220
0.0
230
-1.0
  0
LINE
  5
F9C
330
1E
100
AcDbEntity
  8
0
100
AcDbLine
 10
98.09583500000002
 20
842.262
 30
0.0
 11
97.35703499999999
 21
842.1839999999999
 31
0.0
210
0.0
220
0.0
230
-1.0
  0
LINE
  5
F9D
330
1E
100
AcDbEntity
  8
0
100
AcDbLine
 10
97.78923500000001
 20
837.3549999999999
 30
0.0
 11
97.04403500000001
 21
837.3239999999999
 31
0.0
210
0.0
220
0.0
230
-1.0
  0
LINE
  5
F9E
330
1E
100
AcDbEntity
  8
0
100
AcDbLine
 10
97.864035
 20
836.0389999999998
 30
0.0
 11
97.118835
 21
836.0089999999999
 31
0.0
210
0.0
220
0.0
230
-1.0
  0
LINE
  5
F9F
330
1E
100
AcDbEntity
  8
0
100
AcDbLine
 10
97.864035
 20
806.418
 30
0.0
 11
97.118835
 21
806.4479999999999
 31
0.0
210
0.0
220
0.0
230
-1.0
  0
LINE
  5
FA0
330
1E
100
AcDbEntity
  8
0
100
AcDbLine
 10
97.78923500000001
 20
805.1019999999999
 30
0.0
 11
97.04403500000001
 21
805.133
 31
0.0
210
0.0
220
0.0
230
-1.0
  0
LINE
  5
FA1
330
1E
100
AcDbEntity
  8
0
100
AcDbLine
 10
101.724735
 20
828.0689999999999
 30
0.0
 11
101.447535
 21
827.5629999999999
 31
0.0
210
0.0
220
0.0
230
-1.0
  0
LINE
  5
FA2
330
1E
100
AcDbEntity
  8
0
100
AcDbLine
 10
101.724735
 20
828.0689999999999
 30
0.0
 11
101.447535
 21
828.575
 31
0.0
210
0.0
220
0.0
230
-1.0
  0
LINE
  5
FA3
330
1E
100
AcDbEntity
  8
0
100
AcDbLine
 10
102.002135
 20
814.0559999999998
 30
0.0
 11
101.309135
 21
813.8529999999999
 31
0.0
210
0.0
220
0.0
230
-1.0
  0
LINE
  5
FA4
330
1E
100
AcDbEntity
  8
0
100
AcDbLine
 10
102.002135
 20
815.0679999999999
 30
0.0
 11
101.309135
 21
815.2709999999999
 31
0.0
210
0.0
220
0.0
230
-1.0
  0
LINE
  5
FA5
330
1E
100
AcDbEntity
  8
0
100
AcDbLine
 10
103.593035
 20
809.1789999999999
 30
0.0
 11
103.256535
 21
808.6929999999998
 31
0.0
210
0.0
220
0.0
230
-1.0
  0
LINE
  5
FA6
330
1E
100
AcDbEntity
  8
0
100
AcDbLine
 10
103.472235
 20
808.1709999999999
 30
0.0
 11
103.256535
 21
808.6929999999998
 31
0.0
210
0.0
220
0.0
230
-1.0
  0
LINE
  5
FA7
330
1E
100
AcDbEntity
  8
0
100
AcDbLine
 10
104.852935
 20
808.0819999999999
 30
0.0
 11
104.138435
 21
807.925
 31
0.0
210
0.0
220
0.0
230
-1.0
  0
LINE
  5
FA8
330
1E
100
AcDbEntity
  8
0
100
AcDbLine
 10
104.973735
 20
809.091
 30
0.0
 11
104.307535
 21
809.3369999999998
 31
0.0
210
0.0
220
0.0
230
-1.0
  0
LINE
  5
FA9
330
1E
100
AcDbEntity
  8
0
100
AcDbLine
 10
105.1894349999999
 20
808.5689999999999
 30
0.0
 11
104.973735
 21
809.091
 31
0.0
210
0.0
220
0.0
230
-1.0
  0
LINE
  5
FAA
330
1E
100
AcDbEntity
  8
0
100
AcDbLine
 10
105.1894349999999
 20
808.5689999999999
 30
0.0
 11
104.852935
 21
808.0819999999999
 31
0.0
210
0.0
220
0.0
230
-1.0
  0
LINE
  5
FAB
330
1E
100
AcDbEntity
  8
0
100
AcDbLine
 10
104.138435
 20
807.925
 30
0.0
 11
103.472235
 21
808.1709999999999
 31
0.0
210
0.0
220
0.0
230
-1.0
  0
LINE
  5
FAC
330
1E
100
AcDbEntity
  8
0
100
AcDbLine
 10
104.307535
 20
809.3369999999998
 30
0.0
 11
103.593035
 21
809.1789999999999
 31
0.0
210
0.0
220
0.0
230
-1.0
  0
LINE
  5
FAD
330
1E
100
AcDbEntity
  8
0
100
AcDbLine
 10
102.913135
 20
802.027
 30
0.0
 11
102.167135
 21
802.0099999999999
 31
0.0
210
0.0
220
0.0
230
-1.0
  0
LINE
  5
FAE
330
1E
100
AcDbEntity
  8
0
100
AcDbLine
 10
102.279235
 20
814.562
 30
0.0
 11
102.002135
 21
815.0679999999999
 31
0.0
210
0.0
220
0.0
230
-1.0
  0
LINE
  5
FAF
330
1E
100
AcDbEntity
  8
0
100
AcDbLine
 10
102.279235
 20
814.562
 30
0.0
 11
102.002135
 21
814.0559999999998
 31
0.0
210
0.0
220
0.0
230
-1.0
  0
LINE
  5
FB0
330
1E
100
AcDbEntity
  8
0
100
AcDbLine
 10
103.857735
 20
819.0179999999999
 30
0.0
 11
103.301335
 21
818.655
 31
0.0
210
0.0
220
0.0
230
-1.0
  0
LINE
  5
FB1
330
1E
100
AcDbEntity
  8
0
100
AcDbLine
 10
103.775335
 20
817.7029999999998
 30
0.0
 11
103.277835
 21
818.11
 31
0.0
210
0.0
220
0.0
230
-1.0
  0
LINE
  5
FB2
330
1E
100
AcDbEntity
  8
0
100
AcDbLine
 10
104.706135
 20
823.9999999999998
 30
0.0
 11
103.960235
 21
823.9829999999999
 31
0.0
210
0.0
220
0.0
230
-1.0
  0
LINE
  5
FB3
330
1E
100
AcDbEntity
  8
0
100
AcDbLine
 10
104.788535
 20
822.6849999999998
 30
0.0
 11
104.042535
 21
822.6679999999999
 31
0.0
210
0.0
220
0.0
230
-1.0
  0
LINE
  5
FB4
330
1E
100
AcDbEntity
  8
0
100
AcDbLine
 10
104.521335
 20
817.6859999999999
 30
0.0
 11
103.775335
 21
817.7029999999998
 31
0.0
210
0.0
220
0.0
230
-1.0
  0
LINE
  5
FB5
330
1E
100
AcDbEntity
  8
0
100
AcDbLine
 10
104.603635
 20
819.0009999999999
 30
0.0
 11
103.857735
 21
819.0179999999999
 31
0.0
210
0.0
220
0.0
230
-1.0
  0
LINE
  5
FB6
330
1E
100
AcDbEntity
  8
0
100
AcDbLine
 10
105.262535
 20
823.6359999999999
 30
0.0
 11
104.706135
 21
823.9999999999998
 31
0.0
210
0.0
220
0.0
230
-1.0
  0
LINE
  5
FB7
330
1E
100
AcDbEntity
  8
0
100
AcDbLine
 10
105.286035
 20
823.0909999999999
 30
0.0
 11
104.788535
 21
822.6849999999998
 31
0.0
210
0.0
220
0.0
230
-1.0
  0
LINE
  5
FB8
330
1E
100
AcDbEntity
  8
0
100
AcDbLine
 10
105.286035
 20
823.0909999999999
 30
0.0
 11
105.262535
 21
823.6359999999999
 31
0.0
210
0.0
220
0.0
230
-1.0
  0
LINE
  5
FB9
330
1E
100
AcDbEntity
  8
0
100
AcDbLine
 10
105.077735
 20
818.0489999999998
 30
0.0
 11
104.521335
 21
817.6859999999999
 31
0.0
210
0.0
220
0.0
230
-1.0
  0
LINE
  5
FBA
330
1E
100
AcDbEntity
  8
0
100
AcDbLine
 10
105.101135
 20
818.595
 30
0.0
 11
104.603635
 21
819.0009999999999
 31
0.0
210
0.0
220
0.0
230
-1.0
  0
LINE
  5
FBB
330
1E
100
AcDbEntity
  8
0
100
AcDbLine
 10
105.101135
 20
818.595
 30
0.0
 11
105.077735
 21
818.0489999999998
 31
0.0
210
0.0
220
0.0
230
-1.0
  0
LINE
  5
FBC
330
1E
100
AcDbEntity
  8
0
100
AcDbLine
 10
103.960235
 20
823.9829999999999
 30
0.0
 11
103.462735
 21
823.5759999999999
 31
0.0
210
0.0
220
0.0
230
-1.0
  0
LINE
  5
FBD
330
1E
100
AcDbEntity
  8
0
100
AcDbLine
 10
103.486135
 20
823.0309999999999
 30
0.0
 11
103.462735
 21
823.5759999999999
 31
0.0
210
0.0
220
0.0
230
-1.0
  0
LINE
  5
FBE
330
1E
100
AcDbEntity
  8
0
100
AcDbLine
 10
104.042535
 20
822.6679999999999
 30
0.0
 11
103.486135
 21
823.0309999999999
 31
0.0
210
0.0
220
0.0
230
-1.0
  0
LINE
  5
FBF
330
1E
100
AcDbEntity
  8
0
100
AcDbLine
 10
103.301335
 20
818.655
 30
0.0
 11
103.277835
 21
818.11
 31
0.0
210
0.0
220
0.0
230
-1.0
  0
LINE
  5
FC0
330
1E
100
AcDbEntity
  8
0
100
AcDbLine
 10
100.616135
 20
815.0679999999999
 30
0.0
 11
100.338935
 21
814.562
 31
0.0
210
0.0
220
0.0
230
-1.0
  0
LINE
  5
FC1
330
1E
100
AcDbEntity
  8
0
100
AcDbLine
 10
100.616135
 20
814.0559999999998
 30
0.0
 11
100.338935
 21
814.562
 31
0.0
210
0.0
220
0.0
230
-1.0
  0
LINE
  5
FC2
330
1E
100
AcDbEntity
  8
0
100
AcDbLine
 10
101.309135
 20
813.8529999999999
 30
0.0
 11
100.616135
 21
814.0559999999998
 31
0.0
210
0.0
220
0.0
230
-1.0
  0
LINE
  5
FC3
330
1E
100
AcDbEntity
  8
0
100
AcDbLine
 10
101.309135
 20
815.2709999999999
 30
0.0
 11
100.616135
 21
815.0679999999999
 31
0.0
210
0.0
220
0.0
230
-1.0
  0
LINE
  5
FC4
330
1E
100
AcDbEntity
  8
0
100
AcDbLine
 10
98.374935
 20
806.0199999999998
 30
0.0
 11
97.864035
 21
806.418
 31
0.0
210
0.0
220
0.0
230
-1.0
  0
LINE
  5
FC5
330
1E
100
AcDbEntity
  8
0
100
AcDbLine
 10
98.374935
 20
806.0199999999998
 30
0.0
 11
98.33333500000001
 21
805.4759999999999
 31
0.0
210
0.0
220
0.0
230
-1.0
  0
LINE
  5
FC6
330
1E
100
AcDbEntity
  8
0
100
AcDbLine
 10
98.33333500000001
 20
805.4759999999999
 30
0.0
 11
97.78923500000001
 21
805.1019999999999
 31
0.0
210
0.0
220
0.0
230
-1.0
  0
LINE
  5
FC7
330
1E
100
AcDbEntity
  8
0
100
AcDbLine
 10
100.754535
 20
828.7779999999999
 30
0.0
 11
100.061635
 21
828.575
 31
0.0
210
0.0
220
0.0
230
-1.0
  0
LINE
  5
FC8
330
1E
100
AcDbEntity
  8
0
100
AcDbLine
 10
100.754535
 20
827.36
 30
0.0
 11
100.061635
 21
827.5629999999999
 31
0.0
210
0.0
220
0.0
230
-1.0
  0
LINE
  5
FC9
330
1E
100
AcDbEntity
  8
0
100
AcDbLine
 10
101.447535
 20
828.575
 30
0.0
 11
100.754535
 21
828.7779999999999
 31
0.0
210
0.0
220
0.0
230
-1.0
  0
LINE
  5
FCA
330
1E
100
AcDbEntity
  8
0
100
AcDbLine
 10
101.447535
 20
827.5629999999999
 30
0.0
 11
100.754535
 21
827.36
 31
0.0
210
0.0
220
0.0
230
-1.0
  0
LINE
  5
FCB
330
1E
100
AcDbEntity
  8
0
100
AcDbLine
 10
100.061635
 20
827.5629999999999
 30
0.0
 11
99.784435
 21
828.0689999999999
 31
0.0
210
0.0
220
0.0
230
-1.0
  0
LINE
  5
FCC
330
1E
100
AcDbEntity
  8
0
100
AcDbLine
 10
100.061635
 20
828.575
 30
0.0
 11
99.784435
 21
828.0689999999999
 31
0.0
210
0.0
220
0.0
230
-1.0
  0
LINE
  5
FCD
330
1E
100
AcDbEntity
  8
0
100
AcDbLine
 10
103.492935
 20
841.7959999999998
 30
0.0
 11
102.995435
 21
842.2029999999999
 31
0.0
210
0.0
220
0.0
230
-1.0
  0
LINE
  5
FCE
330
1E
100
AcDbEntity
  8
0
100
AcDbLine
 10
103.469435
 20
841.2509999999999
 30
0.0
 11
102.913135
 21
840.8879999999999
 31
0.0
210
0.0
220
0.0
230
-1.0
  0
LINE
  5
FCF
330
1E
100
AcDbEntity
  8
0
100
AcDbLine
 10
103.472235
 20
834.2859999999999
 30
0.0
 11
103.256535
 21
833.764
 31
0.0
210
0.0
220
0.0
230
-1.0
  0
LINE
  5
FD0
330
1E
100
AcDbEntity
  8
0
100
AcDbLine
 10
103.593035
 20
833.277
 30
0.0
 11
103.256535
 21
833.764
 31
0.0
210
0.0
220
0.0
230
-1.0
  0
LINE
  5
FD1
330
1E
100
AcDbEntity
  8
0
100
AcDbLine
 10
104.852935
 20
834.3749999999998
 30
0.0
 11
104.138435
 21
834.5319999999999
 31
0.0
210
0.0
220
0.0
230
-1.0
  0
LINE
  5
FD2
330
1E
100
AcDbEntity
  8
0
100
AcDbLine
 10
104.973735
 20
833.3659999999998
 30
0.0
 11
104.307535
 21
833.12
 31
0.0
210
0.0
220
0.0
230
-1.0
  0
LINE
  5
FD3
330
1E
100
AcDbEntity
  8
0
100
AcDbLine
 10
105.1894349999999
 20
833.8879999999999
 30
0.0
 11
104.973735
 21
833.3659999999998
 31
0.0
210
0.0
220
0.0
230
-1.0
  0
LINE
  5
FD4
330
1E
100
AcDbEntity
  8
0
100
AcDbLine
 10
105.1894349999999
 20
833.8879999999999
 30
0.0
 11
104.852935
 21
834.3749999999998
 31
0.0
210
0.0
220
0.0
230
-1.0
  0
LINE
  5
FD5
330
1E
100
AcDbEntity
  8
0
100
AcDbLine
 10
104.138435
 20
834.5319999999999
 30
0.0
 11
103.472235
 21
834.2859999999999
 31
0.0
210
0.0
220
0.0
230
-1.0
  0
LINE
  5
FD6
330
1E
100
AcDbEntity
  8
0
100
AcDbLine
 10
104.307535
 20
833.12
 30
0.0
 11
103.593035
 21
833.277
 31
0.0
210
0.0
220
0.0
230
-1.0
  0
LINE
  5
FD7
330
1E
100
AcDbEntity
  8
0
100
AcDbLine
 10
103.492935
 20
841.7959999999998
 30
0.0
 11
103.469435
 21
841.2509999999999
 31
0.0
210
0.0
220
0.0
230
-1.0
  0
LINE
  5
FD8
330
1E
100
AcDbEntity
  8
0
100
AcDbLine
 10
102.995435
 20
842.2029999999999
 30
0.0
 11
102.249435
 21
842.22
 31
0.0
210
0.0
220
0.0
230
-1.0
  0
LINE
  5
FD9
330
1E
100
AcDbEntity
  8
0
100
AcDbLine
 10
102.913135
 20
840.8879999999999
 30
0.0
 11
102.167135
 21
840.905
 31
0.0
210
0.0
220
0.0
230
-1.0
  0
LINE
  5
FDA
330
1E
100
AcDbEntity
  8
0
100
AcDbLine
 10
102.249435
 20
842.22
 30
0.0
 11
101.693135
 21
841.8559999999999
 31
0.0
210
0.0
220
0.0
230
-1.0
  0
LINE
  5
FDB
330
1E
100
AcDbEntity
  8
0
100
AcDbLine
 10
101.693135
 20
841.8559999999999
 30
0.0
 11
101.6696349999999
 21
841.3109999999999
 31
0.0
210
0.0
220
0.0
230
-1.0
  0
LINE
  5
FDC
330
1E
100
AcDbEntity
  8
0
100
AcDbLine
 10
102.167135
 20
840.905
 30
0.0
 11
101.6696349999999
 21
841.3109999999999
 31
0.0
210
0.0
220
0.0
230
-1.0
  0
LINE
  5
FDD
330
1E
100
AcDbEntity
  8
0
100
AcDbLine
 10
103.708035
 20
848.2299999999998
 30
0.0
 11
103.163935
 21
848.6029999999999
 31
0.0
210
0.0
220
0.0
230
-1.0
  0
LINE
  5
FDE
330
1E
100
AcDbEntity
  8
0
100
AcDbLine
 10
103.749635
 20
847.6859999999998
 30
0.0
 11
103.238735
 21
847.2879999999999
 31
0.0
210
0.0
220
0.0
230
-1.0
  0
LINE
  5
FDF
330
1E
100
AcDbEntity
  8
0
100
AcDbLine
 10
103.749635
 20
847.6859999999998
 30
0.0
 11
103.708035
 21
848.2299999999998
 31
0.0
210
0.0
220
0.0
230
-1.0
  0
LINE
  5
FE0
330
1E
100
AcDbEntity
  8
0
100
AcDbLine
 10
103.163935
 20
848.6029999999999
 30
0.0
 11
102.418735
 21
848.573
 31
0.0
210
0.0
220
0.0
230
-1.0
  0
LINE
  5
FE1
330
1E
100
AcDbEntity
  8
0
100
AcDbLine
 10
102.493535
 20
847.2579999999998
 30
0.0
 11
101.9495349999999
 21
847.6309999999999
 31
0.0
210
0.0
220
0.0
230
-1.0
  0
LINE
  5
FE2
330
1E
100
AcDbEntity
  8
0
100
AcDbLine
 10
103.238735
 20
847.2879999999999
 30
0.0
 11
102.493535
 21
847.2579999999998
 31
0.0
210
0.0
220
0.0
230
-1.0
  0
LINE
  5
FE3
330
1E
100
AcDbEntity
  8
0
100
AcDbLine
 10
102.418735
 20
848.573
 30
0.0
 11
101.907835
 21
848.1749999999999
 31
0.0
210
0.0
220
0.0
230
-1.0
  0
LINE
  5
FE4
330
1E
100
AcDbEntity
  8
0
100
AcDbLine
 10
101.9495349999999
 20
847.6309999999999
 30
0.0
 11
101.907835
 21
848.1749999999999
 31
0.0
210
0.0
220
0.0
230
-1.0
  0
LINE
  5
FE5
330
1E
100
AcDbEntity
  8
0
100
AcDbLine
 10
98.33333500000001
 20
836.9809999999999
 30
0.0
 11
97.78923500000001
 21
837.3549999999999
 31
0.0
210
0.0
220
0.0
230
-1.0
  0
LINE
  5
FE6
330
1E
100
AcDbEntity
  8
0
100
AcDbLine
 10
98.374935
 20
836.437
 30
0.0
 11
97.864035
 21
836.0389999999998
 31
0.0
210
0.0
220
0.0
230
-1.0
  0
LINE
  5
FE7
330
1E
100
AcDbEntity
  8
0
100
AcDbLine
 10
98.374935
 20
836.437
 30
0.0
 11
98.33333500000001
 21
836.9809999999999
 31
0.0
210
0.0
220
0.0
230
-1.0
  0
LINE
  5
FE8
330
1E
100
AcDbEntity
  8
0
100
AcDbLine
 10
98.55733500000001
 20
842.6899999999999
 30
0.0
 11
98.09583500000002
 21
842.262
 31
0.0
210
0.0
220
0.0
230
-1.0
  0
LINE
  5
FE9
330
1E
100
AcDbEntity
  8
0
100
AcDbLine
 10
98.55733500000001
 20
842.6899999999999
 30
0.0
 11
98.45093500000002
 21
843.2299999999999
 31
0.0
210
0.0
220
0.0
230
-1.0
  0
LINE
  5
FEA
330
1E
100
AcDbEntity
  8
0
100
AcDbLine
 10
98.45093500000002
 20
843.2299999999999
 30
0.0
 11
97.86433500000001
 21
843.5669999999998
 31
0.0
210
0.0
220
0.0
230
-1.0
  0
LINE
  5
FEB
330
1E
100
AcDbEntity
  8
0
100
AcDbLine
 10
90.80793500000002
 20
831.6679999999999
 30
0.0
 11
90.57483500000001
 21
832.1859999999999
 31
0.0
210
0.0
220
0.0
230
-1.0
  0
LINE
  5
FEC
330
1E
100
AcDbEntity
  8
0
100
AcDbLine
 10
96.044335
 20
810.984
 30
0.0
 11
95.487935
 21
811.3469999999999
 31
0.0
210
0.0
220
0.0
230
-1.0
  0
LINE
  5
FED
330
1E
100
AcDbEntity
  8
0
100
AcDbLine
 10
95.96193500000001
 20
812.2989999999997
 30
0.0
 11
95.464435
 21
811.8919999999999
 31
0.0
210
0.0
220
0.0
230
-1.0
  0
LINE
  5
FEE
330
1E
100
AcDbEntity
  8
0
100
AcDbLine
 10
97.118835
 20
806.4479999999999
 30
0.0
 11
96.57483500000001
 21
806.0749999999998
 31
0.0
210
0.0
220
0.0
230
-1.0
  0
LINE
  5
FEF
330
1E
100
AcDbEntity
  8
0
100
AcDbLine
 10
97.04403500000001
 20
805.133
 30
0.0
 11
96.53313500000002
 21
805.5299999999999
 31
0.0
210
0.0
220
0.0
230
-1.0
  0
LINE
  5
FF0
330
1E
100
AcDbEntity
  8
0
100
AcDbLine
 10
96.57483500000001
 20
806.0749999999998
 30
0.0
 11
96.53313500000002
 21
805.5299999999999
 31
0.0
210
0.0
220
0.0
230
-1.0
  0
LINE
  5
FF1
330
1E
100
AcDbEntity
  8
0
100
AcDbLine
 10
96.79023499999999
 20
811.0009999999999
 30
0.0
 11
96.044335
 21
810.984
 31
0.0
210
0.0
220
0.0
230
-1.0
  0
LINE
  5
FF2
330
1E
100
AcDbEntity
  8
0
100
AcDbLine
 10
96.70793500000002
 20
812.3159999999998
 30
0.0
 11
95.96193500000001
 21
812.2989999999997
 31
0.0
210
0.0
220
0.0
230
-1.0
  0
LINE
  5
FF3
330
1E
100
AcDbEntity
  8
0
100
AcDbLine
 10
97.28773500000002
 20
811.4079999999999
 30
0.0
 11
97.28773500000002
 21
811.9546365140649
 31
0.0
210
0.0
220
0.0
230
-1.0
  0
LINE
  5
FF4
330
1E
100
AcDbEntity
  8
0
100
AcDbLine
 10
97.28773500000002
 20
811.4079999999999
 30
0.0
 11
97.264335
 21
811.9529999999999
 31
0.0
210
0.0
220
0.0
230
-1.0
  0
LINE
  5
FF5
330
1E
100
AcDbEntity
  8
0
100
AcDbLine
 10
97.28773500000002
 20
811.4079999999999
 30
0.0
 11
96.79023499999999
 21
811.0009999999999
 31
0.0
210
0.0
220
0.0
230
-1.0
  0
LINE
  5
FF6
330
1E
100
AcDbEntity
  8
0
100
AcDbLine
 10
97.264335
 20
811.9529999999999
 30
0.0
 11
96.70793500000002
 21
812.3159999999998
 31
0.0
210
0.0
220
0.0
230
-1.0
  0
LINE
  5
FF7
330
1E
100
AcDbEntity
  8
0
100
AcDbLine
 10
97.28773500000002
 20
811.9546365140649
 30
0.0
 11
97.28773500000002
 21
811.4079999999999
 31
0.0
210
0.0
220
0.0
230
-1.0
  0
LINE
  5
FF8
330
1E
100
AcDbEntity
  8
0
100
AcDbLine
 10
95.487935
 20
811.3469999999999
 30
0.0
 11
95.464435
 21
811.8919999999999
 31
0.0
210
0.0
220
0.0
230
-1.0
  0
LINE
  5
FF9
330
1E
100
AcDbEntity
  8
0
100
AcDbLine
 10
96.09793500000002
 20
831.1999999999999
 30
0.0
 11
95.54153500000001
 21
830.8359999999998
 31
0.0
210
0.0
220
0.0
230
-1.0
  0
LINE
  5
FFA
330
1E
100
AcDbEntity
  8
0
100
AcDbLine
 10
96.01553500000001
 20
829.8849999999998
 30
0.0
 11
95.518035
 21
830.2909999999998
 31
0.0
210
0.0
220
0.0
230
-1.0
  0
LINE
  5
FFB
330
1E
100
AcDbEntity
  8
0
100
AcDbLine
 10
96.84393500000002
 20
831.1829999999998
 30
0.0
 11
96.09793500000002
 21
831.1999999999999
 31
0.0
210
0.0
220
0.0
230
-1.0
  0
LINE
  5
FFC
330
1E
100
AcDbEntity
  8
0
100
AcDbLine
 10
96.76153500000001
 20
829.8679999999999
 30
0.0
 11
96.01553500000001
 21
829.8849999999998
 31
0.0
210
0.0
220
0.0
230
-1.0
  0
LINE
  5
FFD
330
1E
100
AcDbEntity
  8
0
100
AcDbLine
 10
97.34133500000002
 20
830.776
 30
0.0
 11
97.31793500000001
 21
830.2309999999998
 31
0.0
210
0.0
220
0.0
230
-1.0
  0
LINE
  5
FFE
330
1E
100
AcDbEntity
  8
0
100
AcDbLine
 10
97.34133500000002
 20
830.776
 30
0.0
 11
96.84393500000002
 21
831.1829999999998
 31
0.0
210
0.0
220
0.0
230
-1.0
  0
LINE
  5
FFF
330
1E
100
AcDbEntity
  8
0
100
AcDbLine
 10
97.31793500000001
 20
830.2309999999998
 30
0.0
 11
96.76153500000001
 21
829.8679999999999
 31
0.0
210
0.0
220
0.0
230
-1.0
  0
LINE
  5
1000
330
1E
100
AcDbEntity
  8
0
100
AcDbLine
 10
95.54153500000001
 20
830.8359999999998
 30
0.0
 11
95.518035
 21
830.2909999999998
 31
0.0
210
0.0
220
0.0
230
-1.0
  0
LINE
  5
1001
330
1E
100
AcDbEntity
  8
0
100
AcDbLine
 10
90.73673500000001
 20
804.7830000000001
 30
0.0
 11
90.442735
 21
805.2849999999999
 31
0.0
210
0.0
220
0.0
230
-1.0
  0
LINE
  5
1002
330
1E
100
AcDbEntity
  8
0
100
AcDbLine
 10
90.73673500000001
 20
804.7830000000001
 30
0.0
 11
90.442735
 21
804.2819999999998
 31
0.0
210
0.0
220
0.0
230
-1.0
  0
LINE
  5
1003
330
1E
100
AcDbEntity
  8
0
100
AcDbLine
 10
90.442735
 20
805.2849999999999
 30
0.0
 11
89.756735
 21
805.4999999999999
 31
0.0
210
0.0
220
0.0
230
-1.0
  0
LINE
  5
1004
330
1E
100
AcDbEntity
  8
0
100
AcDbLine
 10
90.442735
 20
804.2819999999998
 30
0.0
 11
89.756735
 21
804.0669999999998
 31
0.0
210
0.0
220
0.0
230
-1.0
  0
LINE
  5
1005
330
1E
100
AcDbEntity
  8
0
100
AcDbLine
 10
90.90053500000001
 20
810.3429999999999
 30
0.0
 11
90.66743500000001
 21
810.861
 31
0.0
210
0.0
220
0.0
230
-1.0
  0
LINE
  5
1006
330
1E
100
AcDbEntity
  8
0
100
AcDbLine
 10
90.90053500000001
 20
810.3429999999999
 30
0.0
 11
90.547935
 21
809.8629999999999
 31
0.0
210
0.0
220
0.0
230
-1.0
  0
LINE
  5
1007
330
1E
100
AcDbEntity
  8
0
100
AcDbLine
 10
90.547935
 20
809.8629999999999
 30
0.0
 11
89.83883500000001
 21
809.6919999999999
 31
0.0
210
0.0
220
0.0
230
-1.0
  0
LINE
  5
1008
330
1E
100
AcDbEntity
  8
0
100
AcDbLine
 10
90.66743500000001
 20
810.861
 30
0.0
 11
90.009735
 21
811.119
 31
0.0
210
0.0
220
0.0
230
-1.0
  0
LINE
  5
1009
330
1E
100
AcDbEntity
  8
0
100
AcDbLine
 10
90.80793500000002
 20
831.6679999999999
 30
0.0
 11
90.45523500000001
 21
831.187
 31
0.0
210
0.0
220
0.0
230
-1.0
  0
LINE
  5
100A
330
1E
100
AcDbEntity
  8
0
100
AcDbLine
 10
97.04403500000001
 20
837.3239999999999
 30
0.0
 11
96.53313500000002
 21
836.927
 31
0.0
210
0.0
220
0.0
230
-1.0
  0
LINE
  5
100B
330
1E
100
AcDbEntity
  8
0
100
AcDbLine
 10
97.118835
 20
836.0089999999999
 30
0.0
 11
96.57483500000001
 21
836.382
 31
0.0
210
0.0
220
0.0
230
-1.0
  0
LINE
  5
100C
330
1E
100
AcDbEntity
  8
0
100
AcDbLine
 10
96.57483500000001
 20
836.382
 30
0.0
 11
96.53313500000002
 21
836.927
 31
0.0
210
0.0
220
0.0
230
-1.0
  0
LINE
  5
100D
330
1E
100
AcDbEntity
  8
0
100
AcDbLine
 10
97.12563500000001
 20
843.4899999999998
 30
0.0
 11
96.66413500000002
 21
843.0609999999999
 31
0.0
210
0.0
220
0.0
230
-1.0
  0
LINE
  5
100E
330
1E
100
AcDbEntity
  8
0
100
AcDbLine
 10
96.77053500000001
 20
842.5209999999999
 30
0.0
 11
96.66413500000002
 21
843.0609999999999
 31
0.0
210
0.0
220
0.0
230
-1.0
  0
LINE
  5
100F
330
1E
100
AcDbEntity
  8
0
100
AcDbLine
 10
97.35703499999999
 20
842.1839999999999
 30
0.0
 11
96.77053500000001
 21
842.5209999999999
 31
0.0
210
0.0
220
0.0
230
-1.0
  0
LINE
  5
1010
330
1E
100
AcDbEntity
  8
0
100
AcDbLine
 10
95.83713499999999
 20
849.7709999999999
 30
0.0
 11
95.42843500000001
 21
849.3149999999999
 31
0.0
210
0.0
220
0.0
230
-1.0
  0
LINE
  5
1011
330
1E
100
AcDbEntity
  8
0
100
AcDbLine
 10
96.22343500000001
 20
848.4849999999999
 30
0.0
 11
95.59883500000001
 21
848.784
 31
0.0
210
0.0
220
0.0
230
-1.0
  0
LINE
  5
1012
330
1E
100
AcDbEntity
  8
0
100
AcDbLine
 10
97.188235
 20
849.5969999999998
 30
0.0
 11
96.563735
 21
849.896
 31
0.0
210
0.0
220
0.0
230
-1.0
  0
LINE
  5
1013
330
1E
100
AcDbEntity
  8
0
100
AcDbLine
 10
96.95003500000002
 20
848.61
 30
0.0
 11
96.22343500000001
 21
848.4849999999999
 31
0.0
210
0.0
220
0.0
230
-1.0
  0
LINE
  5
1014
330
1E
100
AcDbEntity
  8
0
100
AcDbLine
 10
97.358635
 20
849.066
 30
0.0
 11
96.95003500000002
 21
848.61
 31
0.0
210
0.0
220
0.0
230
-1.0
  0
LINE
  5
1015
330
1E
100
AcDbEntity
  8
0
100
AcDbLine
 10
97.358635
 20
849.066
 30
0.0
 11
97.188235
 21
849.5969999999998
 31
0.0
210
0.0
220
0.0
230
-1.0
  0
LINE
  5
1016
330
1E
100
AcDbEntity
  8
0
100
AcDbLine
 10
96.563735
 20
849.896
 30
0.0
 11
95.83713499999999
 21
849.7709999999999
 31
0.0
210
0.0
220
0.0
230
-1.0
  0
LINE
  5
1017
330
1E
100
AcDbEntity
  8
0
100
AcDbLine
 10
95.59883500000001
 20
848.784
 30
0.0
 11
95.42843500000001
 21
849.3149999999999
 31
0.0
210
0.0
220
0.0
230
-1.0
  0
LINE
  5
1018
330
1E
100
AcDbEntity
  8
0
100
AcDbLine
 10
91.77793500000001
 20
844.0899999999999
 30
0.0
 11
91.42523500000001
 21
843.609
 31
0.0
210
0.0
220
0.0
230
-1.0
  0
LINE
  5
1019
330
1E
100
AcDbEntity
  8
0
100
AcDbLine
 10
92.31613499999999
 20
842.8329999999998
 30
0.0
 11
91.65833500000001
 21
843.091
 31
0.0
210
0.0
220
0.0
230
-1.0
  0
LINE
  5
101A
330
1E
100
AcDbEntity
  8
0
100
AcDbLine
 10
93.14473500000001
 20
844.002
 30
0.0
 11
92.48693500000001
 21
844.2599999999998
 31
0.0
210
0.0
220
0.0
230
-1.0
  0
LINE
  5
101B
330
1E
100
AcDbEntity
  8
0
100
AcDbLine
 10
93.02513500000001
 20
843.0039999999999
 30
0.0
 11
92.31613499999999
 21
842.8329999999998
 31
0.0
210
0.0
220
0.0
230
-1.0
  0
LINE
  5
101C
330
1E
100
AcDbEntity
  8
0
100
AcDbLine
 10
93.377835
 20
843.4839999999999
 30
0.0
 11
93.377835
 21
843.6059663551398
 31
0.0
210
0.0
220
0.0
230
-1.0
  0
LINE
  5
101D
330
1E
100
AcDbEntity
  8
0
100
AcDbLine
 10
93.377835
 20
843.4839999999999
 30
0.0
 11
93.02513500000001
 21
843.0039999999999
 31
0.0
210
0.0
220
0.0
230
-1.0
  0
LINE
  5
101E
330
1E
100
AcDbEntity
  8
0
100
AcDbLine
 10
93.377835
 20
843.4839999999999
 30
0.0
 11
93.14473500000001
 21
844.002
 31
0.0
210
0.0
220
0.0
230
-1.0
  0
LINE
  5
101F
330
1E
100
AcDbEntity
  8
0
100
AcDbLine
 10
93.377835
 20
843.6059663551398
 30
0.0
 11
93.377835
 21
843.4839999999999
 31
0.0
210
0.0
220
0.0
230
-1.0
  0
LINE
  5
1020
330
1E
100
AcDbEntity
  8
0
100
AcDbLine
 10
92.48693500000001
 20
844.2599999999998
 30
0.0
 11
91.77793500000001
 21
844.0899999999999
 31
0.0
210
0.0
220
0.0
230
-1.0
  0
LINE
  5
1021
330
1E
100
AcDbEntity
  8
0
100
AcDbLine
 10
90.73673500000001
 20
837.6729999999998
 30
0.0
 11
90.442735
 21
837.1719999999999
 31
0.0
210
0.0
220
0.0
230
-1.0
  0
LINE
  5
1022
330
1E
100
AcDbEntity
  8
0
100
AcDbLine
 10
90.73673500000001
 20
837.6729999999998
 30
0.0
 11
90.442735
 21
838.175
 31
0.0
210
0.0
220
0.0
230
-1.0
  0
LINE
  5
1023
330
1E
100
AcDbEntity
  8
0
100
AcDbLine
 10
90.442735
 20
838.175
 30
0.0
 11
89.756735
 21
838.39
 31
0.0
210
0.0
220
0.0
230
-1.0
  0
LINE
  5
1024
330
1E
100
AcDbEntity
  8
0
100
AcDbLine
 10
90.442735
 20
837.1719999999999
 30
0.0
 11
89.756735
 21
836.9569999999999
 31
0.0
210
0.0
220
0.0
230
-1.0
  0
LINE
  5
1025
330
1E
100
AcDbEntity
  8
0
100
AcDbLine
 10
90.57483500000001
 20
832.1859999999999
 30
0.0
 11
89.91703499999999
 21
832.4439999999999
 31
0.0
210
0.0
220
0.0
230
-1.0
  0
LINE
  5
1026
330
1E
100
AcDbEntity
  8
0
100
AcDbLine
 10
91.65833500000001
 20
843.091
 30
0.0
 11
91.42523500000001
 21
843.609
 31
0.0
210
0.0
220
0.0
230
-1.0
  0
LINE
  5
1027
330
1E
100
AcDbEntity
  8
0
100
AcDbLine
 10
90.73673500000001
 20
849.6149999999998
 30
0.0
 11
90.442735
 21
849.1139999999999
 31
0.0
210
0.0
220
0.0
230
-1.0
  0
LINE
  5
1028
330
1E
100
AcDbEntity
  8
0
100
AcDbLine
 10
90.73673500000001
 20
849.6149999999998
 30
0.0
 11
90.442735
 21
850.1159999999998
 31
0.0
210
0.0
220
0.0
230
-1.0
  0
LINE
  5
1029
330
1E
100
AcDbEntity
  8
0
100
AcDbLine
 10
90.442735
 20
850.1159999999998
 30
0.0
 11
89.756735
 21
850.331
 31
0.0
210
0.0
220
0.0
230
-1.0
  0
LINE
  5
102A
330
1E
100
AcDbEntity
  8
0
100
AcDbLine
 10
90.442735
 20
849.1139999999999
 30
0.0
 11
89.756735
 21
848.8989999999999
 31
0.0
210
0.0
220
0.0
230
-1.0
  0
LINE
  5
102B
330
1E
100
AcDbEntity
  8
0
100
AcDbLine
 10
99.39113500000001
 20
872.8389999999999
 30
0.0
 11
94.59463500000001
 21
873.3549999999999
 31
0.0
210
0.0
220
0.0
230
-1.0
  0
LINE
  5
102C
330
1E
100
AcDbEntity
  8
0
100
AcDbLine
 10
99.295635
 20
872.574
 30
0.0
 11
96.022335
 21
872.9549999999999
 31
0.0
210
0.0
220
0.0
230
-1.0
  0
LINE
  5
102D
330
1E
100
AcDbEntity
  8
0
100
AcDbLine
 10
102.300735
 20
863.446
 30
0.0
 11
89.756735
 21
864.7350000000001
 31
0.0
210
0.0
220
0.0
230
-1.0
  0
LINE
  5
102E
330
1E
100
AcDbEntity
  8
0
100
AcDbLine
 10
104.098035
 20
871.987
 30
0.0
 11
99.39113500000001
 21
872.8389999999999
 31
0.0
210
0.0
220
0.0
230
-1.0
  0
LINE
  5
102F
330
1E
100
AcDbEntity
  8
0
100
AcDbLine
 10
101.561835
 20
872.2149999999999
 30
0.0
 11
99.295635
 21
872.574
 31
0.0
210
0.0
220
0.0
230
-1.0
  0
LINE
  5
1030
330
1E
100
AcDbEntity
  8
0
100
AcDbLine
 10
103.802435
 20
871.7779999999999
 30
0.0
 11
101.561835
 21
872.2149999999999
 31
0.0
210
0.0
220
0.0
230
-1.0
  0
LINE
  5
1031
330
1E
100
AcDbEntity
  8
0
100
AcDbLine
 10
94.59463500000001
 20
873.3549999999999
 30
0.0
 11
89.756735
 21
873.5269999999999
 31
0.0
210
0.0
220
0.0
230
-1.0
  0
LINE
  5
1032
330
1E
100
AcDbEntity
  8
0
100
AcDbLine
 10
96.022335
 20
872.9549999999999
 30
0.0
 11
92.72253500000001
 21
873.179
 31
0.0
210
0.0
220
0.0
230
-1.0
  0
LINE
  5
1033
330
1E
100
AcDbEntity
  8
0
100
AcDbLine
 10
92.72253500000001
 20
873.179
 30
0.0
 11
89.756735
 21
873.2419999999999
 31
0.0
210
0.0
220
0.0
230
-1.0
  0
LINE
  5
1034
330
1E
100
AcDbEntity
  8
0
100
AcDbLine
 10
60.860335
 20
866.5639999999999
 30
0.0
 11
57.70923500000001
 21
864.8059999999999
 31
0.0
210
0.0
220
0.0
230
-1.0
  0
LINE
  5
1035
330
1E
100
AcDbEntity
  8
0
100
AcDbLine
 10
62.292935
 20
867.506
 30
0.0
 11
58.390135
 21
865.4229999999998
 31
0.0
210
0.0
220
0.0
230
-1.0
  0
LINE
  5
1036
330
1E
100
AcDbEntity
  8
0
100
AcDbLine
 10
65.35473500000001
 20
859.937
 30
0.0
 11
55.16273500000001
 21
854.208
 31
0.0
210
0.0
220
0.0
230
-1.0
  0
LINE
  5
1037
330
1E
100
AcDbEntity
  8
0
100
AcDbLine
 10
66.334735
 20
794.2579999999999
 30
0.0
 11
56.534735
 21
799.7719999999999
 31
0.0
210
0.0
220
0.0
230
-1.0
  0
LINE
  5
1038
330
1E
100
AcDbEntity
  8
0
100
AcDbLine
 10
76.600335
 20
802.027
 30
0.0
 11
76.044035
 21
801.6639999999998
 31
0.0
210
0.0
220
0.0
230
-1.0
  0
LINE
  5
1039
330
1E
100
AcDbEntity
  8
0
100
AcDbLine
 10
77.84383500000001
 20
801.604
 30
0.0
 11
77.34633500000001
 21
802.0099999999999
 31
0.0
210
0.0
220
0.0
230
-1.0
  0
LINE
  5
103A
330
1E
100
AcDbEntity
  8
0
100
AcDbLine
 10
77.70273500000001
 20
790.8919999999999
 30
0.0
 11
66.334735
 21
794.2579999999999
 31
0.0
210
0.0
220
0.0
230
-1.0
  0
LINE
  5
103B
330
1E
100
AcDbEntity
  8
0
100
AcDbLine
 10
82.15643500000002
 20
800.7309999999998
 30
0.0
 11
81.41763500000001
 21
800.6529999999999
 31
0.0
210
0.0
220
0.0
230
-1.0
  0
LINE
  5
103C
330
1E
100
AcDbEntity
  8
0
100
AcDbLine
 10
82.38783500000002
 20
799.425
 30
0.0
 11
81.649135
 21
799.3479999999999
 31
0.0
210
0.0
220
0.0
230
-1.0
  0
LINE
  5
103D
330
1E
100
AcDbEntity
  8
0
100
AcDbLine
 10
88.088235
 20
799.3059999999999
 30
0.0
 11
87.735535
 21
798.8249999999999
 31
0.0
210
0.0
220
0.0
230
-1.0
  0
LINE
  5
103E
330
1E
100
AcDbEntity
  8
0
100
AcDbLine
 10
87.855135
 20
799.824
 30
0.0
 11
87.19733500000002
 21
800.0809999999999
 31
0.0
210
0.0
220
0.0
230
-1.0
  0
LINE
  5
103F
330
1E
100
AcDbEntity
  8
0
100
AcDbLine
 10
89.070735
 20
794.261
 30
0.0
 11
88.776735
 21
793.7589999999999
 31
0.0
210
0.0
220
0.0
230
-1.0
  0
LINE
  5
1040
330
1E
100
AcDbEntity
  8
0
100
AcDbLine
 10
89.070735
 20
793.2579999999999
 30
0.0
 11
88.776735
 21
793.7589999999999
 31
0.0
210
0.0
220
0.0
230
-1.0
  0
LINE
  5
1041
330
1E
100
AcDbEntity
  8
0
100
AcDbLine
 10
88.088235
 20
799.3059999999999
 30
0.0
 11
87.855135
 21
799.824
 31
0.0
210
0.0
220
0.0
230
-1.0
  0
LINE
  5
1042
330
1E
100
AcDbEntity
  8
0
100
AcDbLine
 10
87.19733500000002
 20
800.0809999999999
 30
0.0
 11
86.488335
 21
799.9109999999999
 31
0.0
210
0.0
220
0.0
230
-1.0
  0
LINE
  5
1043
330
1E
100
AcDbEntity
  8
0
100
AcDbLine
 10
87.026535
 20
798.655
 30
0.0
 11
86.368735
 21
798.9119999999999
 31
0.0
210
0.0
220
0.0
230
-1.0
  0
LINE
  5
1044
330
1E
100
AcDbEntity
  8
0
100
AcDbLine
 10
87.735535
 20
798.8249999999999
 30
0.0
 11
87.026535
 21
798.655
 31
0.0
210
0.0
220
0.0
230
-1.0
  0
LINE
  5
1045
330
1E
100
AcDbEntity
  8
0
100
AcDbLine
 10
86.368735
 20
798.9119999999999
 30
0.0
 11
86.13563500000001
 21
799.4299999999999
 31
0.0
210
0.0
220
0.0
230
-1.0
  0
LINE
  5
1046
330
1E
100
AcDbEntity
  8
0
100
AcDbLine
 10
86.488335
 20
799.9109999999999
 30
0.0
 11
86.13563500000001
 21
799.4299999999999
 31
0.0
210
0.0
220
0.0
230
-1.0
  0
LINE
  5
1047
330
1E
100
AcDbEntity
  8
0
100
AcDbLine
 10
84.085035
 20
794.059
 30
0.0
 11
83.67633500000001
 21
793.6029999999999
 31
0.0
210
0.0
220
0.0
230
-1.0
  0
LINE
  5
1048
330
1E
100
AcDbEntity
  8
0
100
AcDbLine
 10
83.914635
 20
794.5899999999999
 30
0.0
 11
83.290035
 21
794.889
 31
0.0
210
0.0
220
0.0
230
-1.0
  0
LINE
  5
1049
330
1E
100
AcDbEntity
  8
0
100
AcDbLine
 10
84.085035
 20
794.059
 30
0.0
 11
83.914635
 21
794.5899999999999
 31
0.0
210
0.0
220
0.0
230
-1.0
  0
LINE
  5
104A
330
1E
100
AcDbEntity
  8
0
100
AcDbLine
 10
82.56343499999999
 20
794.764
 30
0.0
 11
82.15483500000001
 21
794.3079999999999
 31
0.0
210
0.0
220
0.0
230
-1.0
  0
LINE
  5
104B
330
1E
100
AcDbEntity
  8
0
100
AcDbLine
 10
82.94973500000001
 20
793.4779999999999
 30
0.0
 11
82.325235
 21
793.7769999999999
 31
0.0
210
0.0
220
0.0
230
-1.0
  0
LINE
  5
104C
330
1E
100
AcDbEntity
  8
0
100
AcDbLine
 10
83.67633500000001
 20
793.6029999999999
 30
0.0
 11
82.94973500000001
 21
793.4779999999999
 31
0.0
210
0.0
220
0.0
230
-1.0
  0
LINE
  5
104D
330
1E
100
AcDbEntity
  8
0
100
AcDbLine
 10
82.325235
 20
793.7769999999999
 30
0.0
 11
82.15483500000001
 21
794.3079999999999
 31
0.0
210
0.0
220
0.0
230
-1.0
  0
LINE
  5
104E
330
1E
100
AcDbEntity
  8
0
100
AcDbLine
 10
83.290035
 20
794.889
 30
0.0
 11
82.56343499999999
 21
794.764
 31
0.0
210
0.0
220
0.0
230
-1.0
  0
LINE
  5
104F
330
1E
100
AcDbEntity
  8
0
100
AcDbLine
 10
82.84933499999999
 20
799.8539999999999
 30
0.0
 11
82.742935
 21
800.3939999999998
 31
0.0
210
0.0
220
0.0
230
-1.0
  0
LINE
  5
1050
330
1E
100
AcDbEntity
  8
0
100
AcDbLine
 10
82.84933499999999
 20
799.8539999999999
 30
0.0
 11
82.38783500000002
 21
799.425
 31
0.0
210
0.0
220
0.0
230
-1.0
  0
LINE
  5
1051
330
1E
100
AcDbEntity
  8
0
100
AcDbLine
 10
82.742935
 20
800.3939999999998
 30
0.0
 11
82.15643500000002
 21
800.7309999999998
 31
0.0
210
0.0
220
0.0
230
-1.0
  0
LINE
  5
1052
330
1E
100
AcDbEntity
  8
0
100
AcDbLine
 10
81.06253499999999
 20
799.6849999999999
 30
0.0
 11
80.956135
 21
800.2239999999998
 31
0.0
210
0.0
220
0.0
230
-1.0
  0
LINE
  5
1053
330
1E
100
AcDbEntity
  8
0
100
AcDbLine
 10
81.41763500000001
 20
800.6529999999999
 30
0.0
 11
80.956135
 21
800.2239999999998
 31
0.0
210
0.0
220
0.0
230
-1.0
  0
LINE
  5
1054
330
1E
100
AcDbEntity
  8
0
100
AcDbLine
 10
81.649135
 20
799.3479999999999
 30
0.0
 11
81.06253499999999
 21
799.6849999999999
 31
0.0
210
0.0
220
0.0
230
-1.0
  0
LINE
  5
1058
330
1E
100
AcDbEntity
  8
0
100
AcDbLine
 10
76.274735
 20
796.0859999999999
 30
0.0
 11
75.763835
 21
795.6879999999999
 31
0.0
210
0.0
220
0.0
230
-1.0
  0
LINE
  5
1059
330
1E
100
AcDbEntity
  8
0
100
AcDbLine
 10
76.51803499999999
 20
800.7119999999998
 30
0.0
 11
76.02053500000001
 21
801.119
 31
0.0
210
0.0
220
0.0
230
-1.0
  0
LINE
  5
105A
330
1E
100
AcDbEntity
  8
0
100
AcDbLine
 10
76.349535
 20
794.7709999999999
 30
0.0
 11
75.805435
 21
795.1439999999998
 31
0.0
210
0.0
220
0.0
230
-1.0
  0
LINE
  5
105B
330
1E
100
AcDbEntity
  8
0
100
AcDbLine
 10
77.264035
 20
800.6949999999999
 30
0.0
 11
76.51803499999999
 21
800.7119999999998
 31
0.0
210
0.0
220
0.0
230
-1.0
  0
LINE
  5
105C
330
1E
100
AcDbEntity
  8
0
100
AcDbLine
 10
77.56393500000001
 20
795.7429999999999
 30
0.0
 11
77.019935
 21
796.1159999999998
 31
0.0
210
0.0
220
0.0
230
-1.0
  0
LINE
  5
105D
330
1E
100
AcDbEntity
  8
0
100
AcDbLine
 10
77.09473500000001
 20
794.8009999999999
 30
0.0
 11
76.349535
 21
794.7709999999999
 31
0.0
210
0.0
220
0.0
230
-1.0
  0
LINE
  5
105E
330
1E
100
AcDbEntity
  8
0
100
AcDbLine
 10
77.820335
 20
801.059
 30
0.0
 11
77.264035
 21
800.6949999999999
 31
0.0
210
0.0
220
0.0
230
-1.0
  0
LINE
  5
105F
330
1E
100
AcDbEntity
  8
0
100
AcDbLine
 10
77.84383500000001
 20
801.604
 30
0.0
 11
77.820335
 21
801.059
 31
0.0
210
0.0
220
0.0
230
-1.0
  0
LINE
  5
1060
330
1E
100
AcDbEntity
  8
0
100
AcDbLine
 10
77.605635
 20
795.1989999999999
 30
0.0
 11
77.56393500000001
 21
795.7429999999999
 31
0.0
210
0.0
220
0.0
230
-1.0
  0
LINE
  5
1061
330
1E
100
AcDbEntity
  8
0
100
AcDbLine
 10
77.605635
 20
795.1989999999999
 30
0.0
 11
77.09473500000001
 21
794.8009999999999
 31
0.0
210
0.0
220
0.0
230
-1.0
  0
LINE
  5
1062
330
1E
100
AcDbEntity
  8
0
100
AcDbLine
 10
77.019935
 20
796.1159999999998
 30
0.0
 11
76.274735
 21
796.0859999999999
 31
0.0
210
0.0
220
0.0
230
-1.0
  0
LINE
  5
1064
330
1E
100
AcDbEntity
  8
0
100
AcDbLine
 10
76.044035
 20
801.6639999999998
 30
0.0
 11
76.02053500000001
 21
801.119
 31
0.0
210
0.0
220
0.0
230
-1.0
  0
LINE
  5
1065
330
1E
100
AcDbEntity
  8
0
100
AcDbLine
 10
75.805435
 20
795.1439999999998
 30
0.0
 11
75.763835
 21
795.6879999999999
 31
0.0
210
0.0
220
0.0
230
-1.0
  0
LINE
  5
1066
330
1E
100
AcDbEntity
  8
0
100
AcDbLine
 10
70.39563500000001
 20
798.1859999999999
 30
0.0
 11
69.79803500000001
 21
797.8589999999999
 31
0.0
210
0.0
220
0.0
230
-1.0
  0
LINE
  5
1067
330
1E
100
AcDbEntity
  8
0
100
AcDbLine
 10
70.897835
 20
796.8159999999999
 30
0.0
 11
70.15673500000001
 21
796.8809999999999
 31
0.0
210
0.0
220
0.0
230
-1.0
  0
LINE
  5
1068
330
1E
100
AcDbEntity
  8
0
100
AcDbLine
 10
71.495435
 20
797.1429999999998
 30
0.0
 11
70.897835
 21
796.8159999999999
 31
0.0
210
0.0
220
0.0
230
-1.0
  0
LINE
  5
1069
330
1E
100
AcDbEntity
  8
0
100
AcDbLine
 10
71.58383500000001
 20
797.684
 30
0.0
 11
71.136735
 21
798.1209999999999
 31
0.0
210
0.0
220
0.0
230
-1.0
  0
LINE
  5
106A
330
1E
100
AcDbEntity
  8
0
100
AcDbLine
 10
71.58383500000001
 20
797.684
 30
0.0
 11
71.58383500000001
 21
797.8421858148889
 31
0.0
210
0.0
220
0.0
230
-1.0
  0
LINE
  5
106B
330
1E
100
AcDbEntity
  8
0
100
AcDbLine
 10
71.58383500000001
 20
797.684
 30
0.0
 11
71.495435
 21
797.1429999999998
 31
0.0
210
0.0
220
0.0
230
-1.0
  0
LINE
  5
106C
330
1E
100
AcDbEntity
  8
0
100
AcDbLine
 10
71.58383500000001
 20
797.8421858148889
 30
0.0
 11
71.58383500000001
 21
797.684
 31
0.0
210
0.0
220
0.0
230
-1.0
  0
LINE
  5
106D
330
1E
100
AcDbEntity
  8
0
100
AcDbLine
 10
71.136735
 20
798.1209999999999
 30
0.0
 11
70.39563500000001
 21
798.1859999999999
 31
0.0
210
0.0
220
0.0
230
-1.0
  0
LINE
  5
106E
330
1E
100
AcDbEntity
  8
0
100
AcDbLine
 10
69.79803500000001
 20
797.8589999999999
 30
0.0
 11
69.709635
 21
797.3169999999998
 31
0.0
210
0.0
220
0.0
230
-1.0
  0
LINE
  5
106F
330
1E
100
AcDbEntity
  8
0
100
AcDbLine
 10
70.15673500000001
 20
796.8809999999999
 30
0.0
 11
69.709635
 21
797.3169999999998
 31
0.0
210
0.0
220
0.0
230
-1.0
  0
LINE
  5
1070
330
1E
100
AcDbEntity
  8
0
100
AcDbLine
 10
64.438635
 20
800.7529999999999
 30
0.0
 11
64.22293500000001
 21
800.2309999999999
 31
0.0
210
0.0
220
0.0
230
-1.0
  0
LINE
  5
1071
330
1E
100
AcDbEntity
  8
0
100
AcDbLine
 10
64.559435
 20
799.745
 30
0.0
 11
64.22293500000001
 21
800.2309999999999
 31
0.0
210
0.0
220
0.0
230
-1.0
  0
LINE
  5
1072
330
1E
100
AcDbEntity
  8
0
100
AcDbLine
 10
65.94013500000001
 20
799.833
 30
0.0
 11
65.27393500000001
 21
799.5869999999999
 31
0.0
210
0.0
220
0.0
230
-1.0
  0
LINE
  5
1073
330
1E
100
AcDbEntity
  8
0
100
AcDbLine
 10
65.81933500000001
 20
800.8419999999999
 30
0.0
 11
65.10483500000001
 21
800.9989999999998
 31
0.0
210
0.0
220
0.0
230
-1.0
  0
LINE
  5
1074
330
1E
100
AcDbEntity
  8
0
100
AcDbLine
 10
66.15583500000001
 20
800.3549999999998
 30
0.0
 11
65.94013500000001
 21
799.833
 31
0.0
210
0.0
220
0.0
230
-1.0
  0
LINE
  5
1075
330
1E
100
AcDbEntity
  8
0
100
AcDbLine
 10
66.15583500000001
 20
800.3549999999998
 30
0.0
 11
65.81933500000001
 21
800.8419999999999
 31
0.0
210
0.0
220
0.0
230
-1.0
  0
LINE
  5
1076
330
1E
100
AcDbEntity
  8
0
100
AcDbLine
 10
65.10483500000001
 20
800.9989999999998
 30
0.0
 11
64.438635
 21
800.7529999999999
 31
0.0
210
0.0
220
0.0
230
-1.0
  0
LINE
  5
1077
330
1E
100
AcDbEntity
  8
0
100
AcDbLine
 10
65.27393500000001
 20
799.5869999999999
 30
0.0
 11
64.559435
 21
799.745
 31
0.0
210
0.0
220
0.0
230
-1.0
  0
LINE
  5
1078
330
1E
100
AcDbEntity
  8
0
100
AcDbLine
 10
75.71103500000001
 20
871.7779999999999
 30
0.0
 11
73.499935
 21
871.2669999999999
 31
0.0
210
0.0
220
0.0
230
-1.0
  0
LINE
  5
1079
330
1E
100
AcDbEntity
  8
0
100
AcDbLine
 10
75.415435
 20
871.987
 30
0.0
 11
70.846535
 21
870.805
 31
0.0
210
0.0
220
0.0
230
-1.0
  0
LINE
  5
107A
330
1E
100
AcDbEntity
  8
0
100
AcDbLine
 10
77.21273500000001
 20
863.446
 30
0.0
 11
65.35473500000001
 21
859.937
 31
0.0
210
0.0
220
0.0
230
-1.0
  0
LINE
  5
107B
330
1E
100
AcDbEntity
  8
0
100
AcDbLine
 10
82.38783500000002
 20
843.4899999999998
 30
0.0
 11
81.649135
 21
843.5669999999998
 31
0.0
210
0.0
220
0.0
230
-1.0
  0
LINE
  5
107C
330
1E
100
AcDbEntity
  8
0
100
AcDbLine
 10
82.15643500000002
 20
842.1839999999999
 30
0.0
 11
81.41763500000001
 21
842.262
 31
0.0
210
0.0
220
0.0
230
-1.0
  0
LINE
  5
107D
330
1E
100
AcDbEntity
  8
0
100
AcDbLine
 10
82.469435
 20
837.3239999999999
 30
0.0
 11
81.724235
 21
837.3549999999999
 31
0.0
210
0.0
220
0.0
230
-1.0
  0
LINE
  5
107E
330
1E
100
AcDbEntity
  8
0
100
AcDbLine
 10
82.39463500000001
 20
836.0089999999999
 30
0.0
 11
81.64943500000001
 21
836.0389999999998
 31
0.0
210
0.0
220
0.0
230
-1.0
  0
LINE
  5
107F
330
1E
100
AcDbEntity
  8
0
100
AcDbLine
 10
82.23823499999999
 20
811.1779999999999
 30
0.0
 11
81.740835
 21
811.585
 31
0.0
210
0.0
220
0.0
230
-1.0
  0
LINE
  5
1080
330
1E
100
AcDbEntity
  8
0
100
AcDbLine
 10
82.320635
 20
812.4929999999999
 30
0.0
 11
81.76423500000002
 21
812.1299999999999
 31
0.0
210
0.0
220
0.0
230
-1.0
  0
LINE
  5
1081
330
1E
100
AcDbEntity
  8
0
100
AcDbLine
 10
82.469435
 20
805.133
 30
0.0
 11
81.724235
 21
805.1019999999999
 31
0.0
210
0.0
220
0.0
230
-1.0
  0
LINE
  5
1082
330
1E
100
AcDbEntity
  8
0
100
AcDbLine
 10
82.39463500000001
 20
806.4479999999999
 30
0.0
 11
81.64943500000001
 21
806.418
 31
0.0
210
0.0
220
0.0
230
-1.0
  0
LINE
  5
1083
330
1E
100
AcDbEntity
  8
0
100
AcDbLine
 10
89.08843500000001
 20
831.2749999999999
 30
0.0
 11
88.85533499999999
 21
831.793
 31
0.0
210
0.0
220
0.0
230
-1.0
  0
LINE
  5
1084
330
1E
100
AcDbEntity
  8
0
100
AcDbLine
 10
89.070735
 20
805.2849999999999
 30
0.0
 11
88.776735
 21
804.7830000000001
 31
0.0
210
0.0
220
0.0
230
-1.0
  0
LINE
  5
1085
330
1E
100
AcDbEntity
  8
0
100
AcDbLine
 10
89.070735
 20
804.2819999999998
 30
0.0
 11
88.776735
 21
804.7830000000001
 31
0.0
210
0.0
220
0.0
230
-1.0
  0
LINE
  5
1086
330
1E
100
AcDbEntity
  8
0
100
AcDbLine
 10
89.18113500000002
 20
809.9499999999999
 30
0.0
 11
88.948035
 21
810.468
 31
0.0
210
0.0
220
0.0
230
-1.0
  0
LINE
  5
1087
330
1E
100
AcDbEntity
  8
0
100
AcDbLine
 10
89.300735
 20
810.9489999999999
 30
0.0
 11
88.948035
 21
810.468
 31
0.0
210
0.0
220
0.0
230
-1.0
  0
LINE
  5
1088
330
1E
100
AcDbEntity
  8
0
100
AcDbLine
 10
89.74623500000001
 20
831.0169999999999
 30
0.0
 11
89.08843500000001
 21
831.2749999999999
 31
0.0
210
0.0
220
0.0
230
-1.0
  0
LINE
  5
1089
330
1E
100
AcDbEntity
  8
0
100
AcDbLine
 10
82.980335
 20
805.5299999999999
 30
0.0
 11
82.469435
 21
805.133
 31
0.0
210
0.0
220
0.0
230
-1.0
  0
LINE
  5
108A
330
1E
100
AcDbEntity
  8
0
100
AcDbLine
 10
82.938635
 20
806.0749999999998
 30
0.0
 11
82.39463500000001
 21
806.4479999999999
 31
0.0
210
0.0
220
0.0
230
-1.0
  0
LINE
  5
108B
330
1E
100
AcDbEntity
  8
0
100
AcDbLine
 10
82.980335
 20
805.5299999999999
 30
0.0
 11
82.938635
 21
806.0749999999998
 31
0.0
210
0.0
220
0.0
230
-1.0
  0
LINE
  5
108C
330
1E
100
AcDbEntity
  8
0
100
AcDbLine
 10
82.98423500000001
 20
811.1609999999998
 30
0.0
 11
82.23823499999999
 21
811.1779999999999
 31
0.0
210
0.0
220
0.0
230
-1.0
  0
LINE
  5
108D
330
1E
100
AcDbEntity
  8
0
100
AcDbLine
 10
83.066635
 20
812.476
 30
0.0
 11
82.320635
 21
812.4929999999999
 31
0.0
210
0.0
220
0.0
230
-1.0
  0
LINE
  5
108E
330
1E
100
AcDbEntity
  8
0
100
AcDbLine
 10
83.540635
 20
811.5249999999999
 30
0.0
 11
82.98423500000001
 21
811.1609999999998
 31
0.0
210
0.0
220
0.0
230
-1.0
  0
LINE
  5
108F
330
1E
100
AcDbEntity
  8
0
100
AcDbLine
 10
83.564035
 20
812.0699999999999
 30
0.0
 11
83.540635
 21
811.5249999999999
 31
0.0
210
0.0
220
0.0
230
-1.0
  0
LINE
  5
1090
330
1E
100
AcDbEntity
  8
0
100
AcDbLine
 10
83.564035
 20
812.0699999999999
 30
0.0
 11
83.066635
 21
812.476
 31
0.0
210
0.0
220
0.0
230
-1.0
  0
LINE
  5
1091
330
1E
100
AcDbEntity
  8
0
100
AcDbLine
 10
83.971935
 20
830.8359999999998
 30
0.0
 11
83.41553500000001
 21
831.1999999999999
 31
0.0
210
0.0
220
0.0
230
-1.0
  0
LINE
  5
1092
330
1E
100
AcDbEntity
  8
0
100
AcDbLine
 10
83.99543500000001
 20
830.2909999999998
 30
0.0
 11
83.49793500000002
 21
829.8849999999998
 31
0.0
210
0.0
220
0.0
230
-1.0
  0
LINE
  5
1093
330
1E
100
AcDbEntity
  8
0
100
AcDbLine
 10
83.99543500000001
 20
830.2909999999998
 30
0.0
 11
83.971935
 21
830.8359999999998
 31
0.0
210
0.0
220
0.0
230
-1.0
  0
LINE
  5
1094
330
1E
100
AcDbEntity
  8
0
100
AcDbLine
 10
83.41553500000001
 20
831.1999999999999
 30
0.0
 11
82.66963500000001
 21
831.1829999999998
 31
0.0
210
0.0
220
0.0
230
-1.0
  0
LINE
  5
1095
330
1E
100
AcDbEntity
  8
0
100
AcDbLine
 10
83.49793500000002
 20
829.8849999999998
 30
0.0
 11
82.751935
 21
829.8679999999999
 31
0.0
210
0.0
220
0.0
230
-1.0
  0
LINE
  5
1096
330
1E
100
AcDbEntity
  8
0
100
AcDbLine
 10
82.66963500000001
 20
831.1829999999998
 30
0.0
 11
82.17213499999999
 21
830.776
 31
0.0
210
0.0
220
0.0
230
-1.0
  0
LINE
  5
1097
330
1E
100
AcDbEntity
  8
0
100
AcDbLine
 10
82.19553500000001
 20
830.2309999999998
 30
0.0
 11
82.17213499999999
 21
830.776
 31
0.0
210
0.0
220
0.0
230
-1.0
  0
LINE
  5
1098
330
1E
100
AcDbEntity
  8
0
100
AcDbLine
 10
82.751935
 20
829.8679999999999
 30
0.0
 11
82.19553500000001
 21
830.2309999999998
 31
0.0
210
0.0
220
0.0
230
-1.0
  0
LINE
  5
1099
330
1E
100
AcDbEntity
  8
0
100
AcDbLine
 10
88.088235
 20
843.609
 30
0.0
 11
87.735535
 21
844.0899999999999
 31
0.0
210
0.0
220
0.0
230
-1.0
  0
LINE
  5
109A
330
1E
100
AcDbEntity
  8
0
100
AcDbLine
 10
87.855135
 20
843.091
 30
0.0
 11
87.19733500000002
 21
842.8329999999998
 31
0.0
210
0.0
220
0.0
230
-1.0
  0
LINE
  5
109B
330
1E
100
AcDbEntity
  8
0
100
AcDbLine
 10
89.070735
 20
838.175
 30
0.0
 11
88.776735
 21
837.6729999999998
 31
0.0
210
0.0
220
0.0
230
-1.0
  0
LINE
  5
109C
330
1E
100
AcDbEntity
  8
0
100
AcDbLine
 10
89.070735
 20
837.1719999999999
 30
0.0
 11
88.776735
 21
837.6729999999998
 31
0.0
210
0.0
220
0.0
230
-1.0
  0
LINE
  5
109D
330
1E
100
AcDbEntity
  8
0
100
AcDbLine
 10
89.20803500000001
 20
832.2729999999999
 30
0.0
 11
88.85533499999999
 21
831.793
 31
0.0
210
0.0
220
0.0
230
-1.0
  0
LINE
  5
109E
330
1E
100
AcDbEntity
  8
0
100
AcDbLine
 10
88.088235
 20
843.609
 30
0.0
 11
87.855135
 21
843.091
 31
0.0
210
0.0
220
0.0
230
-1.0
  0
LINE
  5
109F
330
1E
100
AcDbEntity
  8
0
100
AcDbLine
 10
87.026535
 20
844.2599999999998
 30
0.0
 11
86.368735
 21
844.002
 31
0.0
210
0.0
220
0.0
230
-1.0
  0
LINE
  5
10A0
330
1E
100
AcDbEntity
  8
0
100
AcDbLine
 10
87.19733500000002
 20
842.8329999999998
 30
0.0
 11
86.488335
 21
843.0039999999999
 31
0.0
210
0.0
220
0.0
230
-1.0
  0
LINE
  5
10A1
330
1E
100
AcDbEntity
  8
0
100
AcDbLine
 10
87.735535
 20
844.0899999999999
 30
0.0
 11
87.026535
 21
844.2599999999998
 31
0.0
210
0.0
220
0.0
230
-1.0
  0
LINE
  5
10A2
330
1E
100
AcDbEntity
  8
0
100
AcDbLine
 10
86.368735
 20
844.002
 30
0.0
 11
86.13563500000001
 21
843.4839999999999
 31
0.0
210
0.0
220
0.0
230
-1.0
  0
LINE
  5
10A3
330
1E
100
AcDbEntity
  8
0
100
AcDbLine
 10
86.13563500000001
 20
843.6059663551398
 30
0.0
 11
86.13563500000001
 21
843.4839999999999
 31
0.0
210
0.0
220
0.0
230
-1.0
  0
LINE
  5
10A4
330
1E
100
AcDbEntity
  8
0
100
AcDbLine
 10
86.13563500000001
 20
843.4839999999999
 30
0.0
 11
86.13563500000001
 21
843.6059663551398
 31
0.0
210
0.0
220
0.0
230
-1.0
  0
LINE
  5
10A5
330
1E
100
AcDbEntity
  8
0
100
AcDbLine
 10
86.488335
 20
843.0039999999999
 30
0.0
 11
86.13563500000001
 21
843.4839999999999
 31
0.0
210
0.0
220
0.0
230
-1.0
  0
LINE
  5
10A6
330
1E
100
AcDbEntity
  8
0
100
AcDbLine
 10
89.070735
 20
850.1159999999998
 30
0.0
 11
88.776735
 21
849.6149999999998
 31
0.0
210
0.0
220
0.0
230
-1.0
  0
LINE
  5
10A7
330
1E
100
AcDbEntity
  8
0
100
AcDbLine
 10
89.070735
 20
849.1139999999999
 30
0.0
 11
88.776735
 21
849.6149999999998
 31
0.0
210
0.0
220
0.0
230
-1.0
  0
LINE
  5
10A8
330
1E
100
AcDbEntity
  8
0
100
AcDbLine
 10
82.980335
 20
836.927
 30
0.0
 11
82.469435
 21
837.3239999999999
 31
0.0
210
0.0
220
0.0
230
-1.0
  0
LINE
  5
10A9
330
1E
100
AcDbEntity
  8
0
100
AcDbLine
 10
82.938635
 20
836.382
 30
0.0
 11
82.39463500000001
 21
836.0089999999999
 31
0.0
210
0.0
220
0.0
230
-1.0
  0
LINE
  5
10AA
330
1E
100
AcDbEntity
  8
0
100
AcDbLine
 10
82.980335
 20
836.927
 30
0.0
 11
82.938635
 21
836.382
 31
0.0
210
0.0
220
0.0
230
-1.0
  0
LINE
  5
10AB
330
1E
100
AcDbEntity
  8
0
100
AcDbLine
 10
82.84933499999999
 20
843.0609999999999
 30
0.0
 11
82.742935
 21
842.5209999999999
 31
0.0
210
0.0
220
0.0
230
-1.0
  0
LINE
  5
10AC
330
1E
100
AcDbEntity
  8
0
100
AcDbLine
 10
82.84933499999999
 20
843.0609999999999
 30
0.0
 11
82.38783500000002
 21
843.4899999999998
 31
0.0
210
0.0
220
0.0
230
-1.0
  0
LINE
  5
10AD
330
1E
100
AcDbEntity
  8
0
100
AcDbLine
 10
82.742935
 20
842.5209999999999
 30
0.0
 11
82.15643500000002
 21
842.1839999999999
 31
0.0
210
0.0
220
0.0
230
-1.0
  0
LINE
  5
10AE
330
1E
100
AcDbEntity
  8
0
100
AcDbLine
 10
84.085035
 20
849.3149999999999
 30
0.0
 11
83.67633500000001
 21
849.7709999999999
 31
0.0
210
0.0
220
0.0
230
-1.0
  0
LINE
  5
10AF
330
1E
100
AcDbEntity
  8
0
100
AcDbLine
 10
83.914635
 20
848.784
 30
0.0
 11
83.290035
 21
848.4849999999999
 31
0.0
210
0.0
220
0.0
230
-1.0
  0
LINE
  5
10B0
330
1E
100
AcDbEntity
  8
0
100
AcDbLine
 10
84.085035
 20
849.3149999999999
 30
0.0
 11
83.914635
 21
848.784
 31
0.0
210
0.0
220
0.0
230
-1.0
  0
LINE
  5
10B1
330
1E
100
AcDbEntity
  8
0
100
AcDbLine
 10
82.94973500000001
 20
849.896
 30
0.0
 11
82.325235
 21
849.5969999999998
 31
0.0
210
0.0
220
0.0
230
-1.0
  0
LINE
  5
10B2
330
1E
100
AcDbEntity
  8
0
100
AcDbLine
 10
83.290035
 20
848.4849999999999
 30
0.0
 11
82.56343499999999
 21
848.61
 31
0.0
210
0.0
220
0.0
230
-1.0
  0
LINE
  5
10B3
330
1E
100
AcDbEntity
  8
0
100
AcDbLine
 10
83.67633500000001
 20
849.7709999999999
 30
0.0
 11
82.94973500000001
 21
849.896
 31
0.0
210
0.0
220
0.0
230
-1.0
  0
LINE
  5
10B4
330
1E
100
AcDbEntity
  8
0
100
AcDbLine
 10
82.325235
 20
849.5969999999998
 30
0.0
 11
82.15483500000001
 21
849.066
 31
0.0
210
0.0
220
0.0
230
-1.0
  0
LINE
  5
10B5
330
1E
100
AcDbEntity
  8
0
100
AcDbLine
 10
82.56343499999999
 20
848.61
 30
0.0
 11
82.15483500000001
 21
849.066
 31
0.0
210
0.0
220
0.0
230
-1.0
  0
LINE
  5
10B6
330
1E
100
AcDbEntity
  8
0
100
AcDbLine
 10
78.06593499999999
 20
828.575
 30
0.0
 11
77.788735
 21
828.0689999999999
 31
0.0
210
0.0
220
0.0
230
-1.0
  0
LINE
  5
10B7
330
1E
100
AcDbEntity
  8
0
100
AcDbLine
 10
78.06593499999999
 20
827.5629999999999
 30
0.0
 11
77.788735
 21
828.0689999999999
 31
0.0
210
0.0
220
0.0
230
-1.0
  0
LINE
  5
10B8
330
1E
100
AcDbEntity
  8
0
100
AcDbLine
 10
78.20433500000001
 20
815.2709999999999
 30
0.0
 11
77.511335
 21
815.0679999999999
 31
0.0
210
0.0
220
0.0
230
-1.0
  0
LINE
  5
10B9
330
1E
100
AcDbEntity
  8
0
100
AcDbLine
 10
78.20433500000001
 20
813.8529999999999
 30
0.0
 11
77.511335
 21
814.0559999999998
 31
0.0
210
0.0
220
0.0
230
-1.0
  0
LINE
  5
10BA
330
1E
100
AcDbEntity
  8
0
100
AcDbLine
 10
81.724235
 20
805.1019999999999
 30
0.0
 11
81.18013500000001
 21
805.4759999999999
 31
0.0
210
0.0
220
0.0
230
-1.0
  0
LINE
  5
10BB
330
1E
100
AcDbEntity
  8
0
100
AcDbLine
 10
81.18013500000001
 20
805.4759999999999
 30
0.0
 11
81.13853500000001
 21
806.0199999999998
 31
0.0
210
0.0
220
0.0
230
-1.0
  0
LINE
  5
10BC
330
1E
100
AcDbEntity
  8
0
100
AcDbLine
 10
81.64943500000001
 20
806.418
 30
0.0
 11
81.13853500000001
 21
806.0199999999998
 31
0.0
210
0.0
220
0.0
230
-1.0
  0
LINE
  5
10BD
330
1E
100
AcDbEntity
  8
0
100
AcDbLine
 10
81.76423500000002
 20
812.1299999999999
 30
0.0
 11
81.740835
 21
811.585
 31
0.0
210
0.0
220
0.0
230
-1.0
  0
LINE
  5
10BE
330
1E
100
AcDbEntity
  8
0
100
AcDbLine
 10
79.174535
 20
814.562
 30
0.0
 11
78.897335
 21
814.0559999999998
 31
0.0
210
0.0
220
0.0
230
-1.0
  0
LINE
  5
10BF
330
1E
100
AcDbEntity
  8
0
100
AcDbLine
 10
79.174535
 20
814.562
 30
0.0
 11
78.897335
 21
815.0679999999999
 31
0.0
210
0.0
220
0.0
230
-1.0
  0
LINE
  5
10C0
330
1E
100
AcDbEntity
  8
0
100
AcDbLine
 10
78.897335
 20
814.0559999999998
 30
0.0
 11
78.20433500000001
 21
813.8529999999999
 31
0.0
210
0.0
220
0.0
230
-1.0
  0
LINE
  5
10C1
330
1E
100
AcDbEntity
  8
0
100
AcDbLine
 10
78.897335
 20
815.0679999999999
 30
0.0
 11
78.20433500000001
 21
815.2709999999999
 31
0.0
210
0.0
220
0.0
230
-1.0
  0
LINE
  5
10C2
330
1E
100
AcDbEntity
  8
0
100
AcDbLine
 10
79.451835
 20
828.575
 30
0.0
 11
78.758935
 21
828.7779999999999
 31
0.0
210
0.0
220
0.0
230
-1.0
  0
LINE
  5
10C3
330
1E
100
AcDbEntity
  8
0
100
AcDbLine
 10
79.451835
 20
827.5629999999999
 30
0.0
 11
78.758935
 21
827.36
 31
0.0
210
0.0
220
0.0
230
-1.0
  0
LINE
  5
10C4
330
1E
100
AcDbEntity
  8
0
100
AcDbLine
 10
79.72903500000001
 20
828.0689999999999
 30
0.0
 11
79.451835
 21
828.575
 31
0.0
210
0.0
220
0.0
230
-1.0
  0
LINE
  5
10C5
330
1E
100
AcDbEntity
  8
0
100
AcDbLine
 10
79.72903500000001
 20
828.0689999999999
 30
0.0
 11
79.451835
 21
827.5629999999999
 31
0.0
210
0.0
220
0.0
230
-1.0
  0
LINE
  5
10C6
330
1E
100
AcDbEntity
  8
0
100
AcDbLine
 10
78.758935
 20
828.7779999999999
 30
0.0
 11
78.06593499999999
 21
828.575
 31
0.0
210
0.0
220
0.0
230
-1.0
  0
LINE
  5
10C7
330
1E
100
AcDbEntity
  8
0
100
AcDbLine
 10
78.758935
 20
827.36
 30
0.0
 11
78.06593499999999
 21
827.5629999999999
 31
0.0
210
0.0
220
0.0
230
-1.0
  0
LINE
  5
10C8
330
1E
100
AcDbEntity
  8
0
100
AcDbLine
 10
76.256935
 20
808.6929999999998
 30
0.0
 11
76.041235
 21
808.1709999999999
 31
0.0
210
0.0
220
0.0
230
-1.0
  0
LINE
  5
10C9
330
1E
100
AcDbEntity
  8
0
100
AcDbLine
 10
76.256935
 20
808.6929999999998
 30
0.0
 11
75.92043499999999
 21
809.1789999999999
 31
0.0
210
0.0
220
0.0
230
-1.0
  0
LINE
  5
10CA
330
1E
100
AcDbEntity
  8
0
100
AcDbLine
 10
77.34633500000001
 20
802.0099999999999
 30
0.0
 11
76.600335
 21
802.027
 31
0.0
210
0.0
220
0.0
230
-1.0
  0
LINE
  5
10CB
330
1E
100
AcDbEntity
  8
0
100
AcDbLine
 10
77.511335
 20
814.0559999999998
 30
0.0
 11
77.23423500000001
 21
814.562
 31
0.0
210
0.0
220
0.0
230
-1.0
  0
LINE
  5
10CC
330
1E
100
AcDbEntity
  8
0
100
AcDbLine
 10
77.511335
 20
815.0679999999999
 30
0.0
 11
77.23423500000001
 21
814.562
 31
0.0
210
0.0
220
0.0
230
-1.0
  0
LINE
  5
10CD
330
1E
100
AcDbEntity
  8
0
100
AcDbLine
 10
75.20593500000001
 20
809.3369999999998
 30
0.0
 11
74.539735
 21
809.091
 31
0.0
210
0.0
220
0.0
230
-1.0
  0
LINE
  5
10CE
330
1E
100
AcDbEntity
  8
0
100
AcDbLine
 10
75.37503500000001
 20
807.925
 30
0.0
 11
74.66053500000001
 21
808.0819999999999
 31
0.0
210
0.0
220
0.0
230
-1.0
  0
LINE
  5
10CF
330
1E
100
AcDbEntity
  8
0
100
AcDbLine
 10
76.041235
 20
808.1709999999999
 30
0.0
 11
75.37503500000001
 21
807.925
 31
0.0
210
0.0
220
0.0
230
-1.0
  0
LINE
  5
10D0
330
1E
100
AcDbEntity
  8
0
100
AcDbLine
 10
75.92043499999999
 20
809.1789999999999
 30
0.0
 11
75.20593500000001
 21
809.3369999999998
 31
0.0
210
0.0
220
0.0
230
-1.0
  0
LINE
  5
10D1
330
1E
100
AcDbEntity
  8
0
100
AcDbLine
 10
74.539735
 20
809.091
 30
0.0
 11
74.32403500000001
 21
808.5689999999999
 31
0.0
210
0.0
220
0.0
230
-1.0
  0
LINE
  5
10D2
330
1E
100
AcDbEntity
  8
0
100
AcDbLine
 10
74.66053500000001
 20
808.0819999999999
 30
0.0
 11
74.32403500000001
 21
808.5689999999999
 31
0.0
210
0.0
220
0.0
230
-1.0
  0
LINE
  5
10D3
330
1E
100
AcDbEntity
  8
0
100
AcDbLine
 10
76.212135
 20
818.655
 30
0.0
 11
75.65573500000001
 21
819.0179999999999
 31
0.0
210
0.0
220
0.0
230
-1.0
  0
LINE
  5
10D4
330
1E
100
AcDbEntity
  8
0
100
AcDbLine
 10
76.235635
 20
818.11
 30
0.0
 11
75.73813499999999
 21
817.7029999999998
 31
0.0
210
0.0
220
0.0
230
-1.0
  0
LINE
  5
10D5
330
1E
100
AcDbEntity
  8
0
100
AcDbLine
 10
76.235635
 20
818.11
 30
0.0
 11
76.212135
 21
818.655
 31
0.0
210
0.0
220
0.0
230
-1.0
  0
LINE
  5
10D6
330
1E
100
AcDbEntity
  8
0
100
AcDbLine
 10
75.553235
 20
823.9829999999999
 30
0.0
 11
74.80733500000001
 21
823.9999999999998
 31
0.0
210
0.0
220
0.0
230
-1.0
  0
LINE
  5
10D7
330
1E
100
AcDbEntity
  8
0
100
AcDbLine
 10
75.47093500000001
 20
822.6679999999999
 30
0.0
 11
74.724935
 21
822.6849999999998
 31
0.0
210
0.0
220
0.0
230
-1.0
  0
LINE
  5
10D8
330
1E
100
AcDbEntity
  8
0
100
AcDbLine
 10
75.65573500000001
 20
819.0179999999999
 30
0.0
 11
74.909835
 21
819.0009999999999
 31
0.0
210
0.0
220
0.0
230
-1.0
  0
LINE
  5
10D9
330
1E
100
AcDbEntity
  8
0
100
AcDbLine
 10
75.73813499999999
 20
817.7029999999998
 30
0.0
 11
74.992135
 21
817.6859999999999
 31
0.0
210
0.0
220
0.0
230
-1.0
  0
LINE
  5
10DA
330
1E
100
AcDbEntity
  8
0
100
AcDbLine
 10
76.050735
 20
823.5759999999999
 30
0.0
 11
75.553235
 21
823.9829999999999
 31
0.0
210
0.0
220
0.0
230
-1.0
  0
LINE
  5
10DB
330
1E
100
AcDbEntity
  8
0
100
AcDbLine
 10
76.050735
 20
823.5759999999999
 30
0.0
 11
76.02733500000001
 21
823.0309999999999
 31
0.0
210
0.0
220
0.0
230
-1.0
  0
LINE
  5
10DC
330
1E
100
AcDbEntity
  8
0
100
AcDbLine
 10
76.02733500000001
 20
823.0309999999999
 30
0.0
 11
75.47093500000001
 21
822.6679999999999
 31
0.0
210
0.0
220
0.0
230
-1.0
  0
LINE
  5
10DD
330
1E
100
AcDbEntity
  8
0
100
AcDbLine
 10
74.80733500000001
 20
823.9999999999998
 30
0.0
 11
74.25093500000001
 21
823.6359999999999
 31
0.0
210
0.0
220
0.0
230
-1.0
  0
LINE
  5
10DE
330
1E
100
AcDbEntity
  8
0
100
AcDbLine
 10
74.25093500000001
 20
823.6359999999999
 30
0.0
 11
74.227435
 21
823.0909999999999
 31
0.0
210
0.0
220
0.0
230
-1.0
  0
LINE
  5
10DF
330
1E
100
AcDbEntity
  8
0
100
AcDbLine
 10
74.724935
 20
822.6849999999998
 30
0.0
 11
74.227435
 21
823.0909999999999
 31
0.0
210
0.0
220
0.0
230
-1.0
  0
LINE
  5
10E0
330
1E
100
AcDbEntity
  8
0
100
AcDbLine
 10
74.909835
 20
819.0009999999999
 30
0.0
 11
74.41233500000001
 21
818.595
 31
0.0
210
0.0
220
0.0
230
-1.0
  0
LINE
  5
10E1
330
1E
100
AcDbEntity
  8
0
100
AcDbLine
 10
74.43573500000001
 20
818.0489999999998
 30
0.0
 11
74.41233500000001
 21
818.595
 31
0.0
210
0.0
220
0.0
230
-1.0
  0
LINE
  5
10E2
330
1E
100
AcDbEntity
  8
0
100
AcDbLine
 10
74.992135
 20
817.6859999999999
 30
0.0
 11
74.43573500000001
 21
818.0489999999998
 31
0.0
210
0.0
220
0.0
230
-1.0
  0
LINE
  5
10E3
330
1E
100
AcDbEntity
  8
0
100
AcDbLine
 10
81.724235
 20
837.3549999999999
 30
0.0
 11
81.18013500000001
 21
836.9809999999999
 31
0.0
210
0.0
220
0.0
230
-1.0
  0
LINE
  5
10E4
330
1E
100
AcDbEntity
  8
0
100
AcDbLine
 10
81.18013500000001
 20
836.9809999999999
 30
0.0
 11
81.13853500000001
 21
836.437
 31
0.0
210
0.0
220
0.0
230
-1.0
  0
LINE
  5
10E5
330
1E
100
AcDbEntity
  8
0
100
AcDbLine
 10
81.64943500000001
 20
836.0389999999998
 30
0.0
 11
81.13853500000001
 21
836.437
 31
0.0
210
0.0
220
0.0
230
-1.0
  0
LINE
  5
10E6
330
1E
100
AcDbEntity
  8
0
100
AcDbLine
 10
81.06253499999999
 20
843.2299999999999
 30
0.0
 11
80.956135
 21
842.6899999999999
 31
0.0
210
0.0
220
0.0
230
-1.0
  0
LINE
  5
10E7
330
1E
100
AcDbEntity
  8
0
100
AcDbLine
 10
81.41763500000001
 20
842.262
 30
0.0
 11
80.956135
 21
842.6899999999999
 31
0.0
210
0.0
220
0.0
230
-1.0
  0
LINE
  5
10E8
330
1E
100
AcDbEntity
  8
0
100
AcDbLine
 10
81.649135
 20
843.5669999999998
 30
0.0
 11
81.06253499999999
 21
843.2299999999999
 31
0.0
210
0.0
220
0.0
230
-1.0
  0
LINE
  5
10E9
330
1E
100
AcDbEntity
  8
0
100
AcDbLine
 10
76.51803499999999
 20
842.2029999999999
 30
0.0
 11
76.02053500000001
 21
841.7959999999998
 31
0.0
210
0.0
220
0.0
230
-1.0
  0
LINE
  5
10EA
330
1E
100
AcDbEntity
  8
0
100
AcDbLine
 10
76.600335
 20
840.8879999999999
 30
0.0
 11
76.044035
 21
841.2509999999999
 31
0.0
210
0.0
220
0.0
230
-1.0
  0
LINE
  5
10EB
330
1E
100
AcDbEntity
  8
0
100
AcDbLine
 10
76.256935
 20
833.764
 30
0.0
 11
76.041235
 21
834.2859999999999
 31
0.0
210
0.0
220
0.0
230
-1.0
  0
LINE
  5
10EC
330
1E
100
AcDbEntity
  8
0
100
AcDbLine
 10
76.256935
 20
833.764
 30
0.0
 11
75.92043499999999
 21
833.277
 31
0.0
210
0.0
220
0.0
230
-1.0
  0
LINE
  5
10ED
330
1E
100
AcDbEntity
  8
0
100
AcDbLine
 10
77.264035
 20
842.22
 30
0.0
 11
76.51803499999999
 21
842.2029999999999
 31
0.0
210
0.0
220
0.0
230
-1.0
  0
LINE
  5
10EE
330
1E
100
AcDbEntity
  8
0
100
AcDbLine
 10
77.34633500000001
 20
840.905
 30
0.0
 11
76.600335
 21
840.8879999999999
 31
0.0
210
0.0
220
0.0
230
-1.0
  0
LINE
  5
10EF
330
1E
100
AcDbEntity
  8
0
100
AcDbLine
 10
77.820335
 20
841.8559999999999
 30
0.0
 11
77.264035
 21
842.22
 31
0.0
210
0.0
220
0.0
230
-1.0
  0
LINE
  5
10F0
330
1E
100
AcDbEntity
  8
0
100
AcDbLine
 10
77.84383500000001
 20
841.3109999999999
 30
0.0
 11
77.820335
 21
841.8559999999999
 31
0.0
210
0.0
220
0.0
230
-1.0
  0
LINE
  5
10F1
330
1E
100
AcDbEntity
  8
0
100
AcDbLine
 10
77.84383500000001
 20
841.3109999999999
 30
0.0
 11
77.34633500000001
 21
840.905
 31
0.0
210
0.0
220
0.0
230
-1.0
  0
LINE
  5
10F2
330
1E
100
AcDbEntity
  8
0
100
AcDbLine
 10
75.37503500000001
 20
834.5319999999999
 30
0.0
 11
74.66053500000001
 21
834.3749999999998
 31
0.0
210
0.0
220
0.0
230
-1.0
  0
LINE
  5
10F3
330
1E
100
AcDbEntity
  8
0
100
AcDbLine
 10
75.20593500000001
 20
833.12
 30
0.0
 11
74.539735
 21
833.3659999999998
 31
0.0
210
0.0
220
0.0
230
-1.0
  0
LINE
  5
10F4
330
1E
100
AcDbEntity
  8
0
100
AcDbLine
 10
76.041235
 20
834.2859999999999
 30
0.0
 11
75.37503500000001
 21
834.5319999999999
 31
0.0
210
0.0
220
0.0
230
-1.0
  0
LINE
  5
10F5
330
1E
100
AcDbEntity
  8
0
100
AcDbLine
 10
75.92043499999999
 20
833.277
 30
0.0
 11
75.20593500000001
 21
833.12
 31
0.0
210
0.0
220
0.0
230
-1.0
  0
LINE
  5
10F6
330
1E
100
AcDbEntity
  8
0
100
AcDbLine
 10
74.66053500000001
 20
834.3749999999998
 30
0.0
 11
74.32403500000001
 21
833.8879999999999
 31
0.0
210
0.0
220
0.0
230
-1.0
  0
LINE
  5
10F7
330
1E
100
AcDbEntity
  8
0
100
AcDbLine
 10
74.539735
 20
833.3659999999998
 30
0.0
 11
74.32403500000001
 21
833.8879999999999
 31
0.0
210
0.0
220
0.0
230
-1.0
  0
LINE
  5
10F8
330
1E
100
AcDbEntity
  8
0
100
AcDbLine
 10
76.044035
 20
841.2509999999999
 30
0.0
 11
76.02053500000001
 21
841.7959999999998
 31
0.0
210
0.0
220
0.0
230
-1.0
  0
LINE
  5
10F9
330
1E
100
AcDbEntity
  8
0
100
AcDbLine
 10
76.349535
 20
848.6029999999999
 30
0.0
 11
75.805435
 21
848.2299999999998
 31
0.0
210
0.0
220
0.0
230
-1.0
  0
LINE
  5
10FA
330
1E
100
AcDbEntity
  8
0
100
AcDbLine
 10
76.274735
 20
847.2879999999999
 30
0.0
 11
75.763835
 21
847.6859999999998
 31
0.0
210
0.0
220
0.0
230
-1.0
  0
LINE
  5
10FB
330
1E
100
AcDbEntity
  8
0
100
AcDbLine
 10
77.09473500000001
 20
848.573
 30
0.0
 11
76.349535
 21
848.6029999999999
 31
0.0
210
0.0
220
0.0
230
-1.0
  0
LINE
  5
10FC
330
1E
100
AcDbEntity
  8
0
100
AcDbLine
 10
77.56393500000001
 20
847.6309999999999
 30
0.0
 11
77.019935
 21
847.2579999999998
 31
0.0
210
0.0
220
0.0
230
-1.0
  0
LINE
  5
10FD
330
1E
100
AcDbEntity
  8
0
100
AcDbLine
 10
77.605635
 20
848.1749999999999
 30
0.0
 11
77.56393500000001
 21
847.6309999999999
 31
0.0
210
0.0
220
0.0
230
-1.0
  0
LINE
  5
10FE
330
1E
100
AcDbEntity
  8
0
100
AcDbLine
 10
77.605635
 20
848.1749999999999
 30
0.0
 11
77.09473500000001
 21
848.573
 31
0.0
210
0.0
220
0.0
230
-1.0
  0
LINE
  5
10FF
330
1E
100
AcDbEntity
  8
0
100
AcDbLine
 10
77.019935
 20
847.2579999999998
 30
0.0
 11
76.274735
 21
847.2879999999999
 31
0.0
210
0.0
220
0.0
230
-1.0
  0
LINE
  5
1100
330
1E
100
AcDbEntity
  8
0
100
AcDbLine
 10
75.805435
 20
848.2299999999998
 30
0.0
 11
75.763835
 21
847.6859999999998
 31
0.0
210
0.0
220
0.0
230
-1.0
  0
LINE
  5
1101
330
1E
100
AcDbEntity
  8
0
100
AcDbLine
 10
83.49113500000001
 20
872.9549999999999
 30
0.0
 11
80.21783500000001
 21
872.574
 31
0.0
210
0.0
220
0.0
230
-1.0
  0
LINE
  5
1102
330
1E
100
AcDbEntity
  8
0
100
AcDbLine
 10
84.918835
 20
873.3549999999999
 30
0.0
 11
80.122335
 21
872.8389999999999
 31
0.0
210
0.0
220
0.0
230
-1.0
  0
LINE
  5
1103
330
1E
100
AcDbEntity
  8
0
100
AcDbLine
 10
86.790935
 20
873.179
 30
0.0
 11
83.49113500000001
 21
872.9549999999999
 31
0.0
210
0.0
220
0.0
230
-1.0
  0
LINE
  5
1104
330
1E
100
AcDbEntity
  8
0
100
AcDbLine
 10
80.21783500000001
 20
872.574
 30
0.0
 11
77.95163500000001
 21
872.2149999999999
 31
0.0
210
0.0
220
0.0
230
-1.0
  0
LINE
  5
1105
330
1E
100
AcDbEntity
  8
0
100
AcDbLine
 10
80.122335
 20
872.8389999999999
 30
0.0
 11
75.415435
 21
871.987
 31
0.0
210
0.0
220
0.0
230
-1.0
  0
LINE
  5
1106
330
1E
100
AcDbEntity
  8
0
100
AcDbLine
 10
77.95163500000001
 20
872.2149999999999
 30
0.0
 11
75.71103500000001
 21
871.7779999999999
 31
0.0
210
0.0
220
0.0
230
-1.0
  0
LINE
  5
1107
330
1E
100
AcDbEntity
  8
0
100
AcDbLine
 10
75.74038342346411
 20
863.0103041253109
 30
0.0
 11
75.54053500000001
 21
862.9739999999999
 31
0.0
210
0.0
220
0.0
230
-1.0
  0
LINE
  5
1108
330
1E
100
AcDbEntity
  8
0
100
AcDbLine
 10
70.75643500000001
 20
830.071
 30
0.0
 11
70.015335
 21
830.1359999999998
 31
0.0
210
0.0
220
0.0
230
-1.0
  0
LINE
  5
1109
330
1E
100
AcDbEntity
  8
0
100
AcDbLine
 10
70.51753500000001
 20
828.7659999999998
 30
0.0
 11
69.776435
 21
828.831
 31
0.0
210
0.0
220
0.0
230
-1.0
  0
LINE
  5
110A
330
1E
100
AcDbEntity
  8
0
100
AcDbLine
 10
70.75643500000001
 20
812.386
 30
0.0
 11
70.015335
 21
812.321
 31
0.0
210
0.0
220
0.0
230
-1.0
  0
LINE
  5
110B
330
1E
100
AcDbEntity
  8
0
100
AcDbLine
 10
70.51753500000001
 20
813.6909999999998
 30
0.0
 11
69.776435
 21
813.6259999999998
 31
0.0
210
0.0
220
0.0
230
-1.0
  0
LINE
  5
110C
330
1E
100
AcDbEntity
  8
0
100
AcDbLine
 10
72.18283500000001
 20
803.992
 30
0.0
 11
71.548535
 21
803.7039999999999
 31
0.0
210
0.0
220
0.0
230
-1.0
  0
LINE
  5
110D
330
1E
100
AcDbEntity
  8
0
100
AcDbLine
 10
72.51973500000001
 20
802.5959999999999
 30
0.0
 11
71.789135
 21
802.707
 31
0.0
210
0.0
220
0.0
230
-1.0
  0
LINE
  5
110E
330
1E
100
AcDbEntity
  8
0
100
AcDbLine
 10
73.306735
 20
803.4169999999999
 30
0.0
 11
73.15403500000001
 21
802.8829999999999
 31
0.0
210
0.0
220
0.0
230
-1.0
  0
LINE
  5
110F
330
1E
100
AcDbEntity
  8
0
100
AcDbLine
 10
73.306735
 20
803.4169999999999
 30
0.0
 11
72.913435
 21
803.88
 31
0.0
210
0.0
220
0.0
230
-1.0
  0
LINE
  5
1110
330
1E
100
AcDbEntity
  8
0
100
AcDbLine
 10
73.15403500000001
 20
802.8829999999999
 30
0.0
 11
72.51973500000001
 21
802.5959999999999
 31
0.0
210
0.0
220
0.0
230
-1.0
  0
LINE
  5
1111
330
1E
100
AcDbEntity
  8
0
100
AcDbLine
 10
72.913435
 20
803.88
 30
0.0
 11
72.18283500000001
 21
803.992
 31
0.0
210
0.0
220
0.0
230
-1.0
  0
LINE
  5
1112
330
1E
100
AcDbEntity
  8
0
100
AcDbLine
 10
71.548535
 20
803.7039999999999
 30
0.0
 11
71.395835
 21
803.171
 31
0.0
210
0.0
220
0.0
230
-1.0
  0
LINE
  5
1113
330
1E
100
AcDbEntity
  8
0
100
AcDbLine
 10
71.789135
 20
802.707
 30
0.0
 11
71.395835
 21
803.171
 31
0.0
210
0.0
220
0.0
230
-1.0
  0
LINE
  5
1114
330
1E
100
AcDbEntity
  8
0
100
AcDbLine
 10
71.203535
 20
812.822
 30
0.0
 11
70.75643500000001
 21
812.386
 31
0.0
210
0.0
220
0.0
230
-1.0
  0
LINE
  5
1115
330
1E
100
AcDbEntity
  8
0
100
AcDbLine
 10
71.203535
 20
812.822
 30
0.0
 11
71.115135
 21
813.3639999999999
 31
0.0
210
0.0
220
0.0
230
-1.0
  0
LINE
  5
1116
330
1E
100
AcDbEntity
  8
0
100
AcDbLine
 10
71.115135
 20
813.3639999999999
 30
0.0
 11
70.51753500000001
 21
813.6909999999998
 31
0.0
210
0.0
220
0.0
230
-1.0
  0
LINE
  5
1117
330
1E
100
AcDbEntity
  8
0
100
AcDbLine
 10
71.203535
 20
829.6339999999998
 30
0.0
 11
70.75643500000001
 21
830.071
 31
0.0
210
0.0
220
0.0
230
-1.0
  0
LINE
  5
1118
330
1E
100
AcDbEntity
  8
0
100
AcDbLine
 10
71.203535
 20
829.6339999999998
 30
0.0
 11
71.115135
 21
829.0929999999999
 31
0.0
210
0.0
220
0.0
230
-1.0
  0
LINE
  5
1119
330
1E
100
AcDbEntity
  8
0
100
AcDbLine
 10
71.203535
 20
829.6339999999998
 30
0.0
 11
71.203535
 21
829.8676574783339
 31
0.0
210
0.0
220
0.0
230
-1.0
  0
LINE
  5
111A
330
1E
100
AcDbEntity
  8
0
100
AcDbLine
 10
71.203535
 20
829.8676574783339
 30
0.0
 11
71.203535
 21
829.6339999999998
 31
0.0
210
0.0
220
0.0
230
-1.0
  0
LINE
  5
111B
330
1E
100
AcDbEntity
  8
0
100
AcDbLine
 10
71.115135
 20
829.0929999999999
 30
0.0
 11
70.51753500000001
 21
828.7659999999998
 31
0.0
210
0.0
220
0.0
230
-1.0
  0
LINE
  5
111C
330
1E
100
AcDbEntity
  8
0
100
AcDbLine
 10
68.29923500000001
 20
806.4869999999999
 30
0.0
 11
67.60623500000001
 21
806.2849999999999
 31
0.0
210
0.0
220
0.0
230
-1.0
  0
LINE
  5
111D
330
1E
100
AcDbEntity
  8
0
100
AcDbLine
 10
68.29923500000001
 20
805.0689999999999
 30
0.0
 11
67.60623500000001
 21
805.2719999999998
 31
0.0
210
0.0
220
0.0
230
-1.0
  0
LINE
  5
111E
330
1E
100
AcDbEntity
  8
0
100
AcDbLine
 10
69.269435
 20
805.7779999999999
 30
0.0
 11
68.99223500000001
 21
805.2719999999998
 31
0.0
210
0.0
220
0.0
230
-1.0
  0
LINE
  5
111F
330
1E
100
AcDbEntity
  8
0
100
AcDbLine
 10
69.269435
 20
805.7779999999999
 30
0.0
 11
68.99223500000001
 21
806.2849999999999
 31
0.0
210
0.0
220
0.0
230
-1.0
  0
LINE
  5
1120
330
1E
100
AcDbEntity
  8
0
100
AcDbLine
 10
68.99223500000001
 20
805.2719999999998
 30
0.0
 11
68.29923500000001
 21
805.0689999999999
 31
0.0
210
0.0
220
0.0
230
-1.0
  0
LINE
  5
1121
330
1E
100
AcDbEntity
  8
0
100
AcDbLine
 10
68.99223500000001
 20
806.2849999999999
 30
0.0
 11
68.29923500000001
 21
806.4869999999999
 31
0.0
210
0.0
220
0.0
230
-1.0
  0
LINE
  5
1122
330
1E
100
AcDbEntity
  8
0
100
AcDbLine
 10
69.417735
 20
812.648
 30
0.0
 11
69.329335
 21
813.189
 31
0.0
210
0.0
220
0.0
230
-1.0
  0
LINE
  5
1123
330
1E
100
AcDbEntity
  8
0
100
AcDbLine
 10
69.776435
 20
813.6259999999998
 30
0.0
 11
69.329335
 21
813.189
 31
0.0
210
0.0
220
0.0
230
-1.0
  0
LINE
  5
1124
330
1E
100
AcDbEntity
  8
0
100
AcDbLine
 10
70.015335
 20
812.321
 30
0.0
 11
69.417735
 21
812.648
 31
0.0
210
0.0
220
0.0
230
-1.0
  0
LINE
  5
1125
330
1E
100
AcDbEntity
  8
0
100
AcDbLine
 10
67.60623500000001
 20
806.2849999999999
 30
0.0
 11
67.32913500000001
 21
805.7779999999999
 31
0.0
210
0.0
220
0.0
230
-1.0
  0
LINE
  5
1126
330
1E
100
AcDbEntity
  8
0
100
AcDbLine
 10
67.60623500000001
 20
805.2719999999998
 30
0.0
 11
67.32913500000001
 21
805.7779999999999
 31
0.0
210
0.0
220
0.0
230
-1.0
  0
LINE
  5
1127
330
1E
100
AcDbEntity
  8
0
100
AcDbLine
 10
68.38783500000001
 20
824.4909999999999
 30
0.0
 11
67.76333500000001
 21
824.7889999999998
 31
0.0
210
0.0
220
0.0
230
-1.0
  0
LINE
  5
1128
330
1E
100
AcDbEntity
  8
0
100
AcDbLine
 10
68.55823500000001
 20
823.9599999999999
 30
0.0
 11
68.14963500000001
 21
823.503
 31
0.0
210
0.0
220
0.0
230
-1.0
  0
LINE
  5
1129
330
1E
100
AcDbEntity
  8
0
100
AcDbLine
 10
68.55823500000001
 20
818.4969999999999
 30
0.0
 11
68.14963500000001
 21
818.9529999999999
 31
0.0
210
0.0
220
0.0
230
-1.0
  0
LINE
  5
112A
330
1E
100
AcDbEntity
  8
0
100
AcDbLine
 10
68.38783500000001
 20
817.966
 30
0.0
 11
67.76333500000001
 21
817.6680000000001
 31
0.0
210
0.0
220
0.0
230
-1.0
  0
LINE
  5
112B
330
1E
100
AcDbEntity
  8
0
100
AcDbLine
 10
68.55823500000001
 20
823.9599999999999
 30
0.0
 11
68.38783500000001
 21
824.4909999999999
 31
0.0
210
0.0
220
0.0
230
-1.0
  0
LINE
  5
112C
330
1E
100
AcDbEntity
  8
0
100
AcDbLine
 10
68.55823500000001
 20
818.4969999999999
 30
0.0
 11
68.38783500000001
 21
817.966
 31
0.0
210
0.0
220
0.0
230
-1.0
  0
LINE
  5
112D
330
1E
100
AcDbEntity
  8
0
100
AcDbLine
 10
70.015335
 20
830.1359999999998
 30
0.0
 11
70.015335
 21
830.2098836594909
 31
0.0
210
0.0
220
0.0
230
-1.0
  0
LINE
  5
112E
330
1E
100
AcDbEntity
  8
0
100
AcDbLine
 10
70.015335
 20
830.1359999999998
 30
0.0
 11
69.417735
 21
829.809
 31
0.0
210
0.0
220
0.0
230
-1.0
  0
LINE
  5
112F
330
1E
100
AcDbEntity
  8
0
100
AcDbLine
 10
70.015335
 20
830.2098836594909
 30
0.0
 11
70.015335
 21
830.1359999999998
 31
0.0
210
0.0
220
0.0
230
-1.0
  0
LINE
  5
1130
330
1E
100
AcDbEntity
  8
0
100
AcDbLine
 10
69.417735
 20
829.809
 30
0.0
 11
69.329335
 21
829.2669999999999
 31
0.0
210
0.0
220
0.0
230
-1.0
  0
LINE
  5
1131
330
1E
100
AcDbEntity
  8
0
100
AcDbLine
 10
69.776435
 20
828.831
 30
0.0
 11
69.329335
 21
829.2669999999999
 31
0.0
210
0.0
220
0.0
230
-1.0
  0
LINE
  5
1132
330
1E
100
AcDbEntity
  8
0
100
AcDbLine
 10
67.036735
 20
824.6649999999998
 30
0.0
 11
66.62803500000001
 21
824.2079999999999
 31
0.0
210
0.0
220
0.0
230
-1.0
  0
LINE
  5
1133
330
1E
100
AcDbEntity
  8
0
100
AcDbLine
 10
67.42303500000002
 20
823.379
 30
0.0
 11
66.79843500000001
 21
823.6769999999999
 31
0.0
210
0.0
220
0.0
230
-1.0
  0
LINE
  5
1134
330
1E
100
AcDbEntity
  8
0
100
AcDbLine
 10
67.42303500000002
 20
819.0779999999998
 30
0.0
 11
66.79843500000001
 21
818.7789999999999
 31
0.0
210
0.0
220
0.0
230
-1.0
  0
LINE
  5
1135
330
1E
100
AcDbEntity
  8
0
100
AcDbLine
 10
67.76333500000001
 20
817.6680000000001
 30
0.0
 11
67.036735
 21
817.792
 31
0.0
210
0.0
220
0.0
230
-1.0
  0
LINE
  5
1136
330
1E
100
AcDbEntity
  8
0
100
AcDbLine
 10
68.14963500000001
 20
823.503
 30
0.0
 11
67.42303500000002
 21
823.379
 31
0.0
210
0.0
220
0.0
230
-1.0
  0
LINE
  5
1137
330
1E
100
AcDbEntity
  8
0
100
AcDbLine
 10
68.14963500000001
 20
818.9529999999999
 30
0.0
 11
67.42303500000002
 21
819.0779999999998
 31
0.0
210
0.0
220
0.0
230
-1.0
  0
LINE
  5
1138
330
1E
100
AcDbEntity
  8
0
100
AcDbLine
 10
66.79843500000001
 20
823.6769999999999
 30
0.0
 11
66.62803500000001
 21
824.2079999999999
 31
0.0
210
0.0
220
0.0
230
-1.0
  0
LINE
  5
1139
330
1E
100
AcDbEntity
  8
0
100
AcDbLine
 10
67.036735
 20
817.792
 30
0.0
 11
66.62803500000001
 21
818.2479999999999
 31
0.0
210
0.0
220
0.0
230
-1.0
  0
LINE
  5
113A
330
1E
100
AcDbEntity
  8
0
100
AcDbLine
 10
66.79843500000001
 20
818.7789999999999
 30
0.0
 11
66.62803500000001
 21
818.2479999999999
 31
0.0
210
0.0
220
0.0
230
-1.0
  0
LINE
  5
113B
330
1E
100
AcDbEntity
  8
0
100
AcDbLine
 10
67.76333500000001
 20
824.7889999999998
 30
0.0
 11
67.036735
 21
824.6649999999998
 31
0.0
210
0.0
220
0.0
230
-1.0
  0
LINE
  5
113C
330
1E
100
AcDbEntity
  8
0
100
AcDbLine
 10
70.897835
 20
846.5579999999999
 30
0.0
 11
70.15673500000001
 21
846.4929999999998
 31
0.0
210
0.0
220
0.0
230
-1.0
  0
LINE
  5
113D
330
1E
100
AcDbEntity
  8
0
100
AcDbLine
 10
70.39563500000001
 20
845.1879999999999
 30
0.0
 11
69.79803500000001
 21
845.5149999999999
 31
0.0
210
0.0
220
0.0
230
-1.0
  0
LINE
  5
113E
330
1E
100
AcDbEntity
  8
0
100
AcDbLine
 10
72.51973500000001
 20
840.319
 30
0.0
 11
71.789135
 21
840.2079999999999
 31
0.0
210
0.0
220
0.0
230
-1.0
  0
LINE
  5
113F
330
1E
100
AcDbEntity
  8
0
100
AcDbLine
 10
72.18283500000001
 20
838.9229999999999
 30
0.0
 11
71.548535
 21
839.2099999999999
 31
0.0
210
0.0
220
0.0
230
-1.0
  0
LINE
  5
1140
330
1E
100
AcDbEntity
  8
0
100
AcDbLine
 10
73.306735
 20
839.498
 30
0.0
 11
72.913435
 21
839.034
 31
0.0
210
0.0
220
0.0
230
-1.0
  0
LINE
  5
1141
330
1E
100
AcDbEntity
  8
0
100
AcDbLine
 10
72.913435
 20
839.034
 30
0.0
 11
72.18283500000001
 21
838.9229999999999
 31
0.0
210
0.0
220
0.0
230
-1.0
  0
LINE
  5
1142
330
1E
100
AcDbEntity
  8
0
100
AcDbLine
 10
73.306735
 20
839.498
 30
0.0
 11
73.15403500000001
 21
840.0319999999998
 31
0.0
210
0.0
220
0.0
230
-1.0
  0
LINE
  5
1143
330
1E
100
AcDbEntity
  8
0
100
AcDbLine
 10
73.15403500000001
 20
840.0319999999998
 30
0.0
 11
72.51973500000001
 21
840.319
 31
0.0
210
0.0
220
0.0
230
-1.0
  0
LINE
  5
1144
330
1E
100
AcDbEntity
  8
0
100
AcDbLine
 10
71.495435
 20
846.2309999999998
 30
0.0
 11
70.897835
 21
846.5579999999999
 31
0.0
210
0.0
220
0.0
230
-1.0
  0
LINE
  5
1145
330
1E
100
AcDbEntity
  8
0
100
AcDbLine
 10
71.58383500000001
 20
845.6899999999999
 30
0.0
 11
71.136735
 21
845.2529999999999
 31
0.0
210
0.0
220
0.0
230
-1.0
  0
LINE
  5
1146
330
1E
100
AcDbEntity
  8
0
100
AcDbLine
 10
71.58383500000001
 20
845.6899999999999
 30
0.0
 11
71.495435
 21
846.2309999999998
 31
0.0
210
0.0
220
0.0
230
-1.0
  0
LINE
  5
1147
330
1E
100
AcDbEntity
  8
0
100
AcDbLine
 10
71.789135
 20
840.2079999999999
 30
0.0
 11
71.395835
 21
839.7439999999999
 31
0.0
210
0.0
220
0.0
230
-1.0
  0
LINE
  5
1148
330
1E
100
AcDbEntity
  8
0
100
AcDbLine
 10
71.548535
 20
839.2099999999999
 30
0.0
 11
71.395835
 21
839.7439999999999
 31
0.0
210
0.0
220
0.0
230
-1.0
  0
LINE
  5
1149
330
1E
100
AcDbEntity
  8
0
100
AcDbLine
 10
71.136735
 20
845.2529999999999
 30
0.0
 11
70.39563500000001
 21
845.1879999999999
 31
0.0
210
0.0
220
0.0
230
-1.0
  0
LINE
  5
114A
330
1E
100
AcDbEntity
  8
0
100
AcDbLine
 10
68.29923500000001
 20
837.8459999999998
 30
0.0
 11
67.60623500000001
 21
837.6429999999999
 31
0.0
210
0.0
220
0.0
230
-1.0
  0
LINE
  5
114B
330
1E
100
AcDbEntity
  8
0
100
AcDbLine
 10
68.29923500000001
 20
836.428
 30
0.0
 11
67.60623500000001
 21
836.63
 31
0.0
210
0.0
220
0.0
230
-1.0
  0
LINE
  5
114C
330
1E
100
AcDbEntity
  8
0
100
AcDbLine
 10
69.269435
 20
837.1369999999998
 30
0.0
 11
68.99223500000001
 21
837.6429999999999
 31
0.0
210
0.0
220
0.0
230
-1.0
  0
LINE
  5
114D
330
1E
100
AcDbEntity
  8
0
100
AcDbLine
 10
69.269435
 20
837.1369999999998
 30
0.0
 11
68.99223500000001
 21
836.63
 31
0.0
210
0.0
220
0.0
230
-1.0
  0
LINE
  5
114E
330
1E
100
AcDbEntity
  8
0
100
AcDbLine
 10
68.99223500000001
 20
837.6429999999999
 30
0.0
 11
68.29923500000001
 21
837.8459999999998
 31
0.0
210
0.0
220
0.0
230
-1.0
  0
LINE
  5
114F
330
1E
100
AcDbEntity
  8
0
100
AcDbLine
 10
68.99223500000001
 20
836.63
 30
0.0
 11
68.29923500000001
 21
836.428
 31
0.0
210
0.0
220
0.0
230
-1.0
  0
LINE
  5
1150
330
1E
100
AcDbEntity
  8
0
100
AcDbLine
 10
70.15673500000001
 20
846.4929999999998
 30
0.0
 11
69.709635
 21
846.0569999999998
 31
0.0
210
0.0
220
0.0
230
-1.0
  0
LINE
  5
1151
330
1E
100
AcDbEntity
  8
0
100
AcDbLine
 10
69.79803500000001
 20
845.5149999999999
 30
0.0
 11
69.709635
 21
846.0569999999998
 31
0.0
210
0.0
220
0.0
230
-1.0
  0
LINE
  5
1152
330
1E
100
AcDbEntity
  8
0
100
AcDbLine
 10
67.60623500000001
 20
837.6429999999999
 30
0.0
 11
67.32913500000001
 21
837.1369999999998
 31
0.0
210
0.0
220
0.0
230
-1.0
  0
LINE
  5
1153
330
1E
100
AcDbEntity
  8
0
100
AcDbLine
 10
67.60623500000001
 20
836.63
 30
0.0
 11
67.32913500000001
 21
837.1369999999998
 31
0.0
210
0.0
220
0.0
230
-1.0
  0
LINE
  5
1154
330
1E
100
AcDbEntity
  8
0
100
AcDbLine
 10
62.668535
 20
831.4769999999999
 30
0.0
 11
61.92253500000001
 21
831.4949999999999
 31
0.0
210
0.0
220
0.0
230
-1.0
  0
LINE
  5
1155
330
1E
100
AcDbEntity
  8
0
100
AcDbLine
 10
62.586235
 20
830.1619999999999
 30
0.0
 11
61.84023500000001
 21
830.179
 31
0.0
210
0.0
220
0.0
230
-1.0
  0
LINE
  5
1156
330
1E
100
AcDbEntity
  8
0
100
AcDbLine
 10
62.668535
 20
811.437
 30
0.0
 11
61.92253500000001
 21
811.42
 31
0.0
210
0.0
220
0.0
230
-1.0
  0
LINE
  5
1157
330
1E
100
AcDbEntity
  8
0
100
AcDbLine
 10
62.586235
 20
812.753
 30
0.0
 11
61.84023500000001
 21
812.7349999999999
 31
0.0
210
0.0
220
0.0
230
-1.0
  0
LINE
  5
1158
330
1E
100
AcDbEntity
  8
0
100
AcDbLine
 10
65.06763500000001
 20
809.4369999999999
 30
0.0
 11
64.337035
 21
809.3259999999999
 31
0.0
210
0.0
220
0.0
230
-1.0
  0
LINE
  5
1159
330
1E
100
AcDbEntity
  8
0
100
AcDbLine
 10
64.73073499999999
 20
808.0409999999998
 30
0.0
 11
64.096435
 21
808.3279999999998
 31
0.0
210
0.0
220
0.0
230
-1.0
  0
LINE
  5
115A
330
1E
100
AcDbEntity
  8
0
100
AcDbLine
 10
65.70193500000001
 20
809.1499999999999
 30
0.0
 11
65.06763500000001
 21
809.4369999999999
 31
0.0
210
0.0
220
0.0
230
-1.0
  0
LINE
  5
115B
330
1E
100
AcDbEntity
  8
0
100
AcDbLine
 10
65.461235
 20
808.1519999999999
 30
0.0
 11
64.73073499999999
 21
808.0409999999998
 31
0.0
210
0.0
220
0.0
230
-1.0
  0
LINE
  5
115C
330
1E
100
AcDbEntity
  8
0
100
AcDbLine
 10
65.85453500000001
 20
808.6159999999999
 30
0.0
 11
65.461235
 21
808.1519999999999
 31
0.0
210
0.0
220
0.0
230
-1.0
  0
LINE
  5
115D
330
1E
100
AcDbEntity
  8
0
100
AcDbLine
 10
65.85453500000001
 20
808.6159999999999
 30
0.0
 11
65.70193500000001
 21
809.1499999999999
 31
0.0
210
0.0
220
0.0
230
-1.0
  0
LINE
  5
115E
330
1E
100
AcDbEntity
  8
0
100
AcDbLine
 10
64.096435
 20
808.3279999999998
 30
0.0
 11
63.943735
 21
808.862
 31
0.0
210
0.0
220
0.0
230
-1.0
  0
LINE
  5
115F
330
1E
100
AcDbEntity
  8
0
100
AcDbLine
 10
64.337035
 20
809.3259999999999
 30
0.0
 11
63.943735
 21
808.862
 31
0.0
210
0.0
220
0.0
230
-1.0
  0
LINE
  5
1160
330
1E
100
AcDbEntity
  8
0
100
AcDbLine
 10
63.14253500000001
 20
812.3889999999999
 30
0.0
 11
62.586235
 21
812.753
 31
0.0
210
0.0
220
0.0
230
-1.0
  0
LINE
  5
1161
330
1E
100
AcDbEntity
  8
0
100
AcDbLine
 10
63.16603500000001
 20
811.8439999999999
 30
0.0
 11
62.668535
 21
811.437
 31
0.0
210
0.0
220
0.0
230
-1.0
  0
LINE
  5
1162
330
1E
100
AcDbEntity
  8
0
100
AcDbLine
 10
63.16603500000001
 20
811.8439999999999
 30
0.0
 11
63.14253500000001
 21
812.3889999999999
 31
0.0
210
0.0
220
0.0
230
-1.0
  0
LINE
  5
1163
330
1E
100
AcDbEntity
  8
0
100
AcDbLine
 10
63.16603500000001
 20
831.071
 30
0.0
 11
62.668535
 21
831.4769999999999
 31
0.0
210
0.0
220
0.0
230
-1.0
  0
LINE
  5
1164
330
1E
100
AcDbEntity
  8
0
100
AcDbLine
 10
63.16603500000001
 20
831.071
 30
0.0
 11
63.14253500000001
 21
830.526
 31
0.0
210
0.0
220
0.0
230
-1.0
  0
LINE
  5
1165
330
1E
100
AcDbEntity
  8
0
100
AcDbLine
 10
63.14253500000001
 20
830.526
 30
0.0
 11
62.586235
 21
830.1619999999999
 31
0.0
210
0.0
220
0.0
230
-1.0
  0
LINE
  5
1166
330
1E
100
AcDbEntity
  8
0
100
AcDbLine
 10
61.108435
 20
803.1869999999999
 30
0.0
 11
60.39393500000001
 21
803.0289999999999
 31
0.0
210
0.0
220
0.0
230
-1.0
  0
LINE
  5
1167
330
1E
100
AcDbEntity
  8
0
100
AcDbLine
 10
60.563035
 20
804.4419999999998
 30
0.0
 11
59.84853500000001
 21
804.2839999999999
 31
0.0
210
0.0
220
0.0
230
-1.0
  0
LINE
  5
1168
330
1E
100
AcDbEntity
  8
0
100
AcDbLine
 10
60.698935
 20
815.0269999999999
 30
0.0
 11
59.960135
 21
815.104
 31
0.0
210
0.0
220
0.0
230
-1.0
  0
LINE
  5
1169
330
1E
100
AcDbEntity
  8
0
100
AcDbLine
 10
60.930335
 20
816.332
 30
0.0
 11
60.19163500000001
 21
816.4099999999999
 31
0.0
210
0.0
220
0.0
230
-1.0
  0
LINE
  5
116A
330
1E
100
AcDbEntity
  8
0
100
AcDbLine
 10
61.444935
 20
803.6739999999998
 30
0.0
 11
61.108435
 21
803.1869999999999
 31
0.0
210
0.0
220
0.0
230
-1.0
  0
LINE
  5
116B
330
1E
100
AcDbEntity
  8
0
100
AcDbLine
 10
61.444935
 20
803.6739999999998
 30
0.0
 11
61.229235
 21
804.1959999999999
 31
0.0
210
0.0
220
0.0
230
-1.0
  0
LINE
  5
116C
330
1E
100
AcDbEntity
  8
0
100
AcDbLine
 10
61.229235
 20
804.1959999999999
 30
0.0
 11
60.563035
 21
804.4419999999998
 31
0.0
210
0.0
220
0.0
230
-1.0
  0
LINE
  5
116D
330
1E
100
AcDbEntity
  8
0
100
AcDbLine
 10
61.92253500000001
 20
811.42
 30
0.0
 11
61.366235
 21
811.7839999999999
 31
0.0
210
0.0
220
0.0
230
-1.0
  0
LINE
  5
116E
330
1E
100
AcDbEntity
  8
0
100
AcDbLine
 10
61.84023500000001
 20
812.7349999999999
 30
0.0
 11
61.342735
 21
812.3289999999999
 31
0.0
210
0.0
220
0.0
230
-1.0
  0
LINE
  5
116F
330
1E
100
AcDbEntity
  8
0
100
AcDbLine
 10
61.391835
 20
815.9039999999999
 30
0.0
 11
61.28543500000001
 21
815.3639999999999
 31
0.0
210
0.0
220
0.0
230
-1.0
  0
LINE
  5
1170
330
1E
100
AcDbEntity
  8
0
100
AcDbLine
 10
61.391835
 20
815.9039999999999
 30
0.0
 11
60.930335
 21
816.332
 31
0.0
210
0.0
220
0.0
230
-1.0
  0
LINE
  5
1171
330
1E
100
AcDbEntity
  8
0
100
AcDbLine
 10
61.28543500000001
 20
815.3639999999999
 30
0.0
 11
60.698935
 21
815.0269999999999
 31
0.0
210
0.0
220
0.0
230
-1.0
  0
LINE
  5
1172
330
1E
100
AcDbEntity
  8
0
100
AcDbLine
 10
61.366235
 20
811.7839999999999
 30
0.0
 11
61.342735
 21
812.3289999999999
 31
0.0
210
0.0
220
0.0
230
-1.0
  0
LINE
  5
1173
330
1E
100
AcDbEntity
  8
0
100
AcDbLine
 10
59.72783500000002
 20
803.275
 30
0.0
 11
59.51203500000001
 21
803.7969999999999
 31
0.0
210
0.0
220
0.0
230
-1.0
  0
LINE
  5
1174
330
1E
100
AcDbEntity
  8
0
100
AcDbLine
 10
59.84853500000001
 20
804.2839999999999
 30
0.0
 11
59.51203500000001
 21
803.7969999999999
 31
0.0
210
0.0
220
0.0
230
-1.0
  0
LINE
  5
1175
330
1E
100
AcDbEntity
  8
0
100
AcDbLine
 10
60.39393500000001
 20
803.0289999999999
 30
0.0
 11
59.72783500000002
 21
803.275
 31
0.0
210
0.0
220
0.0
230
-1.0
  0
LINE
  5
1176
330
1E
100
AcDbEntity
  8
0
100
AcDbLine
 10
59.605035
 20
816.0729999999999
 30
0.0
 11
59.605035
 21
816.1679135155949
 31
0.0
210
0.0
220
0.0
230
-1.0
  0
LINE
  5
1177
330
1E
100
AcDbEntity
  8
0
100
AcDbLine
 10
59.605035
 20
816.0729999999999
 30
0.0
 11
59.49863500000001
 21
815.5330000000001
 31
0.0
210
0.0
220
0.0
230
-1.0
  0
LINE
  5
1178
330
1E
100
AcDbEntity
  8
0
100
AcDbLine
 10
59.605035
 20
816.1679135155949
 30
0.0
 11
59.605035
 21
816.0729999999999
 31
0.0
210
0.0
220
0.0
230
-1.0
  0
LINE
  5
1179
330
1E
100
AcDbEntity
  8
0
100
AcDbLine
 10
59.960135
 20
815.104
 30
0.0
 11
59.49863500000001
 21
815.5330000000001
 31
0.0
210
0.0
220
0.0
230
-1.0
  0
LINE
  5
117A
330
1E
100
AcDbEntity
  8
0
100
AcDbLine
 10
60.19163500000001
 20
816.4099999999999
 30
0.0
 11
59.605035
 21
816.0729999999999
 31
0.0
210
0.0
220
0.0
230
-1.0
  0
LINE
  5
117B
330
1E
100
AcDbEntity
  8
0
100
AcDbLine
 10
60.698935
 20
827.8879999999999
 30
0.0
 11
59.960135
 21
827.81
 31
0.0
210
0.0
220
0.0
230
-1.0
  0
LINE
  5
117C
330
1E
100
AcDbEntity
  8
0
100
AcDbLine
 10
60.930335
 20
826.5819999999999
 30
0.0
 11
60.19163500000001
 21
826.505
 31
0.0
210
0.0
220
0.0
230
-1.0
  0
LINE
  5
117D
330
1E
100
AcDbEntity
  8
0
100
AcDbLine
 10
60.50303500000001
 20
823.3279999999998
 30
0.0
 11
60.269935
 21
823.8459999999999
 31
0.0
210
0.0
220
0.0
230
-1.0
  0
LINE
  5
117E
330
1E
100
AcDbEntity
  8
0
100
AcDbLine
 10
60.50303500000001
 20
823.3279999999998
 30
0.0
 11
60.15033500000001
 21
822.8469999999997
 31
0.0
210
0.0
220
0.0
230
-1.0
  0
LINE
  5
117F
330
1E
100
AcDbEntity
  8
0
100
AcDbLine
 10
60.50303500000001
 20
819.5869999999999
 30
0.0
 11
60.15033500000001
 21
820.0679999999998
 31
0.0
210
0.0
220
0.0
230
-1.0
  0
LINE
  5
1180
330
1E
100
AcDbEntity
  8
0
100
AcDbLine
 10
60.50303500000001
 20
819.5869999999999
 30
0.0
 11
60.269935
 21
819.069
 31
0.0
210
0.0
220
0.0
230
-1.0
  0
LINE
  5
1181
330
1E
100
AcDbEntity
  8
0
100
AcDbLine
 10
61.92253500000001
 20
831.4949999999999
 30
0.0
 11
61.366235
 21
831.131
 31
0.0
210
0.0
220
0.0
230
-1.0
  0
LINE
  5
1182
330
1E
100
AcDbEntity
  8
0
100
AcDbLine
 10
61.84023500000001
 20
830.179
 30
0.0
 11
61.342735
 21
830.5859999999999
 31
0.0
210
0.0
220
0.0
230
-1.0
  0
LINE
  5
1183
330
1E
100
AcDbEntity
  8
0
100
AcDbLine
 10
61.366235
 20
831.131
 30
0.0
 11
61.342735
 21
830.5859999999999
 31
0.0
210
0.0
220
0.0
230
-1.0
  0
LINE
  5
1184
330
1E
100
AcDbEntity
  8
0
100
AcDbLine
 10
61.28543500000001
 20
827.5509999999998
 30
0.0
 11
60.698935
 21
827.8879999999999
 31
0.0
210
0.0
220
0.0
230
-1.0
  0
LINE
  5
1185
330
1E
100
AcDbEntity
  8
0
100
AcDbLine
 10
61.391835
 20
827.0109999999998
 30
0.0
 11
61.28543500000001
 21
827.5509999999998
 31
0.0
210
0.0
220
0.0
230
-1.0
  0
LINE
  5
1186
330
1E
100
AcDbEntity
  8
0
100
AcDbLine
 10
61.391835
 20
827.0109999999998
 30
0.0
 11
60.930335
 21
826.5819999999999
 31
0.0
210
0.0
220
0.0
230
-1.0
  0
LINE
  5
1187
330
1E
100
AcDbEntity
  8
0
100
AcDbLine
 10
59.61213500000001
 20
824.103
 30
0.0
 11
58.90313500000001
 21
823.9329999999998
 31
0.0
210
0.0
220
0.0
230
-1.0
  0
LINE
  5
1188
330
1E
100
AcDbEntity
  8
0
100
AcDbLine
 10
60.15033500000001
 20
822.8469999999997
 30
0.0
 11
59.44133500000001
 21
822.677
 31
0.0
210
0.0
220
0.0
230
-1.0
  0
LINE
  5
1189
330
1E
100
AcDbEntity
  8
0
100
AcDbLine
 10
60.15033500000001
 20
820.0679999999998
 30
0.0
 11
59.44133500000001
 21
820.2379999999999
 31
0.0
210
0.0
220
0.0
230
-1.0
  0
LINE
  5
118A
330
1E
100
AcDbEntity
  8
0
100
AcDbLine
 10
59.61213500000001
 20
818.8109999999999
 30
0.0
 11
58.90313500000001
 21
818.9819999999999
 31
0.0
210
0.0
220
0.0
230
-1.0
  0
LINE
  5
118B
330
1E
100
AcDbEntity
  8
0
100
AcDbLine
 10
60.269935
 20
823.8459999999999
 30
0.0
 11
59.61213500000001
 21
824.103
 31
0.0
210
0.0
220
0.0
230
-1.0
  0
LINE
  5
118C
330
1E
100
AcDbEntity
  8
0
100
AcDbLine
 10
60.269935
 20
819.069
 30
0.0
 11
59.61213500000001
 21
818.8109999999999
 31
0.0
210
0.0
220
0.0
230
-1.0
  0
LINE
  5
118D
330
1E
100
AcDbEntity
  8
0
100
AcDbLine
 10
58.90313500000001
 20
823.9329999999998
 30
0.0
 11
58.550435
 21
823.4519999999999
 31
0.0
210
0.0
220
0.0
230
-1.0
  0
LINE
  5
118E
330
1E
100
AcDbEntity
  8
0
100
AcDbLine
 10
58.783535
 20
822.934
 30
0.0
 11
58.550435
 21
823.4519999999999
 31
0.0
210
0.0
220
0.0
230
-1.0
  0
LINE
  5
118F
330
1E
100
AcDbEntity
  8
0
100
AcDbLine
 10
59.44133500000001
 20
822.677
 30
0.0
 11
58.783535
 21
822.934
 31
0.0
210
0.0
220
0.0
230
-1.0
  0
LINE
  5
1190
330
1E
100
AcDbEntity
  8
0
100
AcDbLine
 10
59.44133500000001
 20
820.2379999999999
 30
0.0
 11
58.783535
 21
819.9809999999999
 31
0.0
210
0.0
220
0.0
230
-1.0
  0
LINE
  5
1191
330
1E
100
AcDbEntity
  8
0
100
AcDbLine
 10
58.783535
 20
819.9809999999999
 30
0.0
 11
58.550435
 21
819.4619999999998
 31
0.0
210
0.0
220
0.0
230
-1.0
  0
LINE
  5
1192
330
1E
100
AcDbEntity
  8
0
100
AcDbLine
 10
58.90313500000001
 20
818.9819999999999
 30
0.0
 11
58.550435
 21
819.4619999999998
 31
0.0
210
0.0
220
0.0
230
-1.0
  0
LINE
  5
1193
330
1E
100
AcDbEntity
  8
0
100
AcDbLine
 10
58.550435
 20
819.5156241203379
 30
0.0
 11
58.550435
 21
819.4619999999998
 31
0.0
210
0.0
220
0.0
230
-1.0
  0
LINE
  5
1194
330
1E
100
AcDbEntity
  8
0
100
AcDbLine
 10
58.550435
 20
819.4619999999998
 30
0.0
 11
58.550435
 21
819.5156241203379
 31
0.0
210
0.0
220
0.0
230
-1.0
  0
LINE
  5
1195
330
1E
100
AcDbEntity
  8
0
100
AcDbLine
 10
59.960135
 20
827.81
 30
0.0
 11
59.49863500000001
 21
827.3819999999998
 31
0.0
210
0.0
220
0.0
230
-1.0
  0
LINE
  5
1196
330
1E
100
AcDbEntity
  8
0
100
AcDbLine
 10
59.605035
 20
826.842
 30
0.0
 11
59.49863500000001
 21
827.3819999999998
 31
0.0
210
0.0
220
0.0
230
-1.0
  0
LINE
  5
1197
330
1E
100
AcDbEntity
  8
0
100
AcDbLine
 10
60.19163500000001
 20
826.505
 30
0.0
 11
59.605035
 21
826.842
 31
0.0
210
0.0
220
0.0
230
-1.0
  0
LINE
  5
1198
330
1E
100
AcDbEntity
  8
0
100
AcDbLine
 10
64.559435
 20
843.6299999999999
 30
0.0
 11
64.22293500000001
 21
843.1429999999998
 31
0.0
210
0.0
220
0.0
230
-1.0
  0
LINE
  5
1199
330
1E
100
AcDbEntity
  8
0
100
AcDbLine
 10
64.438635
 20
842.6209999999999
 30
0.0
 11
64.22293500000001
 21
843.1429999999998
 31
0.0
210
0.0
220
0.0
230
-1.0
  0
LINE
  5
119A
330
1E
100
AcDbEntity
  8
0
100
AcDbLine
 10
64.73073499999999
 20
834.8739999999999
 30
0.0
 11
64.096435
 21
834.5859999999998
 31
0.0
210
0.0
220
0.0
230
-1.0
  0
LINE
  5
119B
330
1E
100
AcDbEntity
  8
0
100
AcDbLine
 10
65.06763500000001
 20
833.478
 30
0.0
 11
64.337035
 21
833.5889999999999
 31
0.0
210
0.0
220
0.0
230
-1.0
  0
LINE
  5
119C
330
1E
100
AcDbEntity
  8
0
100
AcDbLine
 10
65.461235
 20
834.7619999999999
 30
0.0
 11
64.73073499999999
 21
834.8739999999999
 31
0.0
210
0.0
220
0.0
230
-1.0
  0
LINE
  5
119D
330
1E
100
AcDbEntity
  8
0
100
AcDbLine
 10
65.70193500000001
 20
833.765
 30
0.0
 11
65.06763500000001
 21
833.478
 31
0.0
210
0.0
220
0.0
230
-1.0
  0
LINE
  5
119E
330
1E
100
AcDbEntity
  8
0
100
AcDbLine
 10
65.85453500000001
 20
834.2989999999998
 30
0.0
 11
65.461235
 21
834.7619999999999
 31
0.0
210
0.0
220
0.0
230
-1.0
  0
LINE
  5
119F
330
1E
100
AcDbEntity
  8
0
100
AcDbLine
 10
65.85453500000001
 20
834.2989999999998
 30
0.0
 11
65.70193500000001
 21
833.765
 31
0.0
210
0.0
220
0.0
230
-1.0
  0
LINE
  5
11A0
330
1E
100
AcDbEntity
  8
0
100
AcDbLine
 10
65.94013500000001
 20
843.5409999999999
 30
0.0
 11
65.27393500000001
 21
843.787
 31
0.0
210
0.0
220
0.0
230
-1.0
  0
LINE
  5
11A1
330
1E
100
AcDbEntity
  8
0
100
AcDbLine
 10
65.81933500000001
 20
842.5319999999999
 30
0.0
 11
65.10483500000001
 21
842.3749999999998
 31
0.0
210
0.0
220
0.0
230
-1.0
  0
LINE
  5
11A2
330
1E
100
AcDbEntity
  8
0
100
AcDbLine
 10
66.15583500000001
 20
843.0189999999999
 30
0.0
 11
65.94013500000001
 21
843.5409999999999
 31
0.0
210
0.0
220
0.0
230
-1.0
  0
LINE
  5
11A3
330
1E
100
AcDbEntity
  8
0
100
AcDbLine
 10
66.15583500000001
 20
843.0189999999999
 30
0.0
 11
65.81933500000001
 21
842.5319999999999
 31
0.0
210
0.0
220
0.0
230
-1.0
  0
LINE
  5
11A4
330
1E
100
AcDbEntity
  8
0
100
AcDbLine
 10
65.27393500000001
 20
843.787
 30
0.0
 11
64.559435
 21
843.6299999999999
 31
0.0
210
0.0
220
0.0
230
-1.0
  0
LINE
  5
11A5
330
1E
100
AcDbEntity
  8
0
100
AcDbLine
 10
65.10483500000001
 20
842.3749999999998
 30
0.0
 11
64.438635
 21
842.6209999999999
 31
0.0
210
0.0
220
0.0
230
-1.0
  0
LINE
  5
11A6
330
1E
100
AcDbEntity
  8
0
100
AcDbLine
 10
64.096435
 20
834.5859999999998
 30
0.0
 11
63.943735
 21
834.0529999999999
 31
0.0
210
0.0
220
0.0
230
-1.0
  0
LINE
  5
11A7
330
1E
100
AcDbEntity
  8
0
100
AcDbLine
 10
64.337035
 20
833.5889999999999
 30
0.0
 11
63.943735
 21
834.0529999999999
 31
0.0
210
0.0
220
0.0
230
-1.0
  0
LINE
  5
11A8
330
1E
100
AcDbEntity
  8
0
100
AcDbLine
 10
61.108435
 20
840.187
 30
0.0
 11
60.39393500000001
 21
840.3449999999999
 31
0.0
210
0.0
220
0.0
230
-1.0
  0
LINE
  5
11A9
330
1E
100
AcDbEntity
  8
0
100
AcDbLine
 10
60.563035
 20
838.9319999999999
 30
0.0
 11
59.84853500000001
 21
839.0899999999998
 31
0.0
210
0.0
220
0.0
230
-1.0
  0
LINE
  5
11AA
330
1E
100
AcDbEntity
  8
0
100
AcDbLine
 10
61.444935
 20
839.7
 30
0.0
 11
61.229235
 21
839.178
 31
0.0
210
0.0
220
0.0
230
-1.0
  0
LINE
  5
11AB
330
1E
100
AcDbEntity
  8
0
100
AcDbLine
 10
61.229235
 20
839.178
 30
0.0
 11
60.563035
 21
838.9319999999999
 31
0.0
210
0.0
220
0.0
230
-1.0
  0
LINE
  5
11AC
330
1E
100
AcDbEntity
  8
0
100
AcDbLine
 10
61.444935
 20
839.7
 30
0.0
 11
61.108435
 21
840.187
 31
0.0
210
0.0
220
0.0
230
-1.0
  0
LINE
  5
11AD
330
1E
100
AcDbEntity
  8
0
100
AcDbLine
 10
59.84853500000001
 20
839.0899999999998
 30
0.0
 11
59.51203500000001
 21
839.5769999999998
 31
0.0
210
0.0
220
0.0
230
-1.0
  0
LINE
  5
11AE
330
1E
100
AcDbEntity
  8
0
100
AcDbLine
 10
60.39393500000001
 20
840.3449999999999
 30
0.0
 11
59.72783500000002
 21
840.099
 31
0.0
210
0.0
220
0.0
230
-1.0
  0
LINE
  5
11AF
330
1E
100
AcDbEntity
  8
0
100
AcDbLine
 10
59.72783500000002
 20
840.099
 30
0.0
 11
59.51203500000001
 21
839.5769999999998
 31
0.0
210
0.0
220
0.0
230
-1.0
  0
LINE
  5
11B0
330
1E
100
AcDbEntity
  8
0
100
AcDbLine
 10
66.457935
 20
869.3059999999999
 30
0.0
 11
62.292935
 21
867.506
 31
0.0
210
0.0
220
0.0
230
-1.0
  0
LINE
  5
11B1
330
1E
100
AcDbEntity
  8
0
100
AcDbLine
 10
66.85403500000001
 20
869.205
 30
0.0
 11
63.06343500000001
 21
867.632
 31
0.0
210
0.0
220
0.0
230
-1.0
  0
LINE
  5
11B2
330
1E
100
AcDbEntity
  8
0
100
AcDbLine
 10
73.499935
 20
871.2669999999999
 30
0.0
 11
70.09763500000001
 21
870.3149999999999
 31
0.0
210
0.0
220
0.0
230
-1.0
  0
LINE
  5
11B3
330
1E
100
AcDbEntity
  8
0
100
AcDbLine
 10
70.846535
 20
870.805
 30
0.0
 11
66.457935
 21
869.3059999999999
 31
0.0
210
0.0
220
0.0
230
-1.0
  0
LINE
  5
11B4
330
1E
100
AcDbEntity
  8
0
100
AcDbLine
 10
70.09763500000001
 20
870.3149999999999
 30
0.0
 11
66.85403500000001
 21
869.205
 31
0.0
210
0.0
220
0.0
230
-1.0
  0
LINE
  5
11B5
330
1E
100
AcDbEntity
  8
0
100
AcDbLine
 10
63.06343500000001
 20
867.632
 30
0.0
 11
60.860335
 21
866.5639999999999
 31
0.0
210
0.0
220
0.0
230
-1.0
  0
LINE
  5
11B6
330
1E
100
AcDbEntity
  8
0
100
AcDbLine
 10
55.45673500000001
 20
800.6119999999999
 30
0.0
 11
47.714735
 21
808.0589999999999
 31
0.0
210
0.0
220
0.0
230
-1.0
  0
LINE
  5
11B7
330
1E
100
AcDbEntity
  8
0
100
AcDbLine
 10
56.534735
 20
799.7719999999999
 30
0.0
 11
55.45673500000001
 21
800.6119999999999
 31
0.0
210
0.0
220
0.0
230
-1.0
  0
LINE
  5
11B8
330
1E
100
AcDbEntity
  8
0
100
AcDbLine
 10
43.66053500000001
 20
851.0989999999999
 30
0.0
 11
42.267335
 21
848.4259999999999
 31
0.0
210
0.0
220
0.0
230
-1.0
  0
LINE
  5
11B9
330
1E
100
AcDbEntity
  8
0
100
AcDbLine
 10
47.322735
 20
846.761
 30
0.0
 11
42.520735
 21
838.0959999999998
 31
0.0
210
0.0
220
0.0
230
-1.0
  0
LINE
  5
11BA
330
1E
100
AcDbEntity
  8
0
100
AcDbLine
 10
43.010735
 20
816.581
 30
0.0
 11
42.520735
 21
818.1359999999999
 31
0.0
210
0.0
220
0.0
230
-1.0
  0
LINE
  5
11BB
330
1E
100
AcDbEntity
  8
0
100
AcDbLine
 10
54.78683500000001
 20
863.0779999999999
 30
0.0
 11
51.39733500000001
 21
860.4049999999999
 31
0.0
210
0.0
220
0.0
230
-1.0
  0
LINE
  5
11BC
330
1E
100
AcDbEntity
  8
0
100
AcDbLine
 10
54.76113500000001
 20
862.8769999999999
 30
0.0
 11
52.917635
 21
861.4989999999998
 31
0.0
210
0.0
220
0.0
230
-1.0
  0
LINE
  5
11BD
330
1E
100
AcDbEntity
  8
0
100
AcDbLine
 10
51.177535
 20
860.055
 30
0.0
 11
49.54493500000001
 21
858.5469999999999
 31
0.0
210
0.0
220
0.0
230
-1.0
  0
LINE
  5
11BE
330
1E
100
AcDbEntity
  8
0
100
AcDbLine
 10
51.39733500000001
 20
860.4049999999999
 30
0.0
 11
48.46103500000001
 21
857.5679999999998
 31
0.0
210
0.0
220
0.0
230
-1.0
  0
LINE
  5
11BF
330
1E
100
AcDbEntity
  8
0
100
AcDbLine
 10
55.16273500000001
 20
854.208
 30
0.0
 11
47.322735
 21
846.761
 31
0.0
210
0.0
220
0.0
230
-1.0
  0
LINE
  5
11C0
330
1E
100
AcDbEntity
  8
0
100
AcDbLine
 10
50.850735
 20
822.188
 30
0.0
 11
50.55673500000001
 21
821.687
 31
0.0
210
0.0
220
0.0
230
-1.0
  0
LINE
  5
11C1
330
1E
100
AcDbEntity
  8
0
100
AcDbLine
 10
50.850735
 20
821.1859999999999
 30
0.0
 11
50.55673500000001
 21
821.687
 31
0.0
210
0.0
220
0.0
230
-1.0
  0
LINE
  5
11C2
330
1E
100
AcDbEntity
  8
0
100
AcDbLine
 10
53.431635
 20
831.8809999999999
 30
0.0
 11
52.92083500000001
 21
831.484
 31
0.0
210
0.0
220
0.0
230
-1.0
  0
LINE
  5
11C3
330
1E
100
AcDbEntity
  8
0
100
AcDbLine
 10
54.72093500000001
 20
831.5389999999998
 30
0.0
 11
54.17683500000001
 21
831.9119999999999
 31
0.0
210
0.0
220
0.0
230
-1.0
  0
LINE
  5
11C4
330
1E
100
AcDbEntity
  8
0
100
AcDbLine
 10
54.762535
 20
830.994
 30
0.0
 11
54.25173500000001
 21
830.5959999999998
 31
0.0
210
0.0
220
0.0
230
-1.0
  0
LINE
  5
11C5
330
1E
100
AcDbEntity
  8
0
100
AcDbLine
 10
54.762535
 20
812.3799999999999
 30
0.0
 11
54.25173500000001
 21
812.7779999999999
 31
0.0
210
0.0
220
0.0
230
-1.0
  0
LINE
  5
11C6
330
1E
100
AcDbEntity
  8
0
100
AcDbLine
 10
54.72093500000001
 20
811.8359999999999
 30
0.0
 11
54.17683500000001
 21
811.4619999999998
 31
0.0
210
0.0
220
0.0
230
-1.0
  0
LINE
  5
11C7
330
1E
100
AcDbEntity
  8
0
100
AcDbLine
 10
57.14723500000001
 20
807.103
 30
0.0
 11
56.406135
 21
807.0379999999998
 31
0.0
210
0.0
220
0.0
230
-1.0
  0
LINE
  5
11C8
330
1E
100
AcDbEntity
  8
0
100
AcDbLine
 10
56.908335
 20
808.408
 30
0.0
 11
56.167235
 21
808.3429999999999
 31
0.0
210
0.0
220
0.0
230
-1.0
  0
LINE
  5
11C9
330
1E
100
AcDbEntity
  8
0
100
AcDbLine
 10
57.594335
 20
807.54
 30
0.0
 11
57.14723500000001
 21
807.103
 31
0.0
210
0.0
220
0.0
230
-1.0
  0
LINE
  5
11CA
330
1E
100
AcDbEntity
  8
0
100
AcDbLine
 10
57.594335
 20
807.54
 30
0.0
 11
57.505935
 21
808.0809999999999
 31
0.0
210
0.0
220
0.0
230
-1.0
  0
LINE
  5
11CB
330
1E
100
AcDbEntity
  8
0
100
AcDbLine
 10
57.594335
 20
807.54
 30
0.0
 11
57.594335
 21
807.9102497196679
 31
0.0
210
0.0
220
0.0
230
-1.0
  0
LINE
  5
11CC
330
1E
100
AcDbEntity
  8
0
100
AcDbLine
 10
57.594335
 20
807.9102497196679
 30
0.0
 11
57.594335
 21
807.54
 31
0.0
210
0.0
220
0.0
230
-1.0
  0
LINE
  5
11CD
330
1E
100
AcDbEntity
  8
0
100
AcDbLine
 10
57.505935
 20
808.0809999999999
 30
0.0
 11
56.908335
 21
808.408
 31
0.0
210
0.0
220
0.0
230
-1.0
  0
LINE
  5
11CE
330
1E
100
AcDbEntity
  8
0
100
AcDbLine
 10
55.808535
 20
807.3649999999998
 30
0.0
 11
55.720135
 21
807.9069999999999
 31
0.0
210
0.0
220
0.0
230
-1.0
  0
LINE
  5
11CF
330
1E
100
AcDbEntity
  8
0
100
AcDbLine
 10
56.167235
 20
808.3429999999999
 30
0.0
 11
55.720135
 21
807.9069999999999
 31
0.0
210
0.0
220
0.0
230
-1.0
  0
LINE
  5
11D0
330
1E
100
AcDbEntity
  8
0
100
AcDbLine
 10
56.406135
 20
807.0379999999998
 30
0.0
 11
55.808535
 21
807.3649999999998
 31
0.0
210
0.0
220
0.0
230
-1.0
  0
LINE
  5
11D1
330
1E
100
AcDbEntity
  8
0
100
AcDbLine
 10
54.762535
 20
812.3799999999999
 30
0.0
 11
54.72093500000001
 21
811.8359999999999
 31
0.0
210
0.0
220
0.0
230
-1.0
  0
LINE
  5
11D2
330
1E
100
AcDbEntity
  8
0
100
AcDbLine
 10
54.762535
 20
830.994
 30
0.0
 11
54.72093500000001
 21
831.5389999999998
 31
0.0
210
0.0
220
0.0
230
-1.0
  0
LINE
  5
11D3
330
1E
100
AcDbEntity
  8
0
100
AcDbLine
 10
51.322635
 20
817.2439999999999
 30
0.0
 11
51.152235
 21
816.713
 31
0.0
210
0.0
220
0.0
230
-1.0
  0
LINE
  5
11D4
330
1E
100
AcDbEntity
  8
0
100
AcDbLine
 10
53.08253500000001
 20
816.9619999999998
 30
0.0
 11
52.912035
 21
816.4309999999998
 31
0.0
210
0.0
220
0.0
230
-1.0
  0
LINE
  5
11D5
330
1E
100
AcDbEntity
  8
0
100
AcDbLine
 10
52.912035
 20
816.4309999999998
 30
0.0
 11
52.287535
 21
816.1319999999999
 31
0.0
210
0.0
220
0.0
230
-1.0
  0
LINE
  5
11D6
330
1E
100
AcDbEntity
  8
0
100
AcDbLine
 10
54.17683500000001
 20
811.4619999999998
 30
0.0
 11
53.431635
 21
811.4929999999999
 31
0.0
210
0.0
220
0.0
230
-1.0
  0
LINE
  5
11D7
330
1E
100
AcDbEntity
  8
0
100
AcDbLine
 10
54.25173500000001
 20
812.7779999999999
 30
0.0
 11
53.50653499999999
 21
812.8079999999998
 31
0.0
210
0.0
220
0.0
230
-1.0
  0
LINE
  5
11D8
330
1E
100
AcDbEntity
  8
0
100
AcDbLine
 10
53.431635
 20
811.4929999999999
 30
0.0
 11
52.92083500000001
 21
811.89
 31
0.0
210
0.0
220
0.0
230
-1.0
  0
LINE
  5
11D9
330
1E
100
AcDbEntity
  8
0
100
AcDbLine
 10
52.962435
 20
812.4349999999999
 30
0.0
 11
52.92083500000001
 21
811.89
 31
0.0
210
0.0
220
0.0
230
-1.0
  0
LINE
  5
11DA
330
1E
100
AcDbEntity
  8
0
100
AcDbLine
 10
53.50653499999999
 20
812.8079999999998
 30
0.0
 11
52.962435
 21
812.4349999999999
 31
0.0
210
0.0
220
0.0
230
-1.0
  0
LINE
  5
11DB
330
1E
100
AcDbEntity
  8
0
100
AcDbLine
 10
52.287535
 20
816.1319999999999
 30
0.0
 11
51.560935
 21
816.2569999999998
 31
0.0
210
0.0
220
0.0
230
-1.0
  0
LINE
  5
11DC
330
1E
100
AcDbEntity
  8
0
100
AcDbLine
 10
51.560935
 20
816.2569999999998
 30
0.0
 11
51.152235
 21
816.713
 31
0.0
210
0.0
220
0.0
230
-1.0
  0
LINE
  5
11DD
330
1E
100
AcDbEntity
  8
0
100
AcDbLine
 10
52.912035
 20
826.9429999999998
 30
0.0
 11
52.287535
 21
827.242
 31
0.0
210
0.0
220
0.0
230
-1.0
  0
LINE
  5
11DE
330
1E
100
AcDbEntity
  8
0
100
AcDbLine
 10
52.67383500000001
 20
825.956
 30
0.0
 11
51.94723500000001
 21
825.8309999999999
 31
0.0
210
0.0
220
0.0
230
-1.0
  0
LINE
  5
11DF
330
1E
100
AcDbEntity
  8
0
100
AcDbLine
 10
52.67383500000001
 20
817.4179999999999
 30
0.0
 11
51.94723500000001
 21
817.543
 31
0.0
210
0.0
220
0.0
230
-1.0
  0
LINE
  5
11E0
330
1E
100
AcDbEntity
  8
0
100
AcDbLine
 10
53.08253500000001
 20
816.9619999999998
 30
0.0
 11
52.67383500000001
 21
817.4179999999999
 31
0.0
210
0.0
220
0.0
230
-1.0
  0
LINE
  5
11E1
330
1E
100
AcDbEntity
  8
0
100
AcDbLine
 10
54.25173500000001
 20
830.5959999999998
 30
0.0
 11
53.50653499999999
 21
830.5659999999999
 31
0.0
210
0.0
220
0.0
230
-1.0
  0
LINE
  5
11E2
330
1E
100
AcDbEntity
  8
0
100
AcDbLine
 10
52.962435
 20
830.939
 30
0.0
 11
52.92083500000001
 21
831.484
 31
0.0
210
0.0
220
0.0
230
-1.0
  0
LINE
  5
11E3
330
1E
100
AcDbEntity
  8
0
100
AcDbLine
 10
53.50653499999999
 20
830.5659999999999
 30
0.0
 11
52.962435
 21
830.939
 31
0.0
210
0.0
220
0.0
230
-1.0
  0
LINE
  5
11E4
330
1E
100
AcDbEntity
  8
0
100
AcDbLine
 10
53.08253500000001
 20
826.412
 30
0.0
 11
52.912035
 21
826.9429999999998
 31
0.0
210
0.0
220
0.0
230
-1.0
  0
LINE
  5
11E5
330
1E
100
AcDbEntity
  8
0
100
AcDbLine
 10
53.08253500000001
 20
826.412
 30
0.0
 11
52.67383500000001
 21
825.956
 31
0.0
210
0.0
220
0.0
230
-1.0
  0
LINE
  5
11E6
330
1E
100
AcDbEntity
  8
0
100
AcDbLine
 10
52.22273500000001
 20
822.188
 30
0.0
 11
51.536735
 21
822.4029999999999
 31
0.0
210
0.0
220
0.0
230
-1.0
  0
LINE
  5
11E7
330
1E
100
AcDbEntity
  8
0
100
AcDbLine
 10
52.22273500000001
 20
821.1859999999999
 30
0.0
 11
51.536735
 21
820.9709999999999
 31
0.0
210
0.0
220
0.0
230
-1.0
  0
LINE
  5
11E8
330
1E
100
AcDbEntity
  8
0
100
AcDbLine
 10
51.94723500000001
 20
817.543
 30
0.0
 11
51.322635
 21
817.2439999999999
 31
0.0
210
0.0
220
0.0
230
-1.0
  0
LINE
  5
11E9
330
1E
100
AcDbEntity
  8
0
100
AcDbLine
 10
52.51673500000001
 20
821.687
 30
0.0
 11
52.22273500000001
 21
822.188
 31
0.0
210
0.0
220
0.0
230
-1.0
  0
LINE
  5
11EA
330
1E
100
AcDbEntity
  8
0
100
AcDbLine
 10
52.51673500000001
 20
821.687
 30
0.0
 11
52.22273500000001
 21
821.1859999999999
 31
0.0
210
0.0
220
0.0
230
-1.0
  0
LINE
  5
11EB
330
1E
100
AcDbEntity
  8
0
100
AcDbLine
 10
51.536735
 20
822.4029999999999
 30
0.0
 11
50.850735
 21
822.188
 31
0.0
210
0.0
220
0.0
230
-1.0
  0
LINE
  5
11EC
330
1E
100
AcDbEntity
  8
0
100
AcDbLine
 10
51.536735
 20
820.9709999999999
 30
0.0
 11
50.850735
 21
821.1859999999999
 31
0.0
210
0.0
220
0.0
230
-1.0
  0
LINE
  5
11ED
330
1E
100
AcDbEntity
  8
0
100
AcDbLine
 10
52.287535
 20
827.242
 30
0.0
 11
51.560935
 21
827.1169999999999
 31
0.0
210
0.0
220
0.0
230
-1.0
  0
LINE
  5
11EE
330
1E
100
AcDbEntity
  8
0
100
AcDbLine
 10
51.94723500000001
 20
825.8309999999999
 30
0.0
 11
51.322635
 21
826.13
 31
0.0
210
0.0
220
0.0
230
-1.0
  0
LINE
  5
11EF
330
1E
100
AcDbEntity
  8
0
100
AcDbLine
 10
51.560935
 20
827.1169999999999
 30
0.0
 11
51.152235
 21
826.661
 31
0.0
210
0.0
220
0.0
230
-1.0
  0
LINE
  5
11F0
330
1E
100
AcDbEntity
  8
0
100
AcDbLine
 10
51.322635
 20
826.13
 30
0.0
 11
51.152235
 21
826.661
 31
0.0
210
0.0
220
0.0
230
-1.0
  0
LINE
  5
11F1
330
1E
100
AcDbEntity
  8
0
100
AcDbLine
 10
57.14723500000001
 20
836.2709999999999
 30
0.0
 11
56.406135
 21
836.3359999999998
 31
0.0
210
0.0
220
0.0
230
-1.0
  0
LINE
  5
11F2
330
1E
100
AcDbEntity
  8
0
100
AcDbLine
 10
56.908335
 20
834.966
 30
0.0
 11
56.167235
 21
835.031
 31
0.0
210
0.0
220
0.0
230
-1.0
  0
LINE
  5
11F3
330
1E
100
AcDbEntity
  8
0
100
AcDbLine
 10
57.594335
 20
835.834
 30
0.0
 11
57.14723500000001
 21
836.2709999999999
 31
0.0
210
0.0
220
0.0
230
-1.0
  0
LINE
  5
11F4
330
1E
100
AcDbEntity
  8
0
100
AcDbLine
 10
57.594335
 20
835.834
 30
0.0
 11
57.505935
 21
835.293
 31
0.0
210
0.0
220
0.0
230
-1.0
  0
LINE
  5
11F5
330
1E
100
AcDbEntity
  8
0
100
AcDbLine
 10
57.505935
 20
835.293
 30
0.0
 11
56.908335
 21
834.966
 31
0.0
210
0.0
220
0.0
230
-1.0
  0
LINE
  5
11F6
330
1E
100
AcDbEntity
  8
0
100
AcDbLine
 10
56.406135
 20
836.3359999999998
 30
0.0
 11
55.808535
 21
836.0089999999999
 31
0.0
210
0.0
220
0.0
230
-1.0
  0
LINE
  5
11F7
330
1E
100
AcDbEntity
  8
0
100
AcDbLine
 10
55.808535
 20
836.0089999999999
 30
0.0
 11
55.720135
 21
835.467
 31
0.0
210
0.0
220
0.0
230
-1.0
  0
LINE
  5
11F8
330
1E
100
AcDbEntity
  8
0
100
AcDbLine
 10
56.167235
 20
835.031
 30
0.0
 11
55.720135
 21
835.467
 31
0.0
210
0.0
220
0.0
230
-1.0
  0
LINE
  5
11F9
330
1E
100
AcDbEntity
  8
0
100
AcDbLine
 10
54.17683500000001
 20
831.9119999999999
 30
0.0
 11
53.431635
 21
831.8809999999999
 31
0.0
210
0.0
220
0.0
230
-1.0
  0
LINE
  5
11FA
330
1E
100
AcDbEntity
  8
0
100
AcDbLine
 10
52.917635
 20
861.4989999999998
 30
0.0
 11
51.177535
 21
860.055
 31
0.0
210
0.0
220
0.0
230
-1.0
  0
LINE
  5
11FB
330
1E
100
AcDbEntity
  8
0
100
AcDbLine
 10
47.714735
 20
808.0589999999999
 30
0.0
 11
43.010735
 21
816.581
 31
0.0
210
0.0
220
0.0
230
-1.0
  0
LINE
  5
11FC
330
1E
100
AcDbEntity
  8
0
100
AcDbLine
 10
48.027535
 20
856.9789999999999
 30
0.0
 11
46.625435
 21
855.358
 31
0.0
210
0.0
220
0.0
230
-1.0
  0
LINE
  5
11FD
330
1E
100
AcDbEntity
  8
0
100
AcDbLine
 10
48.46103500000001
 20
857.5679999999998
 30
0.0
 11
45.92683500000001
 21
854.541
 31
0.0
210
0.0
220
0.0
230
-1.0
  0
LINE
  5
11FE
330
1E
100
AcDbEntity
  8
0
100
AcDbLine
 10
49.54493500000001
 20
858.5469999999999
 30
0.0
 11
48.027535
 21
856.9789999999999
 31
0.0
210
0.0
220
0.0
230
-1.0
  0
LINE
  5
11FF
330
1E
100
AcDbEntity
  8
0
100
AcDbLine
 10
45.04493500000001
 20
853.2619999999999
 30
0.0
 11
43.66053500000001
 21
851.0989999999999
 31
0.0
210
0.0
220
0.0
230
-1.0
  0
LINE
  5
1200
330
1E
100
AcDbEntity
  8
0
100
AcDbLine
 10
46.625435
 20
855.358
 30
0.0
 11
45.04493500000001
 21
853.2619999999999
 31
0.0
210
0.0
220
0.0
230
-1.0
  0
LINE
  5
1201
330
1E
100
AcDbEntity
  8
0
100
AcDbLine
 10
45.92683500000001
 20
854.541
 30
0.0
 11
45.33067029801891
 21
853.6409314676669
 31
0.0
210
0.0
220
0.0
230
-1.0
  0
LINE
  5
1202
330
1E
100
AcDbEntity
  8
0
100
AcDbLine
 10
44.04841439887171
 20
851.7050265383989
 30
0.0
 11
43.81723500000001
 21
851.3559999999998
 31
0.0
210
0.0
220
0.0
230
-1.0
  0
LINE
  5
1203
330
1E
100
AcDbEntity
  8
0
100
AcDbLine
 10
44.04841439887171
 20
851.7050265383989
 30
0.0
 11
43.81723500000001
 21
851.3559999999998
 31
0.0
210
0.0
220
0.0
230
-1.0
  0
LINE
  5
1204
330
1E
100
AcDbEntity
  8
0
100
AcDbLine
 10
43.81723500000001
 20
851.3559999999998
 30
0.0
 11
43.7861673603773
 21
851.295289219515
 31
0.0
210
0.0
220
0.0
230
-1.0
  0
LINE
  5
1205
330
1E
100
AcDbEntity
  8
0
100
AcDbLine
 10
43.81723500000001
 20
851.3559999999998
 30
0.0
 11
43.7861673603773
 21
851.295289219515
 31
0.0
210
0.0
220
0.0
230
-1.0
  0
LINE
  5
1206
330
1E
100
AcDbEntity
  8
0
100
AcDbLine
 10
57.70923500000001
 20
864.8059999999999
 30
0.0
 11
54.76113500000001
 21
862.8769999999999
 31
0.0
210
0.0
220
0.0
230
-1.0
  0
LINE
  5
1207
330
1E
100
AcDbEntity
  8
0
100
AcDbLine
 10
58.390135
 20
865.4229999999998
 30
0.0
 11
54.78683500000001
 21
863.0779999999999
 31
0.0
210
0.0
220
0.0
230
-1.0
  0
LINE
  5
1208
330
1E
100
AcDbEntity
  8
0
100
AcDbLine
 10
40.19423500000001
 20
831.0929999999999
 30
0.0
 11
39.756735
 21
837.2419999999999
 31
0.0
210
0.0
220
0.0
230
-1.0
  0
LINE
  5
1209
330
1E
100
AcDbEntity
  8
0
100
AcDbLine
 10
42.520735
 20
838.0959999999998
 30
0.0
 11
40.756735
 21
828.9299999999999
 31
0.0
210
0.0
220
0.0
230
-1.0
  0
LINE
  5
120A
330
1E
100
AcDbEntity
  8
0
100
AcDbLine
 10
41.427835
 20
822.1909999999999
 30
0.0
 11
40.848435
 21
824.773
 31
0.0
210
0.0
220
0.0
230
-1.0
  0
LINE
  5
120B
330
1E
100
AcDbEntity
  8
0
100
AcDbLine
 10
42.520735
 20
818.1359999999999
 30
0.0
 11
40.756735
 21
827.302
 31
0.0
210
0.0
220
0.0
230
-1.0
  0
LINE
  5
120C
330
1E
100
AcDbEntity
  8
0
100
AcDbLine
 10
42.17965997494672
 20
819.908275328593
 30
0.0
 11
41.52309460711942
 21
821.9017685131429
 31
0.0
210
0.0
220
0.0
230
-1.0
  0
LINE
  5
120D
330
1E
100
AcDbEntity
  8
0
100
AcDbLine
 10
41.52309460711942
 20
821.9017685131429
 30
0.0
 11
41.427835
 21
822.1909999999999
 31
0.0
210
0.0
220
0.0
230
-1.0
  0
LINE
  5
120E
330
1E
100
AcDbEntity
  8
0
100
AcDbLine
 10
41.88430572711442
 20
821.4429788635309
 30
0.0
 11
41.78053499999999
 21
821.7539999999999
 31
0.0
210
0.0
220
0.0
230
-1.0
  0
LINE
  5
120F
330
1E
100
AcDbEntity
  8
0
100
AcDbLine
 10
40.88193500000001
 20
826.5479999999998
 30
0.0
 11
40.8756835159037
 21
826.6839262489948
 31
0.0
210
0.0
220
0.0
230
-1.0
  0
LINE
  5
1210
330
1E
100
AcDbEntity
  8
0
100
AcDbLine
 10
40.473035
 20
828.4839999999999
 30
0.0
 11
40.19423500000001
 21
831.0929999999999
 31
0.0
210
0.0
220
0.0
230
-1.0
  0
LINE
  5
1211
330
1E
100
AcDbEntity
  8
0
100
AcDbLine
 10
40.62283500000001
 20
826.7079999999999
 30
0.0
 11
40.473035
 21
828.4839999999999
 31
0.0
210
0.0
220
0.0
230
-1.0
  0
LINE
  5
1212
330
1E
100
AcDbEntity
  8
0
100
AcDbLine
 10
40.756735
 20
827.302
 30
0.0
 11
40.756735
 21
828.9299999999999
 31
0.0
210
0.0
220
0.0
230
-1.0
  0
LINE
  5
1213
330
1E
100
AcDbEntity
  8
0
100
AcDbLine
 10
40.848435
 20
824.773
 30
0.0
 11
40.62283500000001
 21
826.7079999999999
 31
0.0
210
0.0
220
0.0
230
-1.0
  0
LINE
  5
1214
330
1E
100
AcDbEntity
  8
0
100
AcDbLine
 10
42.267335
 20
848.4259999999999
 30
0.0
 11
41.50563500000001
 21
846.6049999999999
 31
0.0
210
0.0
220
0.0
230
-1.0
  0
LINE
  5
1215
330
1E
100
AcDbEntity
  8
0
100
AcDbLine
 10
41.50563500000001
 20
846.6049999999999
 30
0.0
 11
40.879035
 21
844.7619999999998
 31
0.0
210
0.0
220
0.0
230
-1.0
  0
LINE
  5
1216
330
1E
100
AcDbEntity
  8
0
100
AcDbLine
 10
40.038535
 20
841.0239999999999
 30
0.0
 11
39.827635
 21
839.141
 31
0.0
210
0.0
220
0.0
230
-1.0
  0
LINE
  5
1217
330
1E
100
AcDbEntity
  8
0
100
AcDbLine
 10
39.827635
 20
839.141
 30
0.0
 11
39.756735
 21
837.256
 31
0.0
210
0.0
220
0.0
230
-1.0
  0
LINE
  5
1218
330
1E
100
AcDbEntity
  8
0
100
AcDbLine
 10
40.389335
 20
842.899
 30
0.0
 11
40.038535
 21
841.0239999999999
 31
0.0
210
0.0
220
0.0
230
-1.0
  0
LINE
  5
1219
330
1E
100
AcDbEntity
  8
0
100
AcDbLine
 10
40.879035
 20
844.7619999999998
 30
0.0
 11
40.389335
 21
842.899
 31
0.0
210
0.0
220
0.0
230
-1.0
  0
LINE
  5
25F4
330
1E
100
AcDbEntity
  8
0
100
AcDbLine
 10
66.92323499999999
 20
664.85
 30
0.0
 11
66.334735
 21
794.2579999999999
 31
0.0
  0
ENDSEC
  0
SECTION
  2
OBJECTS
  0
DICTIONARY
  5
C
330
0
100
AcDbDictionary
281
     1
  3
ACAD_GROUP
350
D
  3
ACAD_LAYOUT
350
19
  3
ACAD_MLINESTYLE
350
16
  3
ACAD_PLOTSETTINGS
350
18
  3
ACAD_PLOTSTYLENAME
350
E
  3
AcDbVariableDictionary
350
121B
  0
DICTIONARY
  5
D
102
{ACAD_REACTORS
330
C
102
}
330
C
100
AcDbDictionary
281
     1
  0
DICTIONARY
  5
19
102
{ACAD_REACTORS
330
C
102
}
330
C
100
AcDbDictionary
281
     1
  3
Layout1
350
1D
  3
Model
350
21
  0
DICTIONARY
  5
16
102
{ACAD_REACTORS
330
C
102
}
330
C
100
AcDbDictionary
281
     1
  3
Standard
350
17
  0
DICTIONARY
  5
18
102
{ACAD_REACTORS
330
C
102
}
330
C
100
AcDbDictionary
281
     1
  0
ACDBDICTIONARYWDFLT
  5
E
102
{ACAD_REACTORS
330
C
102
}
330
C
100
AcDbDictionary
281
     1
  3
Normal
350
F
100
AcDbDictionaryWithDefault
340
F
  0
DICTIONARY
  5
121B
102
{ACAD_REACTORS
330
C
102
}
330
C
100
AcDbDictionary
281
     1
  3
DIMASSOC
350
121C
  0
LAYOUT
  5
1D
102
{ACAD_REACTORS
330
19
102
}
330
19
100
AcDbPlotSettings
  1

  2
C:\Programme\AutoCAD LT 2002 Deu\plotters\DWF ePlot (optimized for plotting).pc3
  4

  6

 40
0.0
 41
0.0
 42
0.0
 43
0.0
 44
0.0
 45
0.0
 46
0.0
 47
0.0
 48
0.0
 49
0.0
140
0.0
141
0.0
142
1.0
143
1.0
 70
   688
 72
     0
 73
     0
 74
     5
  7

 75
    16
147
1.0
148
0.0
149
0.0
100
AcDbLayout
  1
Layout1
 70
     1
 71
     1
 10
0.0
 20
0.0
 11
12.0
 21
9.0
 12
0.0
 22
0.0
 32
0.0
 14
1.000000000000000E+20
 24
1.000000000000000E+20
 34
1.000000000000000E+20
 15
-1.000000000000000E+20
 25
-1.000000000000000E+20
 35
-1.000000000000000E+20
146
0.0
 13
0.0
 23
0.0
 33
0.0
 16
1.0
 26
0.0
 36
0.0
 17
0.0
 27
1.0
 37
0.0
 76
     0
330
1A
  0
LAYOUT
  5
21
102
{ACAD_REACTORS
330
19
102
}
330
19
100
AcDbPlotSettings
  1

  2
C:\Programme\AutoCAD LT 2002 Deu\plotters\DWF ePlot (optimized for plotting).pc3
  4

  6

 40
0.0
 41
0.0
 42
0.0
 43
0.0
 44
0.0
 45
0.0
 46
0.0
 47
0.0
 48
0.0
 49
0.0
140
0.0
141
0.0
142
1.0
143
1.0
 70
  1712
 72
     0
 73
     0
 74
     0
  7

 75
     0
147
1.0
148
0.0
149
0.0
100
AcDbLayout
  1
Model
 70
     1
 71
     0
 10
0.0
 20
0.0
 11
12.0
 21
9.0
 12
0.0
 22
0.0
 32
0.0
 14
0.0
 24
0.0
 34
0.0
 15
0.0
 25
0.0
 35
0.0
146
0.0
 13
0.0
 23
0.0
 33
0.0
 16
1.0
 26
0.0
 36
0.0
 17
0.0
 27
1.0
 37
0.0
 76
     0
330
1E
  0
MLINESTYLE
  5
17
102
{ACAD_REACTORS
330
16
102
}
330
16
100
AcDbMlineStyle
  2
STANDARD
 70
     0
  3

 62
   256
 51
90.0
 52
90.0
 71
     2
 49
0.5
 62
   256
  6
BYLAYER
 49
-0.5
 62
   256
  6
BYLAYER
  0
ACDBPLACEHOLDER
  5
F
102
{ACAD_REACTORS
330
E
102
}
330
E
  0
DICTIONARYVAR
  5
121C
102
{ACAD_REACTORS
330
121B
102
}
330
121B
100
DictionaryVariables
280
     0
  1
1
  0
ENDSEC
  0
EOF
