  0
SECTION
  2
HEADER
  9
$ACADVER
  1
AC1015
  9
$ACADMAINTVER
 70
     6
  9
$DWGCODEPAGE
  3
ANSI_1252
  9
$INSBASE
 10
0.0
 20
0.0
 30
0.0
  9
$EXTMIN
 10
0.105
 20
0.20485
 30
0.0
  9
$EXTMAX
 10
363.895
 20
511.79515
 30
0.0
  9
$LIMMIN
 10
0.0
 20
0.0
  9
$LIMMAX
 10
12.0
 20
9.0
  9
$ORTHOMODE
 70
     0
  9
$REGENMODE
 70
     1
  9
$FILLMODE
 70
     1
  9
$QTEXTMODE
 70
     0
  9
$MIRRTEXT
 70
     1
  9
$LTSCALE
 40
1.0
  9
$ATTMODE
 70
     1
  9
$TEXTSIZE
 40
0.2
  9
$TRACEWID
 40
0.05
  9
$TEXTSTYLE
  7
Standard
  9
$CLAYER
  8
0
  9
$CELTYPE
  6
ByBlock
  9
$CECOLOR
 62
   256
  9
$CELTSCALE
 40
1.0
  9
$DISPSILH
 70
     0
  9
$DIMSCALE
 40
1.0
  9
$DIMASZ
 40
0.18
  9
$DIMEXO
 40
0.0625
  9
$DIMDLI
 40
0.38
  9
$DIMRND
 40
0.0
  9
$DIMDLE
 40
0.0
  9
$DIMEXE
 40
0.18
  9
$DIMTP
 40
0.0
  9
$DIMTM
 40
0.0
  9
$DIMTXT
 40
0.18
  9
$DIMCEN
 40
0.09
  9
$DIMTSZ
 40
0.0
  9
$DIMTOL
 70
     0
  9
$DIMLIM
 70
     0
  9
$DIMTIH
 70
     1
  9
$DIMTOH
 70
     1
  9
$DIMSE1
 70
     0
  9
$DIMSE2
 70
     0
  9
$DIMTAD
 70
     0
  9
$DIMZIN
 70
     0
  9
$DIMBLK
  1

  9
$DIMASO
 70
     1
  9
$DIMSHO
 70
     1
  9
$DIMPOST
  1

  9
$DIMAPOST
  1

  9
$DIMALT
 70
     0
  9
$DIMALTD
 70
     2
  9
$DIMALTF
 40
25.4
  9
$DIMLFAC
 40
1.0
  9
$DIMTOFL
 70
     0
  9
$DIMTVP
 40
0.0
  9
$DIMTIX
 70
     0
  9
$DIMSOXD
 70
     0
  9
$DIMSAH
 70
     0
  9
$DIMBLK1
  1

  9
$DIMBLK2
  1

  9
$DIMSTYLE
  2
Standard
  9
$DIMCLRD
 70
     0
  9
$DIMCLRE
 70
     0
  9
$DIMCLRT
 70
     0
  9
$DIMTFAC
 40
1.0
  9
$DIMGAP
 40
0.09
  9
$DIMJUST
 70
     0
  9
$DIMSD1
 70
     0
  9
$DIMSD2
 70
     0
  9
$DIMTOLJ
 70
     1
  9
$DIMTZIN
 70
     0
  9
$DIMALTZ
 70
     0
  9
$DIMALTTZ
 70
     0
  9
$DIMUPT
 70
     0
  9
$DIMDEC
 70
     4
  9
$DIMTDEC
 70
     4
  9
$DIMALTU
 70
     2
  9
$DIMALTTD
 70
     2
  9
$DIMTXSTY
  7
Standard
  9
$DIMAUNIT
 70
     0
  9
$DIMADEC
 70
     0
  9
$DIMALTRND
 40
0.0
  9
$DIMAZIN
 70
     0
  9
$DIMDSEP
 70
    46
  9
$DIMATFIT
 70
     3
  9
$DIMFRAC
 70
     0
  9
$DIMLDRBLK
  1

  9
$DIMLUNIT
 70
     2
  9
$DIMLWD
 70
    -2
  9
$DIMLWE
 70
    -2
  9
$DIMTMOVE
 70
     2
  9
$LUNITS
 70
     2
  9
$LUPREC
 70
     4
  9
$SKETCHINC
 40
0.1
  9
$FILLETRAD
 40
0.5
  9
$AUNITS
 70
     0
  9
$AUPREC
 70
     0
  9
$MENU
  1
.
  9
$ELEVATION
 40
0.0
  9
$PELEVATION
 40
0.0
  9
$THICKNESS
 40
0.0
  9
$LIMCHECK
 70
     0
  9
$CHAMFERA
 40
0.5
  9
$CHAMFERB
 40
0.5
  9
$CHAMFERC
 40
1.0
  9
$CHAMFERD
 40
0.0
  9
$SKPOLY
 70
     0
  9
$TDCREATE
 40
2455870.910647674
  9
$TDUCREATE
 40
2455870.868981007
  9
$TDUPDATE
 40
2455870.912460278
  9
$TDUUPDATE
 40
2455870.870793611
  9
$TDINDWG
 40
0.0018122569
  9
$TDUSRTIMER
 40
0.0018122569
  9
$USRTIMER
 70
     1
  9
$ANGBASE
 50
0.0
  9
$ANGDIR
 70
     0
  9
$PDMODE
 70
     0
  9
$PDSIZE
 40
0.0
  9
$PLINEWID
 40
0.0
  9
$SPLFRAME
 70
     0
  9
$SPLINETYPE
 70
     6
  9
$SPLINESEGS
 70
     8
  9
$HANDSEED
  5
128D
  9
$SURFTAB1
 70
     6
  9
$SURFTAB2
 70
     6
  9
$SURFTYPE
 70
     6
  9
$SURFU
 70
     6
  9
$SURFV
 70
     6
  9
$UCSBASE
  2

  9
$UCSNAME
  2

  9
$UCSORG
 10
0.0
 20
0.0
 30
0.0
  9
$UCSXDIR
 10
1.0
 20
0.0
 30
0.0
  9
$UCSYDIR
 10
0.0
 20
1.0
 30
0.0
  9
$UCSORTHOREF
  2

  9
$UCSORTHOVIEW
 70
     0
  9
$UCSORGTOP
 10
0.0
 20
0.0
 30
0.0
  9
$UCSORGBOTTOM
 10
0.0
 20
0.0
 30
0.0
  9
$UCSORGLEFT
 10
0.0
 20
0.0
 30
0.0
  9
$UCSORGRIGHT
 10
0.0
 20
0.0
 30
0.0
  9
$UCSORGFRONT
 10
0.0
 20
0.0
 30
0.0
  9
$UCSORGBACK
 10
0.0
 20
0.0
 30
0.0
  9
$PUCSBASE
  2

  9
$PUCSNAME
  2

  9
$PUCSORG
 10
0.0
 20
0.0
 30
0.0
  9
$PUCSXDIR
 10
1.0
 20
0.0
 30
0.0
  9
$PUCSYDIR
 10
0.0
 20
1.0
 30
0.0
  9
$PUCSORTHOREF
  2

  9
$PUCSORTHOVIEW
 70
     0
  9
$PUCSORGTOP
 10
0.0
 20
0.0
 30
0.0
  9
$PUCSORGBOTTOM
 10
0.0
 20
0.0
 30
0.0
  9
$PUCSORGLEFT
 10
0.0
 20
0.0
 30
0.0
  9
$PUCSORGRIGHT
 10
0.0
 20
0.0
 30
0.0
  9
$PUCSORGFRONT
 10
0.0
 20
0.0
 30
0.0
  9
$PUCSORGBACK
 10
0.0
 20
0.0
 30
0.0
  9
$USERI1
 70
     0
  9
$USERI2
 70
     0
  9
$USERI3
 70
     0
  9
$USERI4
 70
     0
  9
$USERI5
 70
     0
  9
$USERR1
 40
0.0
  9
$USERR2
 40
0.0
  9
$USERR3
 40
0.0
  9
$USERR4
 40
0.0
  9
$USERR5
 40
0.0
  9
$WORLDVIEW
 70
     1
  9
$SHADEDGE
 70
     3
  9
$SHADEDIF
 70
    70
  9
$TILEMODE
 70
     1
  9
$MAXACTVP
 70
    64
  9
$PINSBASE
 10
0.0
 20
0.0
 30
0.0
  9
$PLIMCHECK
 70
     0
  9
$PEXTMIN
 10
1.000000000000E+20
 20
1.000000000000E+20
 30
1.000000000000E+20
  9
$PEXTMAX
 10
-1.000000000000E+20
 20
-1.000000000000E+20
 30
-1.000000000000E+20
  9
$PLIMMIN
 10
0.0
 20
0.0
  9
$PLIMMAX
 10
12.0
 20
9.0
  9
$UNITMODE
 70
     0
  9
$VISRETAIN
 70
     1
  9
$PLINEGEN
 70
     0
  9
$PSLTSCALE
 70
     1
  9
$TREEDEPTH
 70
  3020
  9
$CMLSTYLE
  2
Standard
  9
$CMLJUST
 70
     0
  9
$CMLSCALE
 40
1.0
  9
$PROXYGRAPHICS
 70
     1
  9
$MEASUREMENT
 70
     0
  9
$CELWEIGHT
370
    -1
  9
$ENDCAPS
280
     0
  9
$JOINSTYLE
280
     0
  9
$LWDISPLAY
290
     0
  9
$INSUNITS
 70
     0
  9
$HYPERLINKBASE
  1

  9
$STYLESHEET
  1

  9
$XEDIT
290
     1
  9
$CEPSNTYPE
380
     0
  9
$PSTYLEMODE
290
     1
  9
$FINGERPRINTGUID
  2
{CF240EE8-737F-4908-971C-E87CD30E215D}
  9
$VERSIONGUID
  2
{FAEB1C32-E019-11D5-929B-00C0DF256EC4}
  9
$EXTNAMES
290
     1
  9
$PSVPSCALE
 40
0.0
  9
$OLESTARTUP
290
     0
  0
ENDSEC
  0
SECTION
  2
CLASSES
  0
CLASS
  1
ACDBDICTIONARYWDFLT
  2
AcDbDictionaryWithDefault
  3
ObjectDBX Classes
 90
        0
280
     0
281
     0
  0
CLASS
  1
SCALE
  2
AcDbScale
  3
ObjectDBX Classes
 90
     1153
280
     0
281
     0
  0
CLASS
  1
DICTIONARYVAR
  2
AcDbDictionaryVar
  3
ObjectDBX Classes
 90
        0
280
     0
281
     0
  0
CLASS
  1
ACDBPLACEHOLDER
  2
AcDbPlaceHolder
  3
ObjectDBX Classes
 90
        0
280
     0
281
     0
  0
CLASS
  1
LAYOUT
  2
AcDbLayout
  3
ObjectDBX Classes
 90
        0
280
     0
281
     0
  0
ENDSEC
  0
SECTION
  2
TABLES
  0
TABLE
  2
VPORT
  5
8
330
0
100
AcDbSymbolTable
 70
     1
  0
VPORT
  5
64B
330
8
100
AcDbSymbolTableRecord
100
AcDbViewportTableRecord
  2
*Active
 70
     0
 10
0.0
 20
0.0
 11
1.0
 21
1.0
 12
181.9475
 22
255.897575
 13
0.0
 23
0.0
 14
0.5
 24
0.5
 15
0.5
 25
0.5
 16
0.0
 26
0.0
 36
1.0
 17
0.0
 27
0.0
 37
0.0
 40
522.031053
 41
2.271724137931
 42
50.0
 43
0.0
 44
0.0
 50
0.0
 51
0.0
 71
    16
 72
   100
 73
     1
 74
     3
 75
     0
 76
     0
 77
     0
 78
     0
281
     0
 65
     1
110
0.0
120
0.0
130
0.0
111
1.0
121
0.0
131
0.0
112
0.0
122
1.0
132
0.0
 79
     0
146
0.0
  0
ENDTAB
  0
TABLE
  2
LTYPE
  5
5
330
0
100
AcDbSymbolTable
 70
     1
  0
LTYPE
  5
14
330
5
100
AcDbSymbolTableRecord
100
AcDbLinetypeTableRecord
  2
ByBlock
 70
     0
  3

 72
    65
 73
     0
 40
0.0
  0
LTYPE
  5
15
330
5
100
AcDbSymbolTableRecord
100
AcDbLinetypeTableRecord
  2
ByLayer
 70
     0
  3

 72
    65
 73
     0
 40
0.0
  0
LTYPE
  5
16
330
5
100
AcDbSymbolTableRecord
100
AcDbLinetypeTableRecord
  2
Continuous
 70
     0
  3
Solid line
 72
    65
 73
     0
 40
0.0
  0
ENDTAB
  0
TABLE
  2
LAYER
  5
2
330
0
100
AcDbSymbolTable
 70
     1
  0
LAYER
  5
10
330
2
100
AcDbSymbolTableRecord
100
AcDbLayerTableRecord
  2
0
 70
     0
 62
     7
  6
Continuous
370
    -3
390
F
  0
ENDTAB
  0
TABLE
  2
STYLE
  5
3
330
0
100
AcDbSymbolTable
 70
     1
  0
STYLE
  5
11
330
3
100
AcDbSymbolTableRecord
100
AcDbTextStyleTableRecord
  2
Standard
 70
     0
 40
0.0
 41
1.0
 50
0.0
 71
     0
 42
0.2
  3
txt
  4

  0
ENDTAB
  0
TABLE
  2
VIEW
  5
6
330
0
100
AcDbSymbolTable
 70
     0
  0
ENDTAB
  0
TABLE
  2
UCS
  5
7
330
0
100
AcDbSymbolTable
 70
     0
  0
ENDTAB
  0
TABLE
  2
APPID
  5
9
330
0
100
AcDbSymbolTable
 70
     1
  0
APPID
  5
12
330
9
100
AcDbSymbolTableRecord
100
AcDbRegAppTableRecord
  2
ACAD
 70
     0
  0
ENDTAB
  0
TABLE
  2
DIMSTYLE
  5
A
330
0
100
AcDbSymbolTable
 70
     1
100
AcDbDimStyleTable
  0
DIMSTYLE
105
20
330
A
100
AcDbSymbolTableRecord
100
AcDbDimStyleTableRecord
  2
Standard
 70
     0
340
11
  0
ENDTAB
  0
TABLE
  2
BLOCK_RECORD
  5
1
330
0
100
AcDbSymbolTable
 70
     1
  0
BLOCK_RECORD
  5
1D
330
1
100
AcDbSymbolTableRecord
100
AcDbBlockTableRecord
  2
*Model_Space
340
1E
  0
BLOCK_RECORD
  5
1B
330
1
100
AcDbSymbolTableRecord
100
AcDbBlockTableRecord
  2
*Paper_Space
340
1C
  0
ENDTAB
  0
ENDSEC
  0
SECTION
  2
BLOCKS
  0
BLOCK
  5
64E
330
1D
100
AcDbEntity
  8
0
100
AcDbBlockBegin
  2
*Model_Space
 70
     0
 10
0.0
 20
0.0
 30
0.0
  3
*Model_Space
  1
*Model_Space
  0
ENDBLK
  5
64F
330
1D
100
AcDbEntity
  8
0
100
AcDbBlockEnd
  0
BLOCK
  5
64C
330
1B
100
AcDbEntity
 67
     1
  8
0
100
AcDbBlockBegin
  2
*Paper_Space
 70
     0
 10
0.0
 20
0.0
 30
0.0
  3
*Paper_Space
  1
*Paper_Space
  0
ENDBLK
  5
64D
330
1B
100
AcDbEntity
 67
     1
  8
0
100
AcDbBlockEnd
  0
ENDSEC
  0
SECTION
  2
ENTITIES
  0
LINE
  5
81
330
1D
100
AcDbEntity
  8
0
100
AcDbLine
 10
60.105
 20
429.87415
 30
0.0
 11
60.105
 21
431.58115
 31
0.0
  0
LINE
  5
82
330
1D
100
AcDbEntity
  8
0
100
AcDbLine
 10
60.105
 20
429.87415
 30
0.0
 11
60.105
 21
429.28215
 31
0.0
  0
LINE
  5
83
330
1D
100
AcDbEntity
  8
0
100
AcDbLine
 10
60.105
 20
429.87815
 30
0.0
 11
60.105
 21
429.28215
 31
0.0
  0
LINE
  5
84
330
1D
100
AcDbEntity
  8
0
100
AcDbLine
 10
60.105
 20
429.87815
 30
0.0
 11
60.105
 21
431.65415
 31
0.0
  0
LINE
  5
85
330
1D
100
AcDbEntity
  8
0
100
AcDbLine
 10
60.105
 20
429.28215
 30
0.0
 11
60.8588
 21
428.80015
 31
0.0
  0
LINE
  5
86
330
1D
100
AcDbEntity
  8
0
100
AcDbLine
 10
60.105
 20
429.28215
 30
0.0
 11
60.105
 21
429.87415
 31
0.0
  0
LINE
  5
87
330
1D
100
AcDbEntity
  8
0
100
AcDbLine
 10
60.105
 20
429.28215
 30
0.0
 11
60.105
 21
429.87815
 31
0.0
  0
LINE
  5
88
330
1D
100
AcDbEntity
  8
0
100
AcDbLine
 10
60.105
 20
431.65415
 30
0.0
 11
60.105
 21
429.87815
 31
0.0
  0
LINE
  5
89
330
1D
100
AcDbEntity
  8
0
100
AcDbLine
 10
60.105
 20
431.65415
 30
0.0
 11
60.105
 21
434.40715
 31
0.0
  0
LINE
  5
8A
330
1D
100
AcDbEntity
  8
0
100
AcDbLine
 10
60.105
 20
434.40715
 30
0.0
 11
60.105
 21
431.65415
 31
0.0
  0
LINE
  5
8B
330
1D
100
AcDbEntity
  8
0
100
AcDbLine
 10
60.105
 20
434.40715
 30
0.0
 11
60.105
 21
438.01115
 31
0.0
  0
LINE
  5
8C
330
1D
100
AcDbEntity
  8
0
100
AcDbLine
 10
60.105
 20
431.58115
 30
0.0
 11
60.105
 21
434.41015
 31
0.0
  0
LINE
  5
8D
330
1D
100
AcDbEntity
  8
0
100
AcDbLine
 10
60.105
 20
431.58115
 30
0.0
 11
60.105
 21
429.87415
 31
0.0
  0
LINE
  5
8E
330
1D
100
AcDbEntity
  8
0
100
AcDbLine
 10
60.105
 20
438.01115
 30
0.0
 11
60.105
 21
434.40715
 31
0.0
  0
LINE
  5
8F
330
1D
100
AcDbEntity
  8
0
100
AcDbLine
 10
60.105
 20
438.01115
 30
0.0
 11
60.105
 21
442.26315
 31
0.0
  0
LINE
  5
90
330
1D
100
AcDbEntity
  8
0
100
AcDbLine
 10
60.105
 20
434.41015
 30
0.0
 11
60.105
 21
437.99415
 31
0.0
  0
LINE
  5
91
330
1D
100
AcDbEntity
  8
0
100
AcDbLine
 10
60.105
 20
434.41015
 30
0.0
 11
60.105
 21
431.58115
 31
0.0
  0
LINE
  5
92
330
1D
100
AcDbEntity
  8
0
100
AcDbLine
 10
60.105
 20
437.99415
 30
0.0
 11
60.105
 21
442.26215
 31
0.0
  0
LINE
  5
93
330
1D
100
AcDbEntity
  8
0
100
AcDbLine
 10
60.105
 20
437.99415
 30
0.0
 11
60.105
 21
434.41015
 31
0.0
  0
LINE
  5
94
330
1D
100
AcDbEntity
  8
0
100
AcDbLine
 10
56.2995
 20
443.97515
 30
0.0
 11
56.4935
 21
443.90315
 31
0.0
  0
LINE
  5
95
330
1D
100
AcDbEntity
  8
0
100
AcDbLine
 10
56.2995
 20
443.97515
 30
0.0
 11
57.0099
 21
443.86715
 31
0.0
  0
LINE
  5
96
330
1D
100
AcDbEntity
  8
0
100
AcDbLine
 10
55.6455
 20
444.26315
 30
0.0
 11
56.2995
 21
443.97515
 31
0.0
  0
LINE
  5
97
330
1D
100
AcDbEntity
  8
0
100
AcDbLine
 10
55.0704
 20
444.73115
 30
0.0
 11
55.6455
 21
444.26315
 31
0.0
  0
LINE
  5
98
330
1D
100
AcDbEntity
  8
0
100
AcDbLine
 10
54.6306
 20
445.34315
 30
0.0
 11
55.0704
 21
444.73115
 31
0.0
  0
LINE
  5
99
330
1D
100
AcDbEntity
  8
0
100
AcDbLine
 10
54.36
 20
446.03915
 30
0.0
 11
54.6306
 21
445.34315
 31
0.0
  0
LINE
  5
9A
330
1D
100
AcDbEntity
  8
0
100
AcDbLine
 10
56.4935
 20
443.90315
 30
0.0
 11
57.2152
 21
443.79515
 31
0.0
  0
LINE
  5
9B
330
1D
100
AcDbEntity
  8
0
100
AcDbLine
 10
55.6455
 20
449.32715
 30
0.0
 11
56.2995
 21
449.61515
 31
0.0
  0
LINE
  5
9C
330
1D
100
AcDbEntity
  8
0
100
AcDbLine
 10
56.2995
 20
449.61515
 30
0.0
 11
56.4935
 21
449.68715
 31
0.0
  0
LINE
  5
9D
330
1D
100
AcDbEntity
  8
0
100
AcDbLine
 10
56.2995
 20
449.61515
 30
0.0
 11
57.0099
 21
449.72315
 31
0.0
  0
LINE
  5
9E
330
1D
100
AcDbEntity
  8
0
100
AcDbLine
 10
55.0704
 20
448.85915
 30
0.0
 11
55.6455
 21
449.32715
 31
0.0
  0
LINE
  5
9F
330
1D
100
AcDbEntity
  8
0
100
AcDbLine
 10
54.6306
 20
448.24715
 30
0.0
 11
55.0704
 21
448.85915
 31
0.0
  0
LINE
  5
A0
330
1D
100
AcDbEntity
  8
0
100
AcDbLine
 10
54.36
 20
447.55115
 30
0.0
 11
54.6306
 21
448.24715
 31
0.0
  0
LINE
  5
A1
330
1D
100
AcDbEntity
  8
0
100
AcDbLine
 10
54.2585
 20
446.79515
 30
0.0
 11
54.36
 21
447.55115
 31
0.0
  0
LINE
  5
A2
330
1D
100
AcDbEntity
  8
0
100
AcDbLine
 10
54.2585
 20
446.79515
 30
0.0
 11
54.36
 21
446.03915
 31
0.0
  0
LINE
  5
A3
330
1D
100
AcDbEntity
  8
0
100
AcDbLine
 10
57.0099
 20
443.86715
 30
0.0
 11
57.7204
 21
443.97515
 31
0.0
  0
LINE
  5
A4
330
1D
100
AcDbEntity
  8
0
100
AcDbLine
 10
57.2152
 20
443.79515
 30
0.0
 11
60.8588
 21
443.79515
 31
0.0
  0
LINE
  5
A5
330
1D
100
AcDbEntity
  8
0
100
AcDbLine
 10
56.4935
 20
449.68715
 30
0.0
 11
57.2152
 21
449.79515
 31
0.0
  0
LINE
  5
A6
330
1D
100
AcDbEntity
  8
0
100
AcDbLine
 10
57.0099
 20
449.72315
 30
0.0
 11
57.7204
 21
449.61515
 31
0.0
  0
LINE
  5
A7
330
1D
100
AcDbEntity
  8
0
100
AcDbLine
 10
57.7204
 20
443.97515
 30
0.0
 11
58.3744
 21
444.26315
 31
0.0
  0
LINE
  5
A8
330
1D
100
AcDbEntity
  8
0
100
AcDbLine
 10
58.3744
 20
444.26315
 30
0.0
 11
58.9495
 21
444.73115
 31
0.0
  0
LINE
  5
A9
330
1D
100
AcDbEntity
  8
0
100
AcDbLine
 10
58.9495
 20
444.73115
 30
0.0
 11
59.3892
 21
445.34315
 31
0.0
  0
LINE
  5
AA
330
1D
100
AcDbEntity
  8
0
100
AcDbLine
 10
59.3892
 20
445.34315
 30
0.0
 11
59.6599
 21
446.03915
 31
0.0
  0
LINE
  5
AB
330
1D
100
AcDbEntity
  8
0
100
AcDbLine
 10
59.6599
 20
446.03915
 30
0.0
 11
59.7614
 21
446.79515
 31
0.0
  0
LINE
  5
AC
330
1D
100
AcDbEntity
  8
0
100
AcDbLine
 10
57.7204
 20
449.61515
 30
0.0
 11
58.3744
 21
449.32715
 31
0.0
  0
LINE
  5
AD
330
1D
100
AcDbEntity
  8
0
100
AcDbLine
 10
58.3744
 20
449.32715
 30
0.0
 11
58.9495
 21
448.85915
 31
0.0
  0
LINE
  5
AE
330
1D
100
AcDbEntity
  8
0
100
AcDbLine
 10
58.9495
 20
448.85915
 30
0.0
 11
59.3892
 21
448.24715
 31
0.0
  0
LINE
  5
AF
330
1D
100
AcDbEntity
  8
0
100
AcDbLine
 10
59.3892
 20
448.24715
 30
0.0
 11
59.6599
 21
447.55115
 31
0.0
  0
LINE
  5
B0
330
1D
100
AcDbEntity
  8
0
100
AcDbLine
 10
59.6599
 20
447.55115
 30
0.0
 11
59.7614
 21
446.79515
 31
0.0
  0
LINE
  5
B1
330
1D
100
AcDbEntity
  8
0
100
AcDbLine
 10
57.2152
 20
449.79515
 30
0.0
 11
60.8588
 21
449.79515
 31
0.0
  0
LINE
  5
B2
330
1D
100
AcDbEntity
  8
0
100
AcDbLine
 10
60.105
 20
442.26315
 30
0.0
 11
60.105
 21
438.01115
 31
0.0
  0
LINE
  5
B3
330
1D
100
AcDbEntity
  8
0
100
AcDbLine
 10
60.105
 20
442.26315
 30
0.0
 11
60.105
 21
443.79515
 31
0.0
  0
LINE
  5
B4
330
1D
100
AcDbEntity
  8
0
100
AcDbLine
 10
60.105
 20
443.79515
 30
0.0
 11
60.105
 21
442.26215
 31
0.0
  0
LINE
  5
B5
330
1D
100
AcDbEntity
  8
0
100
AcDbLine
 10
60.105
 20
443.79515
 30
0.0
 11
60.105
 21
442.26315
 31
0.0
  0
LINE
  5
B6
330
1D
100
AcDbEntity
  8
0
100
AcDbLine
 10
60.105
 20
442.26215
 30
0.0
 11
60.105
 21
443.79515
 31
0.0
  0
LINE
  5
B7
330
1D
100
AcDbEntity
  8
0
100
AcDbLine
 10
60.105
 20
442.26215
 30
0.0
 11
60.105
 21
437.99415
 31
0.0
  0
LINE
  5
CD
330
1D
100
AcDbEntity
  8
0
100
AcDbLine
 10
90.105
 20
401.37215
 30
0.0
 11
90.399
 21
400.98715
 31
0.0
  0
LINE
  5
CE
330
1D
100
AcDbEntity
  8
0
100
AcDbLine
 10
90.105
 20
401.37215
 30
0.0
 11
90.105
 21
428.80015
 31
0.0
  0
LINE
  5
D0
330
1D
100
AcDbEntity
  8
0
100
AcDbLine
 10
90.105
 20
428.80015
 30
0.0
 11
90.105
 21
401.37215
 31
0.0
  0
LINE
  5
D1
330
1D
100
AcDbEntity
  8
0
100
AcDbLine
 10
90.105
 20
367.37215
 30
0.0
 11
90.399
 21
366.98715
 31
0.0
  0
LINE
  5
D2
330
1D
100
AcDbEntity
  8
0
100
AcDbLine
 10
90.105
 20
367.37215
 30
0.0
 11
90.105
 21
400.79515
 31
0.0
  0
LINE
  5
D4
330
1D
100
AcDbEntity
  8
0
100
AcDbLine
 10
91.693
 20
366.79515
 30
0.0
 11
93.576
 21
366.79515
 31
0.0
  0
LINE
  5
D5
330
1D
100
AcDbEntity
  8
0
100
AcDbLine
 10
90.399
 20
400.98715
 30
0.0
 11
90.987
 21
400.79515
 31
0.0
  0
LINE
  5
D6
330
1D
100
AcDbEntity
  8
0
100
AcDbLine
 10
90.399
 20
400.98715
 30
0.0
 11
91.105
 21
400.98715
 31
0.0
  0
LINE
  5
D7
330
1D
100
AcDbEntity
  8
0
100
AcDbLine
 10
91.105
 20
366.98715
 30
0.0
 11
93.046
 21
366.98715
 31
0.0
  0
LINE
  5
D9
330
1D
100
AcDbEntity
  8
0
100
AcDbLine
 10
91.105
 20
400.98715
 30
0.0
 11
93.046
 21
400.98715
 31
0.0
  0
LINE
  5
DB
330
1D
100
AcDbEntity
  8
0
100
AcDbLine
 10
90.811
 20
400.79515
 30
0.0
 11
92.811
 21
400.79515
 31
0.0
  0
LINE
  5
DC
330
1D
100
AcDbEntity
  8
0
100
AcDbLine
 10
90.399
 20
366.98715
 30
0.0
 11
90.987
 21
366.79515
 31
0.0
  0
LINE
  5
DD
330
1D
100
AcDbEntity
  8
0
100
AcDbLine
 10
90.399
 20
366.98715
 30
0.0
 11
91.105
 21
366.98715
 31
0.0
  0
LINE
  5
DE
330
1D
100
AcDbEntity
  8
0
100
AcDbLine
 10
90.987
 20
366.79515
 30
0.0
 11
91.693
 21
366.79515
 31
0.0
  0
LINE
  5
DF
330
1D
100
AcDbEntity
  8
0
100
AcDbLine
 10
90.105
 20
400.79515
 30
0.0
 11
90.105
 21
367.37215
 31
0.0
  0
LINE
  5
E0
330
1D
100
AcDbEntity
  8
0
100
AcDbLine
 10
90.105
 20
400.79515
 30
0.0
 11
90.811
 21
400.79515
 31
0.0
  0
LINE
  5
E6
330
1D
100
AcDbEntity
  8
0
100
AcDbLine
 10
92.018
 20
428.80015
 30
0.0
 11
92.772
 21
429.28215
 31
0.0
  0
LINE
  5
E7
330
1D
100
AcDbEntity
  8
0
100
AcDbLine
 10
60.8588
 20
428.80015
 30
0.0
 11
92.018
 21
428.80015
 31
0.0
  0
LINE
  5
E8
330
1D
100
AcDbEntity
  8
0
100
AcDbLine
 10
60.105
 20
449.79515
 30
0.0
 11
60.105
 21
451.32715
 31
0.0
  0
LINE
  5
E9
330
1D
100
AcDbEntity
  8
0
100
AcDbLine
 10
60.105
 20
449.79515
 30
0.0
 11
60.105
 21
451.32815
 31
0.0
  0
LINE
  5
EA
330
1D
100
AcDbEntity
  8
0
100
AcDbLine
 10
60.105
 20
459.18015
 30
0.0
 11
60.105
 21
455.59615
 31
0.0
  0
LINE
  5
EB
330
1D
100
AcDbEntity
  8
0
100
AcDbLine
 10
60.105
 20
459.18015
 30
0.0
 11
60.105
 21
462.00915
 31
0.0
  0
LINE
  5
EC
330
1D
100
AcDbEntity
  8
0
100
AcDbLine
 10
60.105
 20
455.59615
 30
0.0
 11
60.105
 21
451.32815
 31
0.0
  0
LINE
  5
ED
330
1D
100
AcDbEntity
  8
0
100
AcDbLine
 10
60.105
 20
455.59615
 30
0.0
 11
60.105
 21
459.18015
 31
0.0
  0
LINE
  5
EE
330
1D
100
AcDbEntity
  8
0
100
AcDbLine
 10
60.105
 20
451.32815
 30
0.0
 11
60.105
 21
449.79515
 31
0.0
  0
LINE
  5
EF
330
1D
100
AcDbEntity
  8
0
100
AcDbLine
 10
60.105
 20
451.32815
 30
0.0
 11
60.105
 21
455.59615
 31
0.0
  0
LINE
  5
F0
330
1D
100
AcDbEntity
  8
0
100
AcDbLine
 10
60.105
 20
462.00915
 30
0.0
 11
60.105
 21
463.71615
 31
0.0
  0
LINE
  5
F1
330
1D
100
AcDbEntity
  8
0
100
AcDbLine
 10
60.105
 20
462.00915
 30
0.0
 11
60.105
 21
459.18015
 31
0.0
  0
LINE
  5
F2
330
1D
100
AcDbEntity
  8
0
100
AcDbLine
 10
60.105
 20
463.71615
 30
0.0
 11
60.105
 21
462.00915
 31
0.0
  0
LINE
  5
F3
330
1D
100
AcDbEntity
  8
0
100
AcDbLine
 10
60.105
 20
463.71615
 30
0.0
 11
60.105
 21
464.30815
 31
0.0
  0
LINE
  5
F4
330
1D
100
AcDbEntity
  8
0
100
AcDbLine
 10
60.105
 20
463.71215
 30
0.0
 11
60.105
 21
464.30815
 31
0.0
  0
LINE
  5
F5
330
1D
100
AcDbEntity
  8
0
100
AcDbLine
 10
60.105
 20
463.71215
 30
0.0
 11
60.105
 21
461.93615
 31
0.0
  0
LINE
  5
F6
330
1D
100
AcDbEntity
  8
0
100
AcDbLine
 10
60.105
 20
464.30815
 30
0.0
 11
60.8588
 21
464.79015
 31
0.0
  0
LINE
  5
F7
330
1D
100
AcDbEntity
  8
0
100
AcDbLine
 10
60.105
 20
464.30815
 30
0.0
 11
60.105
 21
463.71615
 31
0.0
  0
LINE
  5
F8
330
1D
100
AcDbEntity
  8
0
100
AcDbLine
 10
60.105
 20
464.30815
 30
0.0
 11
60.105
 21
463.71215
 31
0.0
  0
LINE
  5
F9
330
1D
100
AcDbEntity
  8
0
100
AcDbLine
 10
60.105
 20
461.93615
 30
0.0
 11
60.105
 21
463.71215
 31
0.0
  0
LINE
  5
FA
330
1D
100
AcDbEntity
  8
0
100
AcDbLine
 10
60.105
 20
461.93615
 30
0.0
 11
60.105
 21
459.18315
 31
0.0
  0
LINE
  5
FB
330
1D
100
AcDbEntity
  8
0
100
AcDbLine
 10
60.105
 20
459.18315
 30
0.0
 11
60.105
 21
461.93615
 31
0.0
  0
LINE
  5
FC
330
1D
100
AcDbEntity
  8
0
100
AcDbLine
 10
60.105
 20
459.18315
 30
0.0
 11
60.105
 21
455.57915
 31
0.0
  0
LINE
  5
FD
330
1D
100
AcDbEntity
  8
0
100
AcDbLine
 10
90.105
 20
464.79015
 30
0.0
 11
90.105
 21
501.79515
 31
0.0
  0
LINE
  5
FE
330
1D
100
AcDbEntity
  8
0
100
AcDbLine
 10
77.046
 20
501.79515
 30
0.0
 11
83.046
 21
501.79515
 31
0.0
  0
LINE
  5
FF
330
1D
100
AcDbEntity
  8
0
100
AcDbLine
 10
73.281
 20
501.79515
 30
0.0
 11
77.046
 21
501.79515
 31
0.0
  0
LINE
  5
100
330
1D
100
AcDbEntity
  8
0
100
AcDbLine
 10
75.517
 20
502.37215
 30
0.0
 11
80.1326
 21
502.37215
 31
0.0
  0
LINE
  5
101
330
1D
100
AcDbEntity
  8
0
100
AcDbLine
 10
71.517
 20
502.37215
 30
0.0
 11
75.517
 21
502.37215
 31
0.0
  0
LINE
  5
102
330
1D
100
AcDbEntity
  8
0
100
AcDbLine
 10
70.693
 20
501.98715
 30
0.0
 11
71.87
 21
501.79515
 31
0.0
  0
LINE
  5
103
330
1D
100
AcDbEntity
  8
0
100
AcDbLine
 10
71.87
 20
501.79515
 30
0.0
 11
73.281
 21
501.79515
 31
0.0
  0
LINE
  5
104
330
1D
100
AcDbEntity
  8
0
100
AcDbLine
 10
70.105
 20
502.37215
 30
0.0
 11
70.693
 21
501.98715
 31
0.0
  0
LINE
  5
105
330
1D
100
AcDbEntity
  8
0
100
AcDbLine
 10
70.105
 20
502.37215
 30
0.0
 11
70.105
 21
511.79515
 31
0.0
  0
LINE
  5
106
330
1D
100
AcDbEntity
  8
0
100
AcDbLine
 10
70.105
 20
502.37215
 30
0.0
 11
71.517
 21
502.37215
 31
0.0
  0
LINE
  5
107
330
1D
100
AcDbEntity
  8
0
100
AcDbLine
 10
75.517
 20
511.79515
 30
0.0
 11
80.105
 21
511.79515
 31
0.0
  0
LINE
  5
108
330
1D
100
AcDbEntity
  8
0
100
AcDbLine
 10
71.517
 20
511.79515
 30
0.0
 11
75.517
 21
511.79515
 31
0.0
  0
LINE
  5
109
330
1D
100
AcDbEntity
  8
0
100
AcDbLine
 10
70.105
 20
511.79515
 30
0.0
 11
70.105
 21
502.37215
 31
0.0
  0
LINE
  5
10A
330
1D
100
AcDbEntity
  8
0
100
AcDbLine
 10
70.105
 20
511.79515
 30
0.0
 11
71.517
 21
511.79515
 31
0.0
  0
LINE
  5
10B
330
1D
100
AcDbEntity
  8
0
100
AcDbLine
 10
80.105
 20
502.39515
 30
0.0
 11
80.825
 21
501.79515
 31
0.0
  0
LINE
  5
10C
330
1D
100
AcDbEntity
  8
0
100
AcDbLine
 10
80.105
 20
502.39515
 30
0.0
 11
80.105
 21
511.79515
 31
0.0
  0
LINE
  5
10D
330
1D
100
AcDbEntity
  8
0
100
AcDbLine
 10
80.105
 20
502.39515
 30
0.0
 11
81.185
 21
502.39515
 31
0.0
  0
LINE
  5
10E
330
1D
100
AcDbEntity
  8
0
100
AcDbLine
 10
83.046
 20
501.79515
 30
0.0
 11
90.105
 21
501.79515
 31
0.0
  0
LINE
  5
10F
330
1D
100
AcDbEntity
  8
0
100
AcDbLine
 10
90.811
 20
501.79515
 30
0.0
 11
92.811
 21
501.79515
 31
0.0
  0
LINE
  5
110
330
1D
100
AcDbEntity
  8
0
100
AcDbLine
 10
90.105
 20
501.79515
 30
0.0
 11
90.105
 21
464.79015
 31
0.0
  0
LINE
  5
111
330
1D
100
AcDbEntity
  8
0
100
AcDbLine
 10
90.105
 20
501.79515
 30
0.0
 11
90.811
 21
501.79515
 31
0.0
  0
LINE
  5
112
330
1D
100
AcDbEntity
  8
0
100
AcDbLine
 10
89.465
 20
501.79515
 30
0.0
 11
95.585
 21
501.79515
 31
0.0
  0
LINE
  5
113
330
1D
100
AcDbEntity
  8
0
100
AcDbLine
 10
84.785
 20
501.79515
 30
0.0
 11
89.465
 21
501.79515
 31
0.0
  0
LINE
  5
114
330
1D
100
AcDbEntity
  8
0
100
AcDbLine
 10
81.905
 20
501.79515
 30
0.0
 11
84.785
 21
501.79515
 31
0.0
  0
LINE
  5
115
330
1D
100
AcDbEntity
  8
0
100
AcDbLine
 10
81.185
 20
502.39515
 30
0.0
 11
84.065
 21
502.39515
 31
0.0
  0
LINE
  5
116
330
1D
100
AcDbEntity
  8
0
100
AcDbLine
 10
88.865
 20
502.39515
 30
0.0
 11
95.225
 21
502.39515
 31
0.0
  0
LINE
  5
117
330
1D
100
AcDbEntity
  8
0
100
AcDbLine
 10
84.065
 20
502.39515
 30
0.0
 11
88.865
 21
502.39515
 31
0.0
  0
LINE
  5
118
330
1D
100
AcDbEntity
  8
0
100
AcDbLine
 10
88.865
 20
511.79515
 30
0.0
 11
95.225
 21
511.79515
 31
0.0
  0
LINE
  5
119
330
1D
100
AcDbEntity
  8
0
100
AcDbLine
 10
84.065
 20
511.79515
 30
0.0
 11
88.865
 21
511.79515
 31
0.0
  0
LINE
  5
11A
330
1D
100
AcDbEntity
  8
0
100
AcDbLine
 10
81.185
 20
511.79515
 30
0.0
 11
84.065
 21
511.79515
 31
0.0
  0
LINE
  5
11B
330
1D
100
AcDbEntity
  8
0
100
AcDbLine
 10
80.825
 20
501.79515
 30
0.0
 11
81.905
 21
501.79515
 31
0.0
  0
LINE
  5
11C
330
1D
100
AcDbEntity
  8
0
100
AcDbLine
 10
80.105
 20
511.79515
 30
0.0
 11
80.105
 21
502.39515
 31
0.0
  0
LINE
  5
11D
330
1D
100
AcDbEntity
  8
0
100
AcDbLine
 10
80.105
 20
511.79515
 30
0.0
 11
81.185
 21
511.79515
 31
0.0
  0
LINE
  5
11E
330
1D
100
AcDbEntity
  8
0
100
AcDbLine
 10
60.8588
 20
464.79015
 30
0.0
 11
92.018
 21
464.79015
 31
0.0
  0
LINE
  5
11F
330
1D
100
AcDbEntity
  8
0
100
AcDbLine
 10
60.105
 20
455.57915
 30
0.0
 11
60.105
 21
451.32715
 31
0.0
  0
LINE
  5
120
330
1D
100
AcDbEntity
  8
0
100
AcDbLine
 10
60.105
 20
455.57915
 30
0.0
 11
60.105
 21
459.18315
 31
0.0
  0
LINE
  5
121
330
1D
100
AcDbEntity
  8
0
100
AcDbLine
 10
60.105
 20
451.32715
 30
0.0
 11
60.105
 21
455.57915
 31
0.0
  0
LINE
  5
122
330
1D
100
AcDbEntity
  8
0
100
AcDbLine
 10
60.105
 20
451.32715
 30
0.0
 11
60.105
 21
449.79515
 31
0.0
  0
LINE
  5
123
330
1D
100
AcDbEntity
  8
0
100
AcDbLine
 10
92.772
 20
429.28215
 30
0.0
 11
92.772
 21
429.87815
 31
0.0
  0
LINE
  5
124
330
1D
100
AcDbEntity
  8
0
100
AcDbLine
 10
92.772
 20
429.28215
 30
0.0
 11
93.526
 21
428.80015
 31
0.0
  0
LINE
  5
125
330
1D
100
AcDbEntity
  8
0
100
AcDbLine
 10
92.772
 20
429.87815
 30
0.0
 11
92.772
 21
431.65415
 31
0.0
  0
LINE
  5
126
330
1D
100
AcDbEntity
  8
0
100
AcDbLine
 10
92.772
 20
429.87815
 30
0.0
 11
92.772
 21
429.28215
 31
0.0
  0
LINE
  5
127
330
1D
100
AcDbEntity
  8
0
100
AcDbLine
 10
92.772
 20
431.65415
 30
0.0
 11
92.772
 21
434.40715
 31
0.0
  0
LINE
  5
128
330
1D
100
AcDbEntity
  8
0
100
AcDbLine
 10
92.772
 20
431.65415
 30
0.0
 11
92.772
 21
429.87815
 31
0.0
  0
LINE
  5
129
330
1D
100
AcDbEntity
  8
0
100
AcDbLine
 10
92.772
 20
459.18015
 30
0.0
 11
92.772
 21
462.00915
 31
0.0
  0
LINE
  5
12A
330
1D
100
AcDbEntity
  8
0
100
AcDbLine
 10
92.772
 20
459.18015
 30
0.0
 11
92.772
 21
455.59615
 31
0.0
  0
LINE
  5
12B
330
1D
100
AcDbEntity
  8
0
100
AcDbLine
 10
92.772
 20
455.59615
 30
0.0
 11
92.772
 21
459.18015
 31
0.0
  0
LINE
  5
12C
330
1D
100
AcDbEntity
  8
0
100
AcDbLine
 10
92.772
 20
455.59615
 30
0.0
 11
92.772
 21
451.32815
 31
0.0
  0
LINE
  5
12D
330
1D
100
AcDbEntity
  8
0
100
AcDbLine
 10
92.772
 20
451.32815
 30
0.0
 11
92.772
 21
455.59615
 31
0.0
  0
LINE
  5
12E
330
1D
100
AcDbEntity
  8
0
100
AcDbLine
 10
92.772
 20
451.32815
 30
0.0
 11
92.772
 21
446.74415
 31
0.0
  0
LINE
  5
12F
330
1D
100
AcDbEntity
  8
0
100
AcDbLine
 10
92.772
 20
446.74415
 30
0.0
 11
92.772
 21
451.32815
 31
0.0
  0
LINE
  5
130
330
1D
100
AcDbEntity
  8
0
100
AcDbLine
 10
92.772
 20
446.74415
 30
0.0
 11
92.772
 21
442.26315
 31
0.0
  0
LINE
  5
131
330
1D
100
AcDbEntity
  8
0
100
AcDbLine
 10
92.772
 20
442.26315
 30
0.0
 11
92.772
 21
446.74415
 31
0.0
  0
LINE
  5
132
330
1D
100
AcDbEntity
  8
0
100
AcDbLine
 10
92.772
 20
442.26315
 30
0.0
 11
92.772
 21
438.01115
 31
0.0
  0
LINE
  5
133
330
1D
100
AcDbEntity
  8
0
100
AcDbLine
 10
92.772
 20
438.01115
 30
0.0
 11
92.772
 21
442.26315
 31
0.0
  0
LINE
  5
134
330
1D
100
AcDbEntity
  8
0
100
AcDbLine
 10
92.772
 20
438.01115
 30
0.0
 11
92.772
 21
434.40715
 31
0.0
  0
LINE
  5
135
330
1D
100
AcDbEntity
  8
0
100
AcDbLine
 10
92.772
 20
434.40715
 30
0.0
 11
92.772
 21
438.01115
 31
0.0
  0
LINE
  5
136
330
1D
100
AcDbEntity
  8
0
100
AcDbLine
 10
92.772
 20
434.40715
 30
0.0
 11
92.772
 21
431.65415
 31
0.0
  0
LINE
  5
137
330
1D
100
AcDbEntity
  8
0
100
AcDbLine
 10
93.046
 20
366.98715
 30
0.0
 11
96.164
 21
366.98715
 31
0.0
  0
LINE
  5
138
330
1D
100
AcDbEntity
  8
0
100
AcDbLine
 10
93.046
 20
400.98715
 30
0.0
 11
96.164
 21
400.98715
 31
0.0
  0
LINE
  5
139
330
1D
100
AcDbEntity
  8
0
100
AcDbLine
 10
92.811
 20
400.79515
 30
0.0
 11
95.987
 21
400.79515
 31
0.0
  0
LINE
  5
1C9
330
1D
100
AcDbEntity
  8
0
100
AcDbLine
 10
99.947
 20
0.64325
 30
0.0
 11
110.064
 21
0.20485
 31
0.0
  0
LINE
  5
384
330
1D
100
AcDbEntity
  8
0
100
AcDbLine
 10
93.576
 20
366.79515
 30
0.0
 11
96.576
 21
366.79515
 31
0.0
  0
LINE
  5
385
330
1D
100
AcDbEntity
  8
0
100
AcDbLine
 10
96.164
 20
366.98715
 30
0.0
 11
99.105
 21
366.98715
 31
0.0
  0
LINE
  5
386
330
1D
100
AcDbEntity
  8
0
100
AcDbLine
 10
96.164
 20
400.98715
 30
0.0
 11
99.105
 21
400.98715
 31
0.0
  0
LINE
  5
387
330
1D
100
AcDbEntity
  8
0
100
AcDbLine
 10
95.987
 20
400.79515
 30
0.0
 11
99.105
 21
400.79515
 31
0.0
  0
LINE
  5
388
330
1D
100
AcDbEntity
  8
0
100
AcDbLine
 10
96.576
 20
366.79515
 30
0.0
 11
99.105
 21
366.79515
 31
0.0
  0
LINE
  5
390
330
1D
100
AcDbEntity
  8
0
100
AcDbLine
 10
121.105
 20
366.98715
 30
0.0
 11
124.046
 21
366.98715
 31
0.0
  0
LINE
  5
391
330
1D
100
AcDbEntity
  8
0
100
AcDbLine
 10
121.105
 20
400.98715
 30
0.0
 11
124.046
 21
400.98715
 31
0.0
  0
LINE
  5
392
330
1D
100
AcDbEntity
  8
0
100
AcDbLine
 10
121.105
 20
400.79515
 30
0.0
 11
124.223
 21
400.79515
 31
0.0
  0
LINE
  5
393
330
1D
100
AcDbEntity
  8
0
100
AcDbLine
 10
121.105
 20
366.79515
 30
0.0
 11
123.634
 21
366.79515
 31
0.0
  0
LINE
  5
39C
330
1D
100
AcDbEntity
  8
0
100
AcDbLine
 10
123.634
 20
366.79515
 30
0.0
 11
126.634
 21
366.79515
 31
0.0
  0
LINE
  5
39D
330
1D
100
AcDbEntity
  8
0
100
AcDbLine
 10
126.634
 20
366.79515
 30
0.0
 11
128.517
 21
366.79515
 31
0.0
  0
LINE
  5
39E
330
1D
100
AcDbEntity
  8
0
100
AcDbLine
 10
124.046
 20
366.98715
 30
0.0
 11
127.164
 21
366.98715
 31
0.0
  0
LINE
  5
39F
330
1D
100
AcDbEntity
  8
0
100
AcDbLine
 10
127.164
 20
366.98715
 30
0.0
 11
129.105
 21
366.98715
 31
0.0
  0
LINE
  5
3A0
330
1D
100
AcDbEntity
  8
0
100
AcDbLine
 10
129.105
 20
366.98715
 30
0.0
 11
129.811
 21
366.98715
 31
0.0
  0
LINE
  5
3A1
330
1D
100
AcDbEntity
  8
0
100
AcDbLine
 10
128.517
 20
366.79515
 30
0.0
 11
129.223
 21
366.79515
 31
0.0
  0
LINE
  5
3A2
330
1D
100
AcDbEntity
  8
0
100
AcDbLine
 10
129.223
 20
366.79515
 30
0.0
 11
129.811
 21
366.98715
 31
0.0
  0
LINE
  5
3A4
330
1D
100
AcDbEntity
  8
0
100
AcDbLine
 10
129.223
 20
400.79515
 30
0.0
 11
129.811
 21
400.98715
 31
0.0
  0
LINE
  5
3A6
330
1D
100
AcDbEntity
  8
0
100
AcDbLine
 10
124.223
 20
400.79515
 30
0.0
 11
127.399
 21
400.79515
 31
0.0
  0
LINE
  5
3A7
330
1D
100
AcDbEntity
  8
0
100
AcDbLine
 10
124.046
 20
400.98715
 30
0.0
 11
127.164
 21
400.98715
 31
0.0
  0
LINE
  5
3A8
330
1D
100
AcDbEntity
  8
0
100
AcDbLine
 10
127.164
 20
400.98715
 30
0.0
 11
129.105
 21
400.98715
 31
0.0
  0
LINE
  5
3A9
330
1D
100
AcDbEntity
  8
0
100
AcDbLine
 10
129.105
 20
400.98715
 30
0.0
 11
129.811
 21
400.98715
 31
0.0
  0
LINE
  5
3AC
330
1D
100
AcDbEntity
  8
0
100
AcDbLine
 10
127.399
 20
400.79515
 30
0.0
 11
129.399
 21
400.79515
 31
0.0
  0
LINE
  5
3AD
330
1D
100
AcDbEntity
  8
0
100
AcDbLine
 10
129.811
 20
400.98715
 30
0.0
 11
130.105
 21
401.37215
 31
0.0
  0
LINE
  5
3AE
330
1D
100
AcDbEntity
  8
0
100
AcDbLine
 10
130.105
 20
401.37215
 30
0.0
 11
130.105
 21
428.80015
 31
0.0
  0
LINE
  5
3AF
330
1D
100
AcDbEntity
  8
0
100
AcDbLine
 10
130.105
 20
400.79515
 30
0.0
 11
130.105
 21
367.37215
 31
0.0
  0
LINE
  5
3B0
330
1D
100
AcDbEntity
  8
0
100
AcDbLine
 10
129.399
 20
400.79515
 30
0.0
 11
130.105
 21
400.79515
 31
0.0
  0
LINE
  5
3B1
330
1D
100
AcDbEntity
  8
0
100
AcDbLine
 10
129.811
 20
366.98715
 30
0.0
 11
130.105
 21
367.37215
 31
0.0
  0
LINE
  5
3B2
330
1D
100
AcDbEntity
  8
0
100
AcDbLine
 10
130.105
 20
367.37215
 30
0.0
 11
130.105
 21
400.79515
 31
0.0
  0
LINE
  5
3BB
330
1D
100
AcDbEntity
  8
0
100
AcDbLine
 10
130.105
 20
414.79515
 30
0.0
 11
130.609
 21
411.74015
 31
0.0
  0
LINE
  5
3BC
330
1D
100
AcDbEntity
  8
0
100
AcDbLine
 10
130.105
 20
414.79515
 30
0.0
 11
130.105
 21
436.79515
 31
0.0
  0
LINE
  5
3BD
330
1D
100
AcDbEntity
  8
0
100
AcDbLine
 10
130.105
 20
414.79515
 30
0.0
 11
130.609
 21
417.85015
 31
0.0
  0
LINE
  5
3BE
330
1D
100
AcDbEntity
  8
0
100
AcDbLine
 10
121.105
 20
428.80015
 30
0.0
 11
130.105
 21
428.80015
 31
0.0
  0
LINE
  5
3BF
330
1D
100
AcDbEntity
  8
0
100
AcDbLine
 10
93.526
 20
428.80015
 30
0.0
 11
99.105
 21
428.80015
 31
0.0
  0
LINE
  5
3C0
330
1D
100
AcDbEntity
  8
0
100
AcDbLine
 10
130.105
 20
428.80015
 30
0.0
 11
130.105
 21
429.38615
 31
0.0
  0
LINE
  5
3C1
330
1D
100
AcDbEntity
  8
0
100
AcDbLine
 10
130.105
 20
428.80015
 30
0.0
 11
130.105
 21
401.37215
 31
0.0
  0
LINE
  5
3C2
330
1D
100
AcDbEntity
  8
0
100
AcDbLine
 10
130.105
 20
429.38615
 30
0.0
 11
130.105
 21
431.25115
 31
0.0
  0
LINE
  5
3C3
330
1D
100
AcDbEntity
  8
0
100
AcDbLine
 10
130.105
 20
429.38615
 30
0.0
 11
130.105
 21
428.80015
 31
0.0
  0
LINE
  5
3C4
330
1D
100
AcDbEntity
  8
0
100
AcDbLine
 10
121.105
 20
432.29515
 30
0.0
 11
121.105
 21
438.30115
 31
0.0
  0
LINE
  5
3C6
330
1D
100
AcDbEntity
  8
0
100
AcDbLine
 10
121.105
 20
438.30115
 30
0.0
 11
121.105
 21
442.91015
 31
0.0
  0
LINE
  5
3C7
330
1D
100
AcDbEntity
  8
0
100
AcDbLine
 10
121.105
 20
438.30115
 30
0.0
 11
121.105
 21
432.29515
 31
0.0
  0
LINE
  5
3C8
330
1D
100
AcDbEntity
  8
0
100
AcDbLine
 10
99.105
 20
432.29515
 30
0.0
 11
99.105
 21
438.30115
 31
0.0
  0
LINE
  5
3CA
330
1D
100
AcDbEntity
  8
0
100
AcDbLine
 10
99.105
 20
438.30115
 30
0.0
 11
99.105
 21
442.91015
 31
0.0
  0
LINE
  5
3CB
330
1D
100
AcDbEntity
  8
0
100
AcDbLine
 10
99.105
 20
438.30115
 30
0.0
 11
99.105
 21
432.29515
 31
0.0
  0
LINE
  5
3CC
330
1D
100
AcDbEntity
  8
0
100
AcDbLine
 10
130.105
 20
436.79515
 30
0.0
 11
130.105
 21
414.79515
 31
0.0
  0
LINE
  5
3CD
330
1D
100
AcDbEntity
  8
0
100
AcDbLine
 10
130.105
 20
436.79515
 30
0.0
 11
130.609
 21
439.85015
 31
0.0
  0
LINE
  5
3CE
330
1D
100
AcDbEntity
  8
0
100
AcDbLine
 10
130.105
 20
436.79515
 30
0.0
 11
130.105
 21
437.79515
 31
0.0
  0
LINE
  5
3CF
330
1D
100
AcDbEntity
  8
0
100
AcDbLine
 10
99.105
 20
446.79515
 30
0.0
 11
99.105
 21
445.80715
 31
0.0
  0
LINE
  5
3D0
330
1D
100
AcDbEntity
  8
0
100
AcDbLine
 10
99.105
 20
446.79515
 30
0.0
 11
99.501
 21
449.61115
 31
0.0
  0
LINE
  5
3D1
330
1D
100
AcDbEntity
  8
0
100
AcDbLine
 10
99.105
 20
445.80715
 30
0.0
 11
99.105
 21
446.79515
 31
0.0
  0
LINE
  5
3D2
330
1D
100
AcDbEntity
  8
0
100
AcDbLine
 10
99.105
 20
445.80715
 30
0.0
 11
99.105
 21
442.91015
 31
0.0
  0
LINE
  5
3D3
330
1D
100
AcDbEntity
  8
0
100
AcDbLine
 10
121.105
 20
442.91015
 30
0.0
 11
121.105
 21
445.80715
 31
0.0
  0
LINE
  5
3D4
330
1D
100
AcDbEntity
  8
0
100
AcDbLine
 10
121.105
 20
442.91015
 30
0.0
 11
121.105
 21
438.30115
 31
0.0
  0
LINE
  5
3D5
330
1D
100
AcDbEntity
  8
0
100
AcDbLine
 10
120.709
 20
449.61115
 30
0.0
 11
121.105
 21
446.79515
 31
0.0
  0
LINE
  5
3D6
330
1D
100
AcDbEntity
  8
0
100
AcDbLine
 10
121.105
 20
445.80715
 30
0.0
 11
121.105
 21
442.91015
 31
0.0
  0
LINE
  5
3D7
330
1D
100
AcDbEntity
  8
0
100
AcDbLine
 10
121.105
 20
445.80715
 30
0.0
 11
121.105
 21
446.79515
 31
0.0
  0
LINE
  5
3D8
330
1D
100
AcDbEntity
  8
0
100
AcDbLine
 10
121.105
 20
446.79515
 30
0.0
 11
121.105
 21
445.80715
 31
0.0
  0
LINE
  5
3D9
330
1D
100
AcDbEntity
  8
0
100
AcDbLine
 10
99.501
 20
449.61115
 30
0.0
 11
100.557
 21
452.25115
 31
0.0
  0
LINE
  5
3DA
330
1D
100
AcDbEntity
  8
0
100
AcDbLine
 10
99.105
 20
442.91015
 30
0.0
 11
99.105
 21
438.30115
 31
0.0
  0
LINE
  5
3DB
330
1D
100
AcDbEntity
  8
0
100
AcDbLine
 10
99.105
 20
442.91015
 30
0.0
 11
99.105
 21
445.80715
 31
0.0
  0
LINE
  5
3DC
330
1D
100
AcDbEntity
  8
0
100
AcDbLine
 10
101.105
 20
452.97725
 30
0.0
 11
101.105
 21
501.79515
 31
0.0
  0
LINE
  5
3DD
330
1D
100
AcDbEntity
  8
0
100
AcDbLine
 10
119.105
 20
452.97725
 30
0.0
 11
119.105
 21
501.79515
 31
0.0
  0
LINE
  5
3DE
330
1D
100
AcDbEntity
  8
0
100
AcDbLine
 10
117.893
 20
454.58315
 30
0.0
 11
119.653
 21
452.25115
 31
0.0
  0
LINE
  5
3DF
330
1D
100
AcDbEntity
  8
0
100
AcDbLine
 10
119.653
 20
452.25115
 30
0.0
 11
120.709
 21
449.61115
 31
0.0
  0
LINE
  5
3E0
330
1D
100
AcDbEntity
  8
0
100
AcDbLine
 10
112.921
 20
457.39915
 30
0.0
 11
115.561
 21
456.34315
 31
0.0
  0
LINE
  5
3E1
330
1D
100
AcDbEntity
  8
0
100
AcDbLine
 10
115.561
 20
456.34315
 30
0.0
 11
117.893
 21
454.58315
 31
0.0
  0
LINE
  5
3E2
330
1D
100
AcDbEntity
  8
0
100
AcDbLine
 10
110.105
 20
457.79515
 30
0.0
 11
112.921
 21
457.39915
 31
0.0
  0
LINE
  5
3E3
330
1D
100
AcDbEntity
  8
0
100
AcDbLine
 10
107.289
 20
457.39915
 30
0.0
 11
110.105
 21
457.79515
 31
0.0
  0
LINE
  5
3E4
330
1D
100
AcDbEntity
  8
0
100
AcDbLine
 10
104.649
 20
456.34315
 30
0.0
 11
107.289
 21
457.39915
 31
0.0
  0
LINE
  5
3E5
330
1D
100
AcDbEntity
  8
0
100
AcDbLine
 10
102.317
 20
454.58315
 30
0.0
 11
104.649
 21
456.34315
 31
0.0
  0
LINE
  5
3E6
330
1D
100
AcDbEntity
  8
0
100
AcDbLine
 10
100.557
 20
452.25115
 30
0.0
 11
102.317
 21
454.58315
 31
0.0
  0
LINE
  5
3E7
330
1D
100
AcDbEntity
  8
0
100
AcDbLine
 10
130.105
 20
459.51815
 30
0.0
 11
130.105
 21
462.38415
 31
0.0
  0
LINE
  5
3E8
330
1D
100
AcDbEntity
  8
0
100
AcDbLine
 10
130.105
 20
459.51815
 30
0.0
 11
130.105
 21
455.86215
 31
0.0
  0
LINE
  5
3E9
330
1D
100
AcDbEntity
  8
0
100
AcDbLine
 10
130.105
 20
455.86215
 30
0.0
 11
130.105
 21
459.51815
 31
0.0
  0
LINE
  5
3EA
330
1D
100
AcDbEntity
  8
0
100
AcDbLine
 10
130.105
 20
455.86215
 30
0.0
 11
130.105
 21
451.46015
 31
0.0
  0
LINE
  5
3EB
330
1D
100
AcDbEntity
  8
0
100
AcDbLine
 10
130.105
 20
451.46015
 30
0.0
 11
130.105
 21
455.86215
 31
0.0
  0
LINE
  5
3EC
330
1D
100
AcDbEntity
  8
0
100
AcDbLine
 10
130.105
 20
451.46015
 30
0.0
 11
130.105
 21
446.71515
 31
0.0
  0
LINE
  5
3ED
330
1D
100
AcDbEntity
  8
0
100
AcDbLine
 10
130.105
 20
446.71515
 30
0.0
 11
130.105
 21
451.46015
 31
0.0
  0
LINE
  5
3EE
330
1D
100
AcDbEntity
  8
0
100
AcDbLine
 10
130.105
 20
446.71515
 30
0.0
 11
130.105
 21
442.11015
 31
0.0
  0
LINE
  5
3EF
330
1D
100
AcDbEntity
  8
0
100
AcDbLine
 10
130.105
 20
442.11015
 30
0.0
 11
130.105
 21
446.71515
 31
0.0
  0
LINE
  5
3F0
330
1D
100
AcDbEntity
  8
0
100
AcDbLine
 10
130.105
 20
442.11015
 30
0.0
 11
130.105
 21
437.79515
 31
0.0
  0
LINE
  5
3F1
330
1D
100
AcDbEntity
  8
0
100
AcDbLine
 10
130.105
 20
437.79515
 30
0.0
 11
130.105
 21
442.11015
 31
0.0
  0
LINE
  5
3F2
330
1D
100
AcDbEntity
  8
0
100
AcDbLine
 10
130.105
 20
437.79515
 30
0.0
 11
130.105
 21
436.79515
 31
0.0
  0
LINE
  5
3F3
330
1D
100
AcDbEntity
  8
0
100
AcDbLine
 10
130.105
 20
437.79515
 30
0.0
 11
130.105
 21
434.12815
 31
0.0
  0
LINE
  5
3F4
330
1D
100
AcDbEntity
  8
0
100
AcDbLine
 10
130.105
 20
431.25115
 30
0.0
 11
130.105
 21
434.12815
 31
0.0
  0
LINE
  5
3F5
330
1D
100
AcDbEntity
  8
0
100
AcDbLine
 10
130.105
 20
431.25115
 30
0.0
 11
130.105
 21
429.38615
 31
0.0
  0
LINE
  5
406
330
1D
100
AcDbEntity
  8
0
100
AcDbLine
 10
133.105
 20
333.79815
 30
0.0
 11
133.105
 21
352.18815
 31
0.0
  0
LINE
  5
408
330
1D
100
AcDbEntity
  8
0
100
AcDbLine
 10
133.105
 20
352.18815
 30
0.0
 11
133.105
 21
364.09215
 31
0.0
  0
LINE
  5
409
330
1D
100
AcDbEntity
  8
0
100
AcDbLine
 10
133.105
 20
352.18815
 30
0.0
 11
133.105
 21
333.79815
 31
0.0
  0
LINE
  5
40A
330
1D
100
AcDbEntity
  8
0
100
AcDbLine
 10
133.105
 20
364.09215
 30
0.0
 11
133.105
 21
375.90115
 31
0.0
  0
LINE
  5
40B
330
1D
100
AcDbEntity
  8
0
100
AcDbLine
 10
133.105
 20
364.09215
 30
0.0
 11
133.105
 21
352.18815
 31
0.0
  0
LINE
  5
40C
330
1D
100
AcDbEntity
  8
0
100
AcDbLine
 10
133.105
 20
375.90115
 30
0.0
 11
133.105
 21
388.11615
 31
0.0
  0
LINE
  5
40D
330
1D
100
AcDbEntity
  8
0
100
AcDbLine
 10
133.105
 20
375.90115
 30
0.0
 11
133.105
 21
364.09215
 31
0.0
  0
LINE
  5
40E
330
1D
100
AcDbEntity
  8
0
100
AcDbLine
 10
133.105
 20
388.11615
 30
0.0
 11
133.105
 21
375.90115
 31
0.0
  0
LINE
  5
40F
330
1D
100
AcDbEntity
  8
0
100
AcDbLine
 10
133.105
 20
382.77215
 30
0.0
 11
133.105
 21
394.00515
 31
0.0
  0
LINE
  5
410
330
1D
100
AcDbEntity
  8
0
100
AcDbLine
 10
133.105
 20
394.00515
 30
0.0
 11
133.105
 21
402.96615
 31
0.0
  0
LINE
  5
411
330
1D
100
AcDbEntity
  8
0
100
AcDbLine
 10
133.105
 20
394.00515
 30
0.0
 11
133.105
 21
382.77215
 31
0.0
  0
LINE
  5
412
330
1D
100
AcDbEntity
  8
0
100
AcDbLine
 10
133.105
 20
402.96615
 30
0.0
 11
133.105
 21
419.23115
 31
0.0
  0
LINE
  5
413
330
1D
100
AcDbEntity
  8
0
100
AcDbLine
 10
133.105
 20
402.96615
 30
0.0
 11
133.105
 21
394.00515
 31
0.0
  0
LINE
  5
41E
330
1D
100
AcDbEntity
  8
0
100
AcDbLine
 10
157.105
 20
388.11615
 30
0.0
 11
157.105
 21
364.09215
 31
0.0
  0
LINE
  5
41F
330
1D
100
AcDbEntity
  8
0
100
AcDbLine
 10
157.105
 20
364.09215
 30
0.0
 11
157.105
 21
388.11615
 31
0.0
  0
LINE
  5
420
330
1D
100
AcDbEntity
  8
0
100
AcDbLine
 10
157.105
 20
364.09215
 30
0.0
 11
157.105
 21
352.18815
 31
0.0
  0
LINE
  5
421
330
1D
100
AcDbEntity
  8
0
100
AcDbLine
 10
157.105
 20
388.11615
 30
0.0
 11
157.105
 21
400.54315
 31
0.0
  0
LINE
  5
422
330
1D
100
AcDbEntity
  8
0
100
AcDbLine
 10
157.105
 20
409.60015
 30
0.0
 11
157.105
 21
400.54315
 31
0.0
  0
LINE
  5
423
330
1D
100
AcDbEntity
  8
0
100
AcDbLine
 10
157.105
 20
409.60015
 30
0.0
 11
157.105
 21
419.23115
 31
0.0
  0
LINE
  5
424
330
1D
100
AcDbEntity
  8
0
100
AcDbLine
 10
157.105
 20
400.54315
 30
0.0
 11
157.105
 21
409.60015
 31
0.0
  0
LINE
  5
425
330
1D
100
AcDbEntity
  8
0
100
AcDbLine
 10
157.105
 20
400.54315
 30
0.0
 11
157.105
 21
388.11615
 31
0.0
  0
LINE
  5
426
330
1D
100
AcDbEntity
  8
0
100
AcDbLine
 10
157.105
 20
352.18815
 30
0.0
 11
157.105
 21
364.09215
 31
0.0
  0
LINE
  5
427
330
1D
100
AcDbEntity
  8
0
100
AcDbLine
 10
157.105
 20
352.18815
 30
0.0
 11
157.105
 21
333.79815
 31
0.0
  0
LINE
  5
429
330
1D
100
AcDbEntity
  8
0
100
AcDbLine
 10
157.105
 20
333.79815
 30
0.0
 11
157.105
 21
352.18815
 31
0.0
  0
LINE
  5
4A4
330
1D
100
AcDbEntity
  8
0
100
AcDbLine
 10
157.105
 20
410.683197619048
 30
0.0
 11
157.601
 21
411.74015
 31
0.0
  0
LINE
  5
4A5
330
1D
100
AcDbEntity
  8
0
100
AcDbLine
 10
157.601
 20
411.74015
 30
0.0
 11
158.105
 21
414.79515
 31
0.0
  0
LINE
  5
4A6
330
1D
100
AcDbEntity
  8
0
100
AcDbLine
 10
131.953
 20
408.87615
 30
0.0
 11
133.105
 21
407.575007142857
 31
0.0
  0
LINE
  5
4A7
330
1D
100
AcDbEntity
  8
0
100
AcDbLine
 10
130.609
 20
439.85015
 30
0.0
 11
131.953
 21
442.71415
 31
0.0
  0
LINE
  5
4A8
330
1D
100
AcDbEntity
  8
0
100
AcDbLine
 10
133.105
 20
419.23115
 30
0.0
 11
133.105
 21
402.96615
 31
0.0
  0
LINE
  5
4AE
330
1D
100
AcDbEntity
  8
0
100
AcDbLine
 10
157.105
 20
421.43115
 30
0.0
 11
157.105
 21
409.60015
 31
0.0
  0
LINE
  5
4AF
330
1D
100
AcDbEntity
  8
0
100
AcDbLine
 10
133.105
 20
419.23115
 30
0.0
 11
133.105
 21
421.43115
 31
0.0
  0
LINE
  5
4B0
330
1D
100
AcDbEntity
  8
0
100
AcDbLine
 10
157.105
 20
418.907102380952
 30
0.0
 11
157.601
 21
417.85015
 31
0.0
  0
LINE
  5
4B1
330
1D
100
AcDbEntity
  8
0
100
AcDbLine
 10
157.601
 20
417.85015
 30
0.0
 11
158.105
 21
414.79515
 31
0.0
  0
LINE
  5
4B2
330
1D
100
AcDbEntity
  8
0
100
AcDbLine
 10
158.105
 20
414.79515
 30
0.0
 11
158.105
 21
445.79515
 31
0.0
  0
LINE
  5
4B3
330
1D
100
AcDbEntity
  8
0
100
AcDbLine
 10
156.673
 20
422.76115
 30
0.0
 11
157.105
 21
421.43115
 31
0.0
  0
LINE
  5
4B4
330
1D
100
AcDbEntity
  8
0
100
AcDbLine
 10
155.521
 20
424.00815
 30
0.0
 11
156.673
 21
422.76115
 31
0.0
  0
LINE
  5
4B5
330
1D
100
AcDbEntity
  8
0
100
AcDbLine
 10
153.361
 20
425.30515
 30
0.0
 11
155.233
 21
424.24515
 31
0.0
  0
LINE
  5
4B6
330
1D
100
AcDbEntity
  8
0
100
AcDbLine
 10
155.233
 20
424.24515
 30
0.0
 11
155.521
 21
424.00815
 31
0.0
  0
LINE
  5
4B7
330
1D
100
AcDbEntity
  8
0
100
AcDbLine
 10
155.233
 20
424.24515
 30
0.0
 11
155.376794258995
 21
424.09474020652
 31
0.0
  0
LINE
  5
4B8
330
1D
100
AcDbEntity
  8
0
100
AcDbLine
 10
148.129
 20
426.61515
 30
0.0
 11
150.913
 21
426.11615
 31
0.0
  0
LINE
  5
4B9
330
1D
100
AcDbEntity
  8
0
100
AcDbLine
 10
150.913
 20
426.11615
 30
0.0
 11
153.361
 21
425.30515
 31
0.0
  0
LINE
  5
4BA
330
1D
100
AcDbEntity
  8
0
100
AcDbLine
 10
145.105
 20
426.80215
 30
0.0
 11
148.129
 21
426.61515
 31
0.0
  0
LINE
  5
4BB
330
1D
100
AcDbEntity
  8
0
100
AcDbLine
 10
142.081
 20
426.61515
 30
0.0
 11
145.105
 21
426.80215
 31
0.0
  0
LINE
  5
4BC
330
1D
100
AcDbEntity
  8
0
100
AcDbLine
 10
139.297
 20
426.11615
 30
0.0
 11
142.081
 21
426.61515
 31
0.0
  0
LINE
  5
4BD
330
1D
100
AcDbEntity
  8
0
100
AcDbLine
 10
136.849
 20
425.30515
 30
0.0
 11
139.297
 21
426.11615
 31
0.0
  0
LINE
  5
4BE
330
1D
100
AcDbEntity
  8
0
100
AcDbLine
 10
134.977
 20
424.24515
 30
0.0
 11
136.849
 21
425.30515
 31
0.0
  0
LINE
  5
4BF
330
1D
100
AcDbEntity
  8
0
100
AcDbLine
 10
134.833205741005
 20
424.09474020652
 30
0.0
 11
134.977
 21
424.24515
 31
0.0
  0
LINE
  5
4C0
330
1D
100
AcDbEntity
  8
0
100
AcDbLine
 10
134.689
 20
424.00815
 30
0.0
 11
134.977
 21
424.24515
 31
0.0
  0
LINE
  5
4C1
330
1D
100
AcDbEntity
  8
0
100
AcDbLine
 10
133.537
 20
422.76115
 30
0.0
 11
134.689
 21
424.00815
 31
0.0
  0
LINE
  5
4C2
330
1D
100
AcDbEntity
  8
0
100
AcDbLine
 10
133.105
 20
421.43115
 30
0.0
 11
133.105
 21
419.23115
 31
0.0
  0
LINE
  5
4C3
330
1D
100
AcDbEntity
  8
0
100
AcDbLine
 10
133.105
 20
421.43115
 30
0.0
 11
133.537
 21
422.76115
 31
0.0
  0
LINE
  5
4C4
330
1D
100
AcDbEntity
  8
0
100
AcDbLine
 10
154.017
 20
445.24415
 30
0.0
 11
156.257
 21
442.71415
 31
0.0
  0
LINE
  5
4C5
330
1D
100
AcDbEntity
  8
0
100
AcDbLine
 10
156.257
 20
442.71415
 30
0.0
 11
157.601
 21
439.85015
 31
0.0
  0
LINE
  5
4C6
330
1D
100
AcDbEntity
  8
0
100
AcDbLine
 10
220.105
 20
427.85415
 30
0.0
 11
220.105
 21
427.90515
 31
0.0
  0
LINE
  5
4C7
330
1D
100
AcDbEntity
  8
0
100
AcDbLine
 10
234.463
 20
427.81815
 30
0.0
 11
248.575
 21
427.88215
 31
0.0
  0
LINE
  5
4C8
330
1D
100
AcDbEntity
  8
0
100
AcDbLine
 10
220.105
 20
427.79715
 30
0.0
 11
234.463
 21
427.81815
 31
0.0
  0
LINE
  5
4C9
330
1D
100
AcDbEntity
  8
0
100
AcDbLine
 10
220.105
 20
427.79715
 30
0.0
 11
220.105
 21
427.90515
 31
0.0
  0
LINE
  5
4CB
330
1D
100
AcDbEntity
  8
0
100
AcDbLine
 10
220.105
 20
427.90515
 30
0.0
 11
220.105
 21
427.85415
 31
0.0
  0
LINE
  5
4CC
330
1D
100
AcDbEntity
  8
0
100
AcDbLine
 10
205.758233112537
 20
428.008163155647
 30
0.0
 11
220.105
 21
427.85415
 31
0.0
  0
LINE
  5
4D0
330
1D
100
AcDbEntity
  8
0
100
AcDbLine
 10
248.575
 20
427.88215
 30
0.0
 11
262.2
 21
427.98715
 31
0.0
  0
LINE
  5
4D1
330
1D
100
AcDbEntity
  8
0
100
AcDbLine
 10
262.2
 20
427.98715
 30
0.0
 11
275.105
 21
428.13115
 31
0.0
  0
LINE
  5
4D3
330
1D
100
AcDbEntity
  8
0
100
AcDbLine
 10
191.635
 20
428.34615
 30
0.0
 11
205.747
 21
427.98515
 31
0.0
  0
LINE
  5
4D4
330
1D
100
AcDbEntity
  8
0
100
AcDbLine
 10
275.105
 20
428.13115
 30
0.0
 11
287.069
 21
428.31215
 31
0.0
  0
LINE
  5
4D5
330
1D
100
AcDbEntity
  8
0
100
AcDbLine
 10
287.069
 20
428.31215
 30
0.0
 11
297.887
 21
428.52815
 31
0.0
  0
LINE
  5
4D7
330
1D
100
AcDbEntity
  8
0
100
AcDbLine
 10
178.01
 20
428.94215
 30
0.0
 11
191.635
 21
428.34615
 31
0.0
  0
LINE
  5
4DD
330
1D
100
AcDbEntity
  8
0
100
AcDbLine
 10
177.226
 20
428.98415
 30
0.0
 11
178.01
 21
428.94215
 31
0.0
  0
LINE
  5
4E1
330
1D
100
AcDbEntity
  8
0
100
AcDbLine
 10
164.081
 20
429.81815
 30
0.0
 11
177.226
 21
428.98415
 31
0.0
  0
LINE
  5
4E2
330
1D
100
AcDbEntity
  8
0
100
AcDbLine
 10
158.105
 20
430.332578360413
 30
0.0
 11
164.081
 21
429.81815
 31
0.0
  0
LINE
  5
4EC
330
1D
100
AcDbEntity
  8
0
100
AcDbLine
 10
294.176
 20
434.55815
 30
0.0
 11
311.11
 21
433.19315
 31
0.0
  0
LINE
  5
4F0
330
1D
100
AcDbEntity
  8
0
100
AcDbLine
 10
163.816
 20
443.91815
 30
0.0
 11
199.609
 21
440.08815
 31
0.0
  0
LINE
  5
4F1
330
1D
100
AcDbEntity
  8
0
100
AcDbLine
 10
199.609
 20
440.08815
 30
0.0
 11
227.757
 21
438.31315
 31
0.0
  0
LINE
  5
4F3
330
1D
100
AcDbEntity
  8
0
100
AcDbLine
 10
263.126
 20
436.38415
 30
0.0
 11
294.176
 21
434.55815
 31
0.0
  0
LINE
  5
4F5
330
1D
100
AcDbEntity
  8
0
100
AcDbLine
 10
227.757
 20
438.31315
 30
0.0
 11
263.126
 21
436.38415
 31
0.0
  0
LINE
  5
4FA
330
1D
100
AcDbEntity
  8
0
100
AcDbLine
 10
315.368
 20
429.04415
 30
0.0
 11
321.732
 21
429.33715
 31
0.0
  0
LINE
  5
4FB
330
1D
100
AcDbEntity
  8
0
100
AcDbLine
 10
321.732
 20
429.33715
 30
0.0
 11
326.357
 21
429.64615
 31
0.0
  0
LINE
  5
4FC
330
1D
100
AcDbEntity
  8
0
100
AcDbLine
 10
326.357
 20
429.64615
 30
0.0
 11
329.164
 21
429.96515
 31
0.0
  0
LINE
  5
4FD
330
1D
100
AcDbEntity
  8
0
100
AcDbLine
 10
329.164
 20
429.96515
 30
0.0
 11
331.194
 21
430.24715
 31
0.0
  0
LINE
  5
4FE
330
1D
100
AcDbEntity
  8
0
100
AcDbLine
 10
322.967128203703
 20
431.998272930721
 30
0.0
 11
328.057
 21
430.57915
 31
0.0
  0
LINE
  5
4FF
330
1D
100
AcDbEntity
  8
0
100
AcDbLine
 10
332.153
 20
430.57915
 30
0.0
 11
334.073
 21
431.34715
 31
0.0
  0
LINE
  5
500
330
1D
100
AcDbEntity
  8
0
100
AcDbLine
 10
331.194
 20
430.24715
 30
0.0
 11
332.153
 21
430.57915
 31
0.0
  0
LINE
  5
501
330
1D
100
AcDbEntity
  8
0
100
AcDbLine
 10
334.073
 20
431.34715
 30
0.0
 11
335.769
 21
432.62615
 31
0.0
  0
LINE
  5
502
330
1D
100
AcDbEntity
  8
0
100
AcDbLine
 10
311.11
 20
433.19315
 30
0.0
 11
324.566
 21
431.83715
 31
0.0
  0
LINE
  5
503
330
1D
100
AcDbEntity
  8
0
100
AcDbLine
 10
335.769
 20
432.62615
 30
0.0
 11
337.049
 21
434.32215
 31
0.0
  0
LINE
  5
504
330
1D
100
AcDbEntity
  8
0
100
AcDbLine
 10
337.049
 20
434.32215
 30
0.0
 11
337.817
 21
436.24115
 31
0.0
  0
LINE
  5
505
330
1D
100
AcDbEntity
  8
0
100
AcDbLine
 10
334.073
 20
445.23115
 30
0.0
 11
335.769
 21
443.95115
 31
0.0
  0
LINE
  5
506
330
1D
100
AcDbEntity
  8
0
100
AcDbLine
 10
335.769
 20
443.95115
 30
0.0
 11
337.049
 21
442.25615
 31
0.0
  0
LINE
  5
507
330
1D
100
AcDbEntity
  8
0
100
AcDbLine
 10
337.049
 20
442.25615
 30
0.0
 11
337.817
 21
440.33615
 31
0.0
  0
LINE
  5
508
330
1D
100
AcDbEntity
  8
0
100
AcDbLine
 10
337.817
 20
440.33615
 30
0.0
 11
338.105
 21
438.28915
 31
0.0
  0
LINE
  5
509
330
1D
100
AcDbEntity
  8
0
100
AcDbLine
 10
337.817
 20
436.24115
 30
0.0
 11
338.105
 21
438.28915
 31
0.0
  0
LINE
  5
50A
330
1D
100
AcDbEntity
  8
0
100
AcDbLine
 10
307.374
 20
428.77315
 30
0.0
 11
315.368
 21
429.04415
 31
0.0
  0
LINE
  5
50B
330
1D
100
AcDbEntity
  8
0
100
AcDbLine
 10
297.887
 20
428.52815
 30
0.0
 11
307.374
 21
428.77315
 31
0.0
  0
LINE
  5
50C
330
1D
100
AcDbEntity
  8
0
100
AcDbLine
 10
157.601
 20
439.85015
 30
0.0
 11
158.105
 21
445.79515
 31
0.0
  0
LINE
  5
50D
330
1D
100
AcDbEntity
  8
0
100
AcDbLine
 10
133.105
 20
446.71515
 30
0.0
 11
133.105
 21
451.46015
 31
0.0
  0
LINE
  5
50E
330
1D
100
AcDbEntity
  8
0
100
AcDbLine
 10
133.105
 20
451.46015
 30
0.0
 11
133.105
 21
455.86215
 31
0.0
  0
LINE
  5
50F
330
1D
100
AcDbEntity
  8
0
100
AcDbLine
 10
133.105
 20
451.46015
 30
0.0
 11
133.105
 21
446.71515
 31
0.0
  0
LINE
  5
510
330
1D
100
AcDbEntity
  8
0
100
AcDbLine
 10
133.105
 20
455.86215
 30
0.0
 11
133.105
 21
459.51815
 31
0.0
  0
LINE
  5
511
330
1D
100
AcDbEntity
  8
0
100
AcDbLine
 10
133.105
 20
455.86215
 30
0.0
 11
133.105
 21
451.46015
 31
0.0
  0
LINE
  5
512
330
1D
100
AcDbEntity
  8
0
100
AcDbLine
 10
133.105
 20
462.38415
 30
0.0
 11
133.105
 21
459.51815
 31
0.0
  0
LINE
  5
513
330
1D
100
AcDbEntity
  8
0
100
AcDbLine
 10
133.105
 20
462.38415
 30
0.0
 11
133.105
 21
464.12615
 31
0.0
  0
LINE
  5
514
330
1D
100
AcDbEntity
  8
0
100
AcDbLine
 10
133.105
 20
459.51815
 30
0.0
 11
133.105
 21
462.38415
 31
0.0
  0
LINE
  5
515
330
1D
100
AcDbEntity
  8
0
100
AcDbLine
 10
133.105
 20
459.51815
 30
0.0
 11
133.105
 21
455.86215
 31
0.0
  0
LINE
  5
516
330
1D
100
AcDbEntity
  8
0
100
AcDbLine
 10
137.113
 20
461.63215
 30
0.0
 11
140.438
 21
462.21615
 31
0.0
  0
LINE
  5
517
330
1D
100
AcDbEntity
  8
0
100
AcDbLine
 10
134.159
 20
460.09115
 30
0.0
 11
137.113
 21
461.63215
 31
0.0
  0
LINE
  5
518
330
1D
100
AcDbEntity
  8
0
100
AcDbLine
 10
133.105
 20
458.955448277425
 30
0.0
 11
134.159
 21
460.09115
 31
0.0
  0
LINE
  5
519
330
1D
100
AcDbEntity
  8
0
100
AcDbLine
 10
158.086815897085
 20
445.955366690546
 30
0.0
 11
163.816
 21
443.91815
 31
0.0
  0
LINE
  5
51A
330
1D
100
AcDbEntity
  8
0
100
AcDbLine
 10
147.689
 20
448.29915
 30
0.0
 11
151.049
 21
447.15315
 31
0.0
  0
LINE
  5
51B
330
1D
100
AcDbEntity
  8
0
100
AcDbLine
 10
151.049
 20
447.15315
 30
0.0
 11
154.017
 21
445.24415
 31
0.0
  0
LINE
  5
51C
330
1D
100
AcDbEntity
  8
0
100
AcDbLine
 10
326.601
 20
447.55015
 30
0.0
 11
332.153
 21
445.99915
 31
0.0
  0
LINE
  5
51D
330
1D
100
AcDbEntity
  8
0
100
AcDbLine
 10
324.566
 20
447.83315
 30
0.0
 11
326.601
 21
447.55015
 31
0.0
  0
LINE
  5
51E
330
1D
100
AcDbEntity
  8
0
100
AcDbLine
 10
332.153
 20
445.99915
 30
0.0
 11
334.073
 21
445.23115
 31
0.0
  0
LINE
  5
51F
330
1D
100
AcDbEntity
  8
0
100
AcDbLine
 10
158.105
 20
445.79515
 30
0.0
 11
158.105
 21
414.79515
 31
0.0
  0
LINE
  5
520
330
1D
100
AcDbEntity
  8
0
100
AcDbLine
 10
140.438
 20
462.21615
 30
0.0
 11
144.346
 21
461.86015
 31
0.0
  0
LINE
  5
521
330
1D
100
AcDbEntity
  8
0
100
AcDbLine
 10
144.73486364154
 20
461.715324928022
 30
0.0
 11
147.055
 21
463.28715
 31
0.0
  0
LINE
  5
522
330
1D
100
AcDbEntity
  8
0
100
AcDbLine
 10
144.346
 20
461.86015
 30
0.0
 11
147.85
 21
460.55515
 31
0.0
  0
LINE
  5
523
330
1D
100
AcDbEntity
  8
0
100
AcDbLine
 10
147.85
 20
460.55515
 30
0.0
 11
151.175
 21
458.55615
 31
0.0
  0
LINE
  5
524
330
1D
100
AcDbEntity
  8
0
100
AcDbLine
 10
151.175
 20
458.55615
 30
0.0
 11
154.05
 21
455.74915
 31
0.0
  0
LINE
  5
525
330
1D
100
AcDbEntity
  8
0
100
AcDbLine
 10
154.05
 20
455.74915
 30
0.0
 11
156.566
 21
452.34315
 31
0.0
  0
LINE
  5
526
330
1D
100
AcDbEntity
  8
0
100
AcDbLine
 10
311.11
 20
449.18915
 30
0.0
 11
324.566
 21
447.83315
 31
0.0
  0
LINE
  5
527
330
1D
100
AcDbEntity
  8
0
100
AcDbLine
 10
294.176
 20
450.55415
 30
0.0
 11
311.11
 21
449.18915
 31
0.0
  0
LINE
  5
528
330
1D
100
AcDbEntity
  8
0
100
AcDbLine
 10
185.987405842343
 20
457.500443120092
 30
0.0
 11
187.02
 21
457.67115
 31
0.0
  0
LINE
  5
529
330
1D
100
AcDbEntity
  8
0
100
AcDbLine
 10
187.02
 20
457.67115
 30
0.0
 11
200.475
 21
459.82515
 31
0.0
  0
LINE
  5
52A
330
1D
100
AcDbEntity
  8
0
100
AcDbLine
 10
166.134
 20
459.42715
 30
0.0
 11
199.609
 21
456.08415
 31
0.0
  0
LINE
  5
52B
330
1D
100
AcDbEntity
  8
0
100
AcDbLine
 10
166.134
 20
459.42715
 30
0.0
 11
166.134
 21
459.42715
 31
0.0
  0
LINE
  5
52C
330
1D
100
AcDbEntity
  8
0
100
AcDbLine
 10
263.126
 20
452.38015
 30
0.0
 11
294.176
 21
450.55415
 31
0.0
  0
LINE
  5
52E
330
1D
100
AcDbEntity
  8
0
100
AcDbLine
 10
200.475
 20
459.82515
 30
0.0
 11
214.42
 21
461.99215
 31
0.0
  0
LINE
  5
531
330
1D
100
AcDbEntity
  8
0
100
AcDbLine
 10
214.416
 20
462.02015
 30
0.0
 11
228.618
 21
464.12815
 31
0.0
  0
LINE
  5
534
330
1D
100
AcDbEntity
  8
0
100
AcDbLine
 10
227.757
 20
454.30915
 30
0.0
 11
263.126
 21
452.38015
 31
0.0
  0
LINE
  5
535
330
1D
100
AcDbEntity
  8
0
100
AcDbLine
 10
199.609
 20
456.08415
 30
0.0
 11
227.757
 21
454.30915
 31
0.0
  0
LINE
  5
537
330
1D
100
AcDbEntity
  8
0
100
AcDbLine
 10
156.566
 20
452.34315
 30
0.0
 11
157.735
 21
449.05515
 31
0.0
  0
LINE
  5
538
330
1D
100
AcDbEntity
  8
0
100
AcDbLine
 10
157.735
 20
449.05515
 30
0.0
 11
158.105
 21
445.79515
 31
0.0
  0
LINE
  5
539
330
1D
100
AcDbEntity
  8
0
100
AcDbLine
 10
144.105
 20
448.72815
 30
0.0
 11
147.689
 21
448.29915
 31
0.0
  0
LINE
  5
53A
330
1D
100
AcDbEntity
  8
0
100
AcDbLine
 10
140.521
 20
448.29915
 30
0.0
 11
144.105
 21
448.72815
 31
0.0
  0
LINE
  5
53B
330
1D
100
AcDbEntity
  8
0
100
AcDbLine
 10
137.161
 20
447.15315
 30
0.0
 11
140.521
 21
448.29915
 31
0.0
  0
LINE
  5
53C
330
1D
100
AcDbEntity
  8
0
100
AcDbLine
 10
134.193
 20
445.24415
 30
0.0
 11
137.161
 21
447.15315
 31
0.0
  0
LINE
  5
53D
330
1D
100
AcDbEntity
  8
0
100
AcDbLine
 10
131.953
 20
442.71415
 30
0.0
 11
134.193
 21
445.24415
 31
0.0
  0
LINE
  5
53E
330
1D
100
AcDbEntity
  8
0
100
AcDbLine
 10
131.953
 20
420.71415
 30
0.0
 11
133.404677326321
 21
422.353767694461
 31
0.0
  0
LINE
  5
53F
330
1D
100
AcDbEntity
  8
0
100
AcDbLine
 10
130.609
 20
417.85015
 30
0.0
 11
131.953
 21
420.71415
 31
0.0
  0
LINE
  5
540
330
1D
100
AcDbEntity
  8
0
100
AcDbLine
 10
130.609
 20
411.74015
 30
0.0
 11
131.953
 21
408.87615
 31
0.0
  0
LINE
  5
541
330
1D
100
AcDbEntity
  8
0
100
AcDbLine
 10
130.105
 20
434.12815
 30
0.0
 11
130.105
 21
437.79515
 31
0.0
  0
LINE
  5
542
330
1D
100
AcDbEntity
  8
0
100
AcDbLine
 10
130.105
 20
434.12815
 30
0.0
 11
130.105
 21
431.25115
 31
0.0
  0
LINE
  5
545
330
1D
100
AcDbEntity
  8
0
100
AcDbLine
 10
147.055
 20
463.28715
 30
0.0
 11
148.528
 21
464.18815
 31
0.0
  0
LINE
  5
546
330
1D
100
AcDbEntity
  8
0
100
AcDbLine
 10
130.105
 20
462.38415
 30
0.0
 11
130.105
 21
464.12615
 31
0.0
  0
LINE
  5
547
330
1D
100
AcDbEntity
  8
0
100
AcDbLine
 10
130.105
 20
462.38415
 30
0.0
 11
130.105
 21
459.51815
 31
0.0
  0
LINE
  5
548
330
1D
100
AcDbEntity
  8
0
100
AcDbLine
 10
92.772
 20
462.00915
 30
0.0
 11
92.772
 21
463.71615
 31
0.0
  0
LINE
  5
549
330
1D
100
AcDbEntity
  8
0
100
AcDbLine
 10
92.772
 20
462.00915
 30
0.0
 11
92.772
 21
459.18015
 31
0.0
  0
LINE
  5
54A
330
1D
100
AcDbEntity
  8
0
100
AcDbLine
 10
133.105
 20
464.12615
 30
0.0
 11
133.105
 21
464.79015
 31
0.0
  0
LINE
  5
54B
330
1D
100
AcDbEntity
  8
0
100
AcDbLine
 10
133.105
 20
464.12615
 30
0.0
 11
133.105
 21
462.38415
 31
0.0
  0
LINE
  5
54C
330
1D
100
AcDbEntity
  8
0
100
AcDbLine
 10
133.105
 20
464.307383944954
 30
0.0
 11
140.155
 21
465.71415
 31
0.0
  0
LINE
  5
54E
330
1D
100
AcDbEntity
  8
0
100
AcDbLine
 10
228.618
 20
464.12915
 30
0.0
 11
242.822
 21
466.22915
 31
0.0
  0
LINE
  5
550
330
1D
100
AcDbEntity
  8
0
100
AcDbLine
 10
154.722
 20
464.14615
 30
0.0
 11
166.134
 21
459.42715
 31
0.0
  0
LINE
  5
551
330
1D
100
AcDbEntity
  8
0
100
AcDbLine
 10
151.63
 20
464.76815
 30
0.0
 11
154.722
 21
464.14615
 31
0.0
  0
LINE
  5
552
330
1D
100
AcDbEntity
  8
0
100
AcDbLine
 10
148.528
 20
464.18815
 30
0.0
 11
151.63
 21
464.76815
 31
0.0
  0
LINE
  5
553
330
1D
100
AcDbEntity
  8
0
100
AcDbLine
 10
133.105
 20
464.79015
 30
0.0
 11
133.105
 21
464.12615
 31
0.0
  0
LINE
  5
554
330
1D
100
AcDbEntity
  8
0
100
AcDbLine
 10
130.105
 20
464.79015
 30
0.0
 11
130.105
 21
464.12615
 31
0.0
  0
LINE
  5
555
330
1D
100
AcDbEntity
  8
0
100
AcDbLine
 10
130.105
 20
464.79015
 30
0.0
 11
133.105
 21
464.79015
 31
0.0
  0
LINE
  5
556
330
1D
100
AcDbEntity
  8
0
100
AcDbLine
 10
130.105
 20
464.79015
 30
0.0
 11
130.105
 21
501.79515
 31
0.0
  0
LINE
  5
557
330
1D
100
AcDbEntity
  8
0
100
AcDbLine
 10
130.105
 20
464.12615
 30
0.0
 11
130.105
 21
464.79015
 31
0.0
  0
LINE
  5
558
330
1D
100
AcDbEntity
  8
0
100
AcDbLine
 10
130.105
 20
464.12615
 30
0.0
 11
130.105
 21
462.38415
 31
0.0
  0
LINE
  5
559
330
1D
100
AcDbEntity
  8
0
100
AcDbLine
 10
119.105
 20
464.79015
 30
0.0
 11
130.105
 21
464.79015
 31
0.0
  0
LINE
  5
55A
330
1D
100
AcDbEntity
  8
0
100
AcDbLine
 10
92.811
 20
501.79515
 30
0.0
 11
95.987
 21
501.79515
 31
0.0
  0
LINE
  5
55B
330
1D
100
AcDbEntity
  8
0
100
AcDbLine
 10
95.987
 20
501.79515
 30
0.0
 11
100.164
 21
501.79515
 31
0.0
  0
LINE
  5
55C
330
1D
100
AcDbEntity
  8
0
100
AcDbLine
 10
100.164
 20
501.79515
 30
0.0
 11
101.105
 21
501.79515
 31
0.0
  0
LINE
  5
55D
330
1D
100
AcDbEntity
  8
0
100
AcDbLine
 10
102.293
 20
501.79515
 30
0.0
 11
103.733
 21
501.79515
 31
0.0
  0
LINE
  5
55E
330
1D
100
AcDbEntity
  8
0
100
AcDbLine
 10
101.429
 20
501.79515
 30
0.0
 11
102.293
 21
501.79515
 31
0.0
  0
LINE
  5
55F
330
1D
100
AcDbEntity
  8
0
100
AcDbLine
 10
101.105
 20
501.79515
 30
0.0
 11
101.105
 21
452.97725
 31
0.0
  0
LINE
  5
560
330
1D
100
AcDbEntity
  8
0
100
AcDbLine
 10
101.105
 20
501.79515
 30
0.0
 11
101.429
 21
501.79515
 31
0.0
  0
LINE
  5
561
330
1D
100
AcDbEntity
  8
0
100
AcDbLine
 10
107.801
 20
501.79515
 30
0.0
 11
110.105
 21
501.79515
 31
0.0
  0
LINE
  5
562
330
1D
100
AcDbEntity
  8
0
100
AcDbLine
 10
105.641
 20
501.79515
 30
0.0
 11
107.801
 21
501.79515
 31
0.0
  0
LINE
  5
563
330
1D
100
AcDbEntity
  8
0
100
AcDbLine
 10
103.733
 20
501.79515
 30
0.0
 11
105.641
 21
501.79515
 31
0.0
  0
LINE
  5
564
330
1D
100
AcDbEntity
  8
0
100
AcDbLine
 10
112.409
 20
501.79515
 30
0.0
 11
114.569
 21
501.79515
 31
0.0
  0
LINE
  5
565
330
1D
100
AcDbEntity
  8
0
100
AcDbLine
 10
114.569
 20
501.79515
 30
0.0
 11
116.477
 21
501.79515
 31
0.0
  0
LINE
  5
566
330
1D
100
AcDbEntity
  8
0
100
AcDbLine
 10
116.477
 20
501.79515
 30
0.0
 11
117.917
 21
501.79515
 31
0.0
  0
LINE
  5
567
330
1D
100
AcDbEntity
  8
0
100
AcDbLine
 10
119.105
 20
501.79515
 30
0.0
 11
120.046
 21
501.79515
 31
0.0
  0
LINE
  5
568
330
1D
100
AcDbEntity
  8
0
100
AcDbLine
 10
117.917
 20
501.79515
 30
0.0
 11
118.781
 21
501.79515
 31
0.0
  0
LINE
  5
569
330
1D
100
AcDbEntity
  8
0
100
AcDbLine
 10
118.781
 20
501.79515
 30
0.0
 11
119.105
 21
501.79515
 31
0.0
  0
LINE
  5
56A
330
1D
100
AcDbEntity
  8
0
100
AcDbLine
 10
110.105
 20
501.79515
 30
0.0
 11
117.665
 21
501.79515
 31
0.0
  0
LINE
  5
56B
330
1D
100
AcDbEntity
  8
0
100
AcDbLine
 10
110.105
 20
501.79515
 30
0.0
 11
112.409
 21
501.79515
 31
0.0
  0
LINE
  5
56C
330
1D
100
AcDbEntity
  8
0
100
AcDbLine
 10
117.665
 20
501.79515
 30
0.0
 11
124.625
 21
501.79515
 31
0.0
  0
LINE
  5
56D
330
1D
100
AcDbEntity
  8
0
100
AcDbLine
 10
102.545
 20
501.79515
 30
0.0
 11
110.105
 21
501.79515
 31
0.0
  0
LINE
  5
56E
330
1D
100
AcDbEntity
  8
0
100
AcDbLine
 10
95.585
 20
501.79515
 30
0.0
 11
101.105
 21
501.79515
 31
0.0
  0
LINE
  5
56F
330
1D
100
AcDbEntity
  8
0
100
AcDbLine
 10
95.585
 20
501.79515
 30
0.0
 11
102.545
 21
501.79515
 31
0.0
  0
LINE
  5
570
330
1D
100
AcDbEntity
  8
0
100
AcDbLine
 10
124.223
 20
501.79515
 30
0.0
 11
127.399
 21
501.79515
 31
0.0
  0
LINE
  5
571
330
1D
100
AcDbEntity
  8
0
100
AcDbLine
 10
127.399
 20
501.79515
 30
0.0
 11
129.399
 21
501.79515
 31
0.0
  0
LINE
  5
572
330
1D
100
AcDbEntity
  8
0
100
AcDbLine
 10
129.399
 20
501.79515
 30
0.0
 11
130.105
 21
501.79515
 31
0.0
  0
LINE
  5
573
330
1D
100
AcDbEntity
  8
0
100
AcDbLine
 10
120.046
 20
501.79515
 30
0.0
 11
124.223
 21
501.79515
 31
0.0
  0
LINE
  5
574
330
1D
100
AcDbEntity
  8
0
100
AcDbLine
 10
130.105
 20
501.79515
 30
0.0
 11
137.164
 21
501.79515
 31
0.0
  0
LINE
  5
575
330
1D
100
AcDbEntity
  8
0
100
AcDbLine
 10
130.105
 20
501.79515
 30
0.0
 11
130.105
 21
464.79015
 31
0.0
  0
LINE
  5
576
330
1D
100
AcDbEntity
  8
0
100
AcDbLine
 10
119.105
 20
501.79515
 30
0.0
 11
124.625
 21
501.79515
 31
0.0
  0
LINE
  5
577
330
1D
100
AcDbEntity
  8
0
100
AcDbLine
 10
119.105
 20
501.79515
 30
0.0
 11
119.105
 21
452.97725
 31
0.0
  0
LINE
  5
578
330
1D
100
AcDbEntity
  8
0
100
AcDbLine
 10
124.625
 20
501.79515
 30
0.0
 11
130.745
 21
501.79515
 31
0.0
  0
LINE
  5
579
330
1D
100
AcDbEntity
  8
0
100
AcDbLine
 10
137.164
 20
501.79515
 30
0.0
 11
143.164
 21
501.79515
 31
0.0
  0
LINE
  5
57A
330
1D
100
AcDbEntity
  8
0
100
AcDbLine
 10
130.745
 20
501.79515
 30
0.0
 11
135.425
 21
501.79515
 31
0.0
  0
LINE
  5
57B
330
1D
100
AcDbEntity
  8
0
100
AcDbLine
 10
135.425
 20
501.79515
 30
0.0
 11
138.305
 21
501.79515
 31
0.0
  0
LINE
  5
57C
330
1D
100
AcDbEntity
  8
0
100
AcDbLine
 10
138.305
 20
501.79515
 30
0.0
 11
139.385
 21
501.79515
 31
0.0
  0
LINE
  5
57D
330
1D
100
AcDbEntity
  8
0
100
AcDbLine
 10
95.225
 20
502.39515
 30
0.0
 11
102.425
 21
502.39515
 31
0.0
  0
LINE
  5
57E
330
1D
100
AcDbEntity
  8
0
100
AcDbLine
 10
110.105
 20
502.39515
 30
0.0
 11
117.785
 21
502.39515
 31
0.0
  0
LINE
  5
57F
330
1D
100
AcDbEntity
  8
0
100
AcDbLine
 10
117.785
 20
502.39515
 30
0.0
 11
124.985
 21
502.39515
 31
0.0
  0
LINE
  5
580
330
1D
100
AcDbEntity
  8
0
100
AcDbLine
 10
124.985
 20
502.39515
 30
0.0
 11
131.345
 21
502.39515
 31
0.0
  0
LINE
  5
581
330
1D
100
AcDbEntity
  8
0
100
AcDbLine
 10
110.105
 20
511.79515
 30
0.0
 11
117.785
 21
511.79515
 31
0.0
  0
LINE
  5
582
330
1D
100
AcDbEntity
  8
0
100
AcDbLine
 10
117.785
 20
511.79515
 30
0.0
 11
124.985
 21
511.79515
 31
0.0
  0
LINE
  5
583
330
1D
100
AcDbEntity
  8
0
100
AcDbLine
 10
131.345
 20
502.39515
 30
0.0
 11
136.145
 21
502.39515
 31
0.0
  0
LINE
  5
584
330
1D
100
AcDbEntity
  8
0
100
AcDbLine
 10
136.145
 20
502.39515
 30
0.0
 11
139.025
 21
502.39515
 31
0.0
  0
LINE
  5
585
330
1D
100
AcDbEntity
  8
0
100
AcDbLine
 10
124.985
 20
511.79515
 30
0.0
 11
131.345
 21
511.79515
 31
0.0
  0
LINE
  5
586
330
1D
100
AcDbEntity
  8
0
100
AcDbLine
 10
131.345
 20
511.79515
 30
0.0
 11
136.145
 21
511.79515
 31
0.0
  0
LINE
  5
587
330
1D
100
AcDbEntity
  8
0
100
AcDbLine
 10
140.0774
 20
502.37215
 30
0.0
 11
144.693
 21
502.37215
 31
0.0
  0
LINE
  5
588
330
1D
100
AcDbEntity
  8
0
100
AcDbLine
 10
140.105
 20
511.79515
 30
0.0
 11
144.693
 21
511.79515
 31
0.0
  0
LINE
  5
589
330
1D
100
AcDbEntity
  8
0
100
AcDbLine
 10
140.105
 20
511.79515
 30
0.0
 11
140.105
 21
502.39515
 31
0.0
  0
LINE
  5
58A
330
1D
100
AcDbEntity
  8
0
100
AcDbLine
 10
139.025
 20
502.39515
 30
0.0
 11
140.105
 21
502.39515
 31
0.0
  0
LINE
  5
58B
330
1D
100
AcDbEntity
  8
0
100
AcDbLine
 10
136.145
 20
511.79515
 30
0.0
 11
139.025
 21
511.79515
 31
0.0
  0
LINE
  5
58C
330
1D
100
AcDbEntity
  8
0
100
AcDbLine
 10
139.025
 20
511.79515
 30
0.0
 11
140.105
 21
511.79515
 31
0.0
  0
LINE
  5
58D
330
1D
100
AcDbEntity
  8
0
100
AcDbLine
 10
102.425
 20
502.39515
 30
0.0
 11
110.105
 21
502.39515
 31
0.0
  0
LINE
  5
58E
330
1D
100
AcDbEntity
  8
0
100
AcDbLine
 10
102.425
 20
511.79515
 30
0.0
 11
110.105
 21
511.79515
 31
0.0
  0
LINE
  5
58F
330
1D
100
AcDbEntity
  8
0
100
AcDbLine
 10
95.225
 20
511.79515
 30
0.0
 11
102.425
 21
511.79515
 31
0.0
  0
LINE
  5
590
330
1D
100
AcDbEntity
  8
0
100
AcDbLine
 10
139.385
 20
501.79515
 30
0.0
 11
140.105
 21
502.39515
 31
0.0
  0
LINE
  5
591
330
1D
100
AcDbEntity
  8
0
100
AcDbLine
 10
140.155
 20
465.71415
 30
0.0
 11
149.487
 21
467.46315
 31
0.0
  0
LINE
  5
592
330
1D
100
AcDbEntity
  8
0
100
AcDbLine
 10
143.164
 20
501.79515
 30
0.0
 11
146.929
 21
501.79515
 31
0.0
  0
LINE
  5
593
330
1D
100
AcDbEntity
  8
0
100
AcDbLine
 10
149.487
 20
467.46315
 30
0.0
 11
160.141
 21
469.36415
 31
0.0
  0
LINE
  5
594
330
1D
100
AcDbEntity
  8
0
100
AcDbLine
 10
146.929
 20
501.79515
 30
0.0
 11
148.34
 21
501.79515
 31
0.0
  0
LINE
  5
595
330
1D
100
AcDbEntity
  8
0
100
AcDbLine
 10
144.693
 20
502.37215
 30
0.0
 11
148.693
 21
502.37215
 31
0.0
  0
LINE
  5
596
330
1D
100
AcDbEntity
  8
0
100
AcDbLine
 10
148.693
 20
502.37215
 30
0.0
 11
150.105
 21
502.37215
 31
0.0
  0
LINE
  5
597
330
1D
100
AcDbEntity
  8
0
100
AcDbLine
 10
148.34
 20
501.79515
 30
0.0
 11
149.517
 21
501.98715
 31
0.0
  0
LINE
  5
59C
330
1D
100
AcDbEntity
  8
0
100
AcDbLine
 10
242.822
 20
466.22915
 30
0.0
 11
256.785
 21
468.27515
 31
0.0
  0
LINE
  5
5A3
330
1D
100
AcDbEntity
  8
0
100
AcDbLine
 10
256.785
 20
468.27515
 30
0.0
 11
270.269
 21
470.23015
 31
0.0
  0
LINE
  5
5A8
330
1D
100
AcDbEntity
  8
0
100
AcDbLine
 10
171.936
 20
471.38415
 30
0.0
 11
184.67
 21
473.48915
 31
0.0
  0
LINE
  5
5A9
330
1D
100
AcDbEntity
  8
0
100
AcDbLine
 10
270.269
 20
470.23015
 30
0.0
 11
283.043
 21
472.06115
 31
0.0
  0
LINE
  5
5AA
330
1D
100
AcDbEntity
  8
0
100
AcDbLine
 10
160.141
 20
469.36415
 30
0.0
 11
171.936
 21
471.38415
 31
0.0
  0
LINE
  5
5AB
330
1D
100
AcDbEntity
  8
0
100
AcDbLine
 10
329.502
 20
471.79515
 30
0.0
 11
330.346
 21
471.79515
 31
0.0
  0
LINE
  5
5AC
330
1D
100
AcDbEntity
  8
0
100
AcDbLine
 10
329.502
 20
471.79515
 30
0.0
 11
331.362
 21
471.79515
 31
0.0
  0
LINE
  5
5AD
330
1D
100
AcDbEntity
  8
0
100
AcDbLine
 10
331.362
 20
471.79515
 30
0.0
 11
333.395
 21
471.79515
 31
0.0
  0
LINE
  5
5AE
330
1D
100
AcDbEntity
  8
0
100
AcDbLine
 10
330.346
 20
471.79515
 30
0.0
 11
333.395
 21
471.79515
 31
0.0
  0
LINE
  5
5AF
330
1D
100
AcDbEntity
  8
0
100
AcDbLine
 10
333.395
 20
471.79515
 30
0.0
 11
336.446
 21
471.79515
 31
0.0
  0
LINE
  5
5B0
330
1D
100
AcDbEntity
  8
0
100
AcDbLine
 10
337.289
 20
471.79515
 30
0.0
 11
340.798
 21
473.73015
 31
0.0
  0
LINE
  5
5B6
330
1D
100
AcDbEntity
  8
0
100
AcDbLine
 10
184.67
 20
473.48915
 30
0.0
 11
198.125
 21
475.64315
 31
0.0
  0
LINE
  5
5BB
330
1D
100
AcDbEntity
  8
0
100
AcDbLine
 10
283.043
 20
472.06115
 30
0.0
 11
294.889
 21
473.73615
 31
0.0
  0
LINE
  5
5BC
330
1D
100
AcDbEntity
  8
0
100
AcDbLine
 10
198.125
 20
475.64315
 30
0.0
 11
212.07
 21
477.80915
 31
0.0
  0
LINE
  5
5C5
330
1D
100
AcDbEntity
  8
0
100
AcDbLine
 10
294.889
 20
473.73615
 30
0.0
 11
305.605
 21
475.22915
 31
0.0
  0
LINE
  5
5C6
330
1D
100
AcDbEntity
  8
0
100
AcDbLine
 10
305.605
 20
475.22915
 30
0.0
 11
315.005
 21
476.51115
 31
0.0
  0
LINE
  5
5CA
330
1D
100
AcDbEntity
  8
0
100
AcDbLine
 10
325.993
 20
473.73015
 30
0.0
 11
329.502
 21
471.79515
 31
0.0
  0
LINE
  5
5DA
330
1D
100
AcDbEntity
  8
0
100
AcDbLine
 10
212.064
 20
477.84615
 30
0.0
 11
226.267
 21
479.95415
 31
0.0
  0
LINE
  5
5DD
330
1D
100
AcDbEntity
  8
0
100
AcDbLine
 10
226.267
 20
479.95415
 30
0.0
 11
240.47
 21
482.05515
 31
0.0
  0
LINE
  5
5E0
330
1D
100
AcDbEntity
  8
0
100
AcDbLine
 10
240.47
 20
482.05515
 30
0.0
 11
254.433
 21
484.10015
 31
0.0
  0
LINE
  5
5E1
330
1D
100
AcDbEntity
  8
0
100
AcDbLine
 10
254.433
 20
484.10015
 30
0.0
 11
267.917
 21
486.05515
 31
0.0
  0
LINE
  5
5E7
330
1D
100
AcDbEntity
  8
0
100
AcDbLine
 10
303.993
 20
485.23515
 30
0.0
 11
305.182816171666
 21
484.628457532685
 31
0.0
  0
LINE
  5
5E8
330
1D
100
AcDbEntity
  8
0
100
AcDbLine
 10
303.993
 20
485.23515
 30
0.0
 11
305.182816171666
 21
484.628457532685
 31
0.0
  0
LINE
  5
5E9
330
1D
100
AcDbEntity
  8
0
100
AcDbLine
 10
315.005
 20
476.51115
 30
0.0
 11
319.568117637293
 21
477.116802252641
 31
0.0
  0
LINE
  5
5EE
330
1D
100
AcDbEntity
  8
0
100
AcDbLine
 10
304.37
 20
485.04315
 30
0.0
 11
306.087
 21
484.16715
 31
0.0
  0
LINE
  5
5F0
330
1D
100
AcDbEntity
  8
0
100
AcDbLine
 10
306.087
 20
484.16715
 30
0.0
 11
308.749
 21
482.80915
 31
0.0
  0
LINE
  5
5F2
330
1D
100
AcDbEntity
  8
0
100
AcDbLine
 10
308.749
 20
482.80915
 30
0.0
 11
314.599
 21
479.82615
 31
0.0
  0
LINE
  5
5F3
330
1D
100
AcDbEntity
  8
0
100
AcDbLine
 10
314.599
 20
479.82615
 30
0.0
 11
315.821
 21
479.20315
 31
0.0
  0
LINE
  5
5F7
330
1D
100
AcDbEntity
  8
0
100
AcDbLine
 10
315.821
 20
479.20315
 30
0.0
 11
320.985
 21
476.36215
 31
0.0
  0
LINE
  5
5F9
330
1D
100
AcDbEntity
  8
0
100
AcDbLine
 10
320.985
 20
476.36215
 30
0.0
 11
325.993
 21
473.73015
 31
0.0
  0
LINE
  5
600
330
1D
100
AcDbEntity
  8
0
100
AcDbLine
 10
302.895
 20
485.79515
 30
0.0
 11
302.895
 21
511.79515
 31
0.0
  0
LINE
  5
601
330
1D
100
AcDbEntity
  8
0
100
AcDbLine
 10
302.895
 20
485.79515
 30
0.0
 11
303.993
 21
485.23515
 31
0.0
  0
LINE
  5
602
330
1D
100
AcDbEntity
  8
0
100
AcDbLine
 10
302.895
 20
485.79515
 30
0.0
 11
304.37
 21
485.04315
 31
0.0
  0
LINE
  5
605
330
1D
100
AcDbEntity
  8
0
100
AcDbLine
 10
340.798
 20
473.73015
 30
0.0
 11
345.806
 21
476.36215
 31
0.0
  0
LINE
  5
609
330
1D
100
AcDbEntity
  8
0
100
AcDbLine
 10
352.192
 20
479.82615
 30
0.0
 11
358.042
 21
482.80915
 31
0.0
  0
LINE
  5
60C
330
1D
100
AcDbEntity
  8
0
100
AcDbLine
 10
360.704
 20
484.16715
 30
0.0
 11
362.421
 21
485.04315
 31
0.0
  0
LINE
  5
60D
330
1D
100
AcDbEntity
  8
0
100
AcDbLine
 10
362.056608695451
 20
484.857240400242
 30
0.0
 11
362.798
 21
485.23515
 31
0.0
  0
LINE
  5
60E
330
1D
100
AcDbEntity
  8
0
100
AcDbLine
 10
362.798
 20
485.23515
 30
0.0
 11
363.895
 21
485.79515
 31
0.0
  0
LINE
  5
610
330
1D
100
AcDbEntity
  8
0
100
AcDbLine
 10
362.421
 20
485.04315
 30
0.0
 11
363.895
 21
485.79515
 31
0.0
  0
LINE
  5
614
330
1D
100
AcDbEntity
  8
0
100
AcDbLine
 10
358.042
 20
482.80915
 30
0.0
 11
360.704
 21
484.16715
 31
0.0
  0
LINE
  5
619
330
1D
100
AcDbEntity
  8
0
100
AcDbLine
 10
350.97
 20
479.20315
 30
0.0
 11
352.192
 21
479.82615
 31
0.0
  0
LINE
  5
61A
330
1D
100
AcDbEntity
  8
0
100
AcDbLine
 10
345.806
 20
476.36215
 30
0.0
 11
350.97
 21
479.20315
 31
0.0
  0
LINE
  5
626
330
1D
100
AcDbEntity
  8
0
100
AcDbLine
 10
336.446
 20
471.79515
 30
0.0
 11
337.289
 21
471.79515
 31
0.0
  0
LINE
  5
627
330
1D
100
AcDbEntity
  8
0
100
AcDbLine
 10
363.895
 20
485.79515
 30
0.0
 11
363.895
 21
511.79515
 31
0.0
  0
LINE
  5
62A
330
1D
100
AcDbEntity
  8
0
100
AcDbLine
 10
280.692
 20
487.88615
 30
0.0
 11
292.538
 21
489.56215
 31
0.0
  0
LINE
  5
62B
330
1D
100
AcDbEntity
  8
0
100
AcDbLine
 10
292.538
 20
489.56215
 30
0.0
 11
302.895
 21
491.004300629958
 31
0.0
  0
LINE
  5
62C
330
1D
100
AcDbEntity
  8
0
100
AcDbLine
 10
267.917
 20
486.05515
 30
0.0
 11
280.692
 21
487.88615
 31
0.0
  0
LINE
  5
62F
330
1D
100
AcDbEntity
  8
0
100
AcDbLine
 10
149.517
 20
501.98715
 30
0.0
 11
150.105
 21
502.37215
 31
0.0
  0
LINE
  5
630
330
1D
100
AcDbEntity
  8
0
100
AcDbLine
 10
144.693
 20
511.79515
 30
0.0
 11
148.693
 21
511.79515
 31
0.0
  0
LINE
  5
631
330
1D
100
AcDbEntity
  8
0
100
AcDbLine
 10
302.895
 20
511.79515
 30
0.0
 11
303.993
 21
511.79515
 31
0.0
  0
LINE
  5
632
330
1D
100
AcDbEntity
  8
0
100
AcDbLine
 10
302.895
 20
511.79515
 30
0.0
 11
302.895
 21
485.79515
 31
0.0
  0
LINE
  5
633
330
1D
100
AcDbEntity
  8
0
100
AcDbLine
 10
303.993
 20
511.79515
 30
0.0
 11
306.921
 21
511.79515
 31
0.0
  0
LINE
  5
634
330
1D
100
AcDbEntity
  8
0
100
AcDbLine
 10
306.921
 20
511.79515
 30
0.0
 11
311.802
 21
511.79515
 31
0.0
  0
LINE
  5
636
330
1D
100
AcDbEntity
  8
0
100
AcDbLine
 10
311.802
 20
511.79515
 30
0.0
 11
318.268
 21
511.79515
 31
0.0
  0
LINE
  5
637
330
1D
100
AcDbEntity
  8
0
100
AcDbLine
 10
318.268
 20
511.79515
 30
0.0
 11
325.588
 21
511.79515
 31
0.0
  0
LINE
  5
638
330
1D
100
AcDbEntity
  8
0
100
AcDbLine
 10
325.588
 20
511.79515
 30
0.0
 11
333.395
 21
511.79515
 31
0.0
  0
LINE
  5
639
330
1D
100
AcDbEntity
  8
0
100
AcDbLine
 10
362.798
 20
511.79515
 30
0.0
 11
363.895
 21
511.79515
 31
0.0
  0
LINE
  5
63B
330
1D
100
AcDbEntity
  8
0
100
AcDbLine
 10
359.869
 20
511.79515
 30
0.0
 11
362.798
 21
511.79515
 31
0.0
  0
LINE
  5
63C
330
1D
100
AcDbEntity
  8
0
100
AcDbLine
 10
354.989
 20
511.79515
 30
0.0
 11
359.869
 21
511.79515
 31
0.0
  0
LINE
  5
63D
330
1D
100
AcDbEntity
  8
0
100
AcDbLine
 10
348.523
 20
511.79515
 30
0.0
 11
354.989
 21
511.79515
 31
0.0
  0
LINE
  5
63E
330
1D
100
AcDbEntity
  8
0
100
AcDbLine
 10
341.204
 20
511.79515
 30
0.0
 11
348.523
 21
511.79515
 31
0.0
  0
LINE
  5
63F
330
1D
100
AcDbEntity
  8
0
100
AcDbLine
 10
333.395
 20
511.79515
 30
0.0
 11
341.204
 21
511.79515
 31
0.0
  0
LINE
  5
640
330
1D
100
AcDbEntity
  8
0
100
AcDbLine
 10
363.895
 20
511.79515
 30
0.0
 11
363.895
 21
485.79515
 31
0.0
  0
LINE
  5
641
330
1D
100
AcDbEntity
  8
0
100
AcDbLine
 10
150.105
 20
511.79515
 30
0.0
 11
150.105
 21
502.37215
 31
0.0
  0
LINE
  5
642
330
1D
100
AcDbEntity
  8
0
100
AcDbLine
 10
148.693
 20
511.79515
 30
0.0
 11
150.105
 21
511.79515
 31
0.0
  0
LINE
  5
643
330
1D
100
AcDbEntity
  8
0
100
AcDbLine
 10
150.105
 20
502.37215
 30
0.0
 11
150.105
 21
511.79515
 31
0.0
  0
LINE
  5
644
330
1D
100
AcDbEntity
  8
0
100
AcDbLine
 10
140.105
 20
502.39515
 30
0.0
 11
140.105
 21
511.79515
 31
0.0
  0
LINE
  5
645
330
1D
100
AcDbEntity
  8
0
100
AcDbLine
 10
93.526
 20
464.79015
 30
0.0
 11
101.105
 21
464.79015
 31
0.0
  0
LINE
  5
646
330
1D
100
AcDbEntity
  8
0
100
AcDbLine
 10
92.772
 20
464.30815
 30
0.0
 11
92.772
 21
463.71615
 31
0.0
  0
LINE
  5
647
330
1D
100
AcDbEntity
  8
0
100
AcDbLine
 10
92.772
 20
464.30815
 30
0.0
 11
93.526
 21
464.79015
 31
0.0
  0
LINE
  5
648
330
1D
100
AcDbEntity
  8
0
100
AcDbLine
 10
92.772
 20
463.71615
 30
0.0
 11
92.772
 21
464.30815
 31
0.0
  0
LINE
  5
649
330
1D
100
AcDbEntity
  8
0
100
AcDbLine
 10
92.772
 20
463.71615
 30
0.0
 11
92.772
 21
462.00915
 31
0.0
  0
LINE
  5
64A
330
1D
100
AcDbEntity
  8
0
100
AcDbLine
 10
92.018
 20
464.79015
 30
0.0
 11
92.772
 21
464.30815
 31
0.0
  0
LINE
  5
CB0
330
1D
100
AcDbEntity
  8
0
100
AcDbLine
 10
0.569
 20
94.47515
 30
0.0
 11
1.969
 21
85.01915
 31
0.0
  0
LINE
  5
CB1
330
1D
100
AcDbEntity
  8
0
100
AcDbLine
 10
22.5911
 20
41.12885
 30
0.0
 11
29.0585
 21
33.80835
 31
0.0
  0
LINE
  5
CB2
330
1D
100
AcDbEntity
  8
0
100
AcDbLine
 10
11.62
 20
57.94015
 30
0.0
 11
11.946
 21
57.29015
 31
0.0
  0
LINE
  5
CB3
330
1D
100
AcDbEntity
  8
0
100
AcDbLine
 10
11.946
 20
57.29015
 30
0.0
 11
16.869
 21
48.97815
 31
0.0
  0
LINE
  5
CB4
330
1D
100
AcDbEntity
  8
0
100
AcDbLine
 10
7.517
 20
66.67415
 30
0.0
 11
11.62
 21
57.94015
 31
0.0
  0
LINE
  5
CB5
330
1D
100
AcDbEntity
  8
0
100
AcDbLine
 10
16.869
 20
48.97815
 30
0.0
 11
22.5911
 21
41.12885
 31
0.0
  0
LINE
  5
CB6
330
1D
100
AcDbEntity
  8
0
100
AcDbLine
 10
52.3552
 20
15.62665
 30
0.0
 11
61.2024
 21
10.99675
 31
0.0
  0
LINE
  5
CB7
330
1D
100
AcDbEntity
  8
0
100
AcDbLine
 10
36.2149
 20
27.08135
 30
0.0
 11
44.0039
 21
21.00295
 31
0.0
  0
LINE
  5
CB8
330
1D
100
AcDbEntity
  8
0
100
AcDbLine
 10
29.0585
 20
33.80835
 30
0.0
 11
36.2149
 21
27.08135
 31
0.0
  0
LINE
  5
CB9
330
1D
100
AcDbEntity
  8
0
100
AcDbLine
 10
44.0039
 20
21.00295
 30
0.0
 11
52.3552
 21
15.62665
 31
0.0
  0
LINE
  5
CBA
330
1D
100
AcDbEntity
  8
0
100
AcDbLine
 10
1.969
 20
85.01915
 30
0.0
 11
4.291
 21
75.72615
 31
0.0
  0
LINE
  5
CBB
330
1D
100
AcDbEntity
  8
0
100
AcDbLine
 10
4.291
 20
75.72615
 30
0.0
 11
7.517
 21
66.67415
 31
0.0
  0
LINE
  5
CD4
330
1D
100
AcDbEntity
  8
0
100
AcDbLine
 10
52.1793
 20
195.68115
 30
0.0
 11
61.054
 21
200.33415
 31
0.0
  0
LINE
  5
CD5
330
1D
100
AcDbEntity
  8
0
100
AcDbLine
 10
43.7975
 20
190.28015
 30
0.0
 11
52.1793
 21
195.68115
 31
0.0
  0
LINE
  5
CD6
330
1D
100
AcDbEntity
  8
0
100
AcDbLine
 10
35.984
 20
184.17715
 30
0.0
 11
43.7975
 21
190.28015
 31
0.0
  0
LINE
  5
CD7
330
1D
100
AcDbEntity
  8
0
100
AcDbLine
 10
28.8021
 20
177.42115
 30
0.0
 11
35.984
 21
184.17715
 31
0.0
  0
LINE
  5
CD8
330
1D
100
AcDbEntity
  8
0
100
AcDbLine
 10
22.3141
 20
170.07215
 30
0.0
 11
28.8021
 21
177.42115
 31
0.0
  0
LINE
  5
CD9
330
1D
100
AcDbEntity
  8
0
100
AcDbLine
 10
16.573
 20
162.19015
 30
0.0
 11
22.3141
 21
170.07215
 31
0.0
  0
LINE
  5
CDA
330
1D
100
AcDbEntity
  8
0
100
AcDbLine
 10
11.633
 20
153.84615
 30
0.0
 11
16.573
 21
162.19015
 31
0.0
  0
LINE
  5
CDB
330
1D
100
AcDbEntity
  8
0
100
AcDbLine
 10
7.532
 20
145.10915
 30
0.0
 11
11.633
 21
153.84615
 31
0.0
  0
LINE
  5
CDC
330
1D
100
AcDbEntity
  8
0
100
AcDbLine
 10
4.306
 20
136.05415
 30
0.0
 11
7.532
 21
145.10915
 31
0.0
  0
LINE
  5
CDD
330
1D
100
AcDbEntity
  8
0
100
AcDbLine
 10
1.983
 20
126.75815
 30
0.0
 11
4.306
 21
136.05415
 31
0.0
  0
LINE
  5
CDE
330
1D
100
AcDbEntity
  8
0
100
AcDbLine
 10
0.582
 20
117.30115
 30
0.0
 11
1.983
 21
126.75815
 31
0.0
  0
LINE
  5
CDF
330
1D
100
AcDbEntity
  8
0
100
AcDbLine
 10
0.117
 20
107.79415
 30
0.0
 11
0.582
 21
117.30115
 31
0.0
  0
LINE
  5
CE0
330
1D
100
AcDbEntity
  8
0
100
AcDbLine
 10
0.105
 20
103.98215
 30
0.0
 11
0.117
 21
107.79415
 31
0.0
  0
LINE
  5
CE1
330
1D
100
AcDbEntity
  8
0
100
AcDbLine
 10
0.105
 20
103.98215
 30
0.0
 11
0.569
 21
94.47515
 31
0.0
  0
LINE
  5
D5B
330
1D
100
AcDbEntity
  8
0
100
AcDbLine
 10
61.2024
 20
10.99675
 30
0.0
 11
70.463
 21
7.15525
 31
0.0
  0
LINE
  5
D5C
330
1D
100
AcDbEntity
  8
0
100
AcDbLine
 10
70.463
 20
7.15525
 30
0.0
 11
80.063
 21
4.13145
 31
0.0
  0
LINE
  5
D5D
330
1D
100
AcDbEntity
  8
0
100
AcDbLine
 10
80.063
 20
4.13145
 30
0.0
 11
89.919
 21
1.95445
 31
0.0
  0
LINE
  5
D5E
330
1D
100
AcDbEntity
  8
0
100
AcDbLine
 10
89.919
 20
1.95445
 30
0.0
 11
99.947
 21
0.64325
 31
0.0
  0
LINE
  5
D5F
330
1D
100
AcDbEntity
  8
0
100
AcDbLine
 10
89.868
 20
209.43015
 30
0.0
 11
99.105
 21
210.649143938189
 31
0.0
  0
LINE
  5
D60
330
1D
100
AcDbEntity
  8
0
100
AcDbLine
 10
79.978
 20
207.23715
 30
0.0
 11
89.868
 21
209.43015
 31
0.0
  0
LINE
  5
D61
330
1D
100
AcDbEntity
  8
0
100
AcDbLine
 10
70.346
 20
204.19715
 30
0.0
 11
79.978
 21
207.23715
 31
0.0
  0
LINE
  5
D62
330
1D
100
AcDbEntity
  8
0
100
AcDbLine
 10
61.054
 20
200.33415
 30
0.0
 11
70.346
 21
204.19715
 31
0.0
  0
LINE
  5
E4B
330
1D
100
AcDbEntity
  8
0
100
AcDbLine
 10
95.113
 20
114.26315
 30
0.0
 11
95.113
 21
111.59015
 31
0.0
  0
LINE
  5
E4C
330
1D
100
AcDbEntity
  8
0
100
AcDbLine
 10
95.113
 20
114.26315
 30
0.0
 11
95.127
 21
113.37615
 31
0.0
  0
LINE
  5
E4D
330
1D
100
AcDbEntity
  8
0
100
AcDbLine
 10
95.113
 20
114.26315
 30
0.0
 11
95.127
 21
115.15015
 31
0.0
  0
LINE
  5
E4E
330
1D
100
AcDbEntity
  8
0
100
AcDbLine
 10
95.127
 20
115.15015
 30
0.0
 11
95.291
 21
116.52715
 31
0.0
  0
LINE
  5
E4F
330
1D
100
AcDbEntity
  8
0
100
AcDbLine
 10
95.127
 20
113.37615
 30
0.0
 11
95.291
 21
112.00015
 31
0.0
  0
LINE
  5
E50
330
1D
100
AcDbEntity
  8
0
100
AcDbLine
 10
95.127
 20
110.70215
 30
0.0
 11
95.291
 21
109.32715
 31
0.0
  0
LINE
  5
E51
330
1D
100
AcDbEntity
  8
0
100
AcDbLine
 10
95.113
 20
111.59015
 30
0.0
 11
95.127
 21
110.70215
 31
0.0
  0
LINE
  5
E52
330
1D
100
AcDbEntity
  8
0
100
AcDbLine
 10
95.113
 20
111.59015
 30
0.0
 11
95.113
 21
114.26315
 31
0.0
  0
LINE
  5
E53
330
1D
100
AcDbEntity
  8
0
100
AcDbLine
 10
95.214
 20
109.972729268293
 30
0.0
 11
95.214
 21
107.88915
 31
0.0
  0
LINE
  5
E54
330
1D
100
AcDbEntity
  8
0
100
AcDbLine
 10
98.258
 20
99.38915
 30
0.0
 11
99.201
 21
98.33915
 31
0.0
  0
LINE
  5
E55
330
1D
100
AcDbEntity
  8
0
100
AcDbLine
 10
97.428
 20
100.52215
 30
0.0
 11
98.258
 21
99.38915
 31
0.0
  0
LINE
  5
E56
330
1D
100
AcDbEntity
  8
0
100
AcDbLine
 10
98.177
 20
103.03315
 30
0.0
 11
99.129
 21
101.97615
 31
0.0
  0
LINE
  5
E57
330
1D
100
AcDbEntity
  8
0
100
AcDbLine
 10
97.342
 20
104.17315
 30
0.0
 11
98.177
 21
103.03315
 31
0.0
  0
LINE
  5
E58
330
1D
100
AcDbEntity
  8
0
100
AcDbLine
 10
96.72
 20
101.72515
 30
0.0
 11
97.428
 21
100.52215
 31
0.0
  0
LINE
  5
E59
330
1D
100
AcDbEntity
  8
0
100
AcDbLine
 10
96.141
 20
102.98815
 30
0.0
 11
96.72
 21
101.72515
 31
0.0
  0
LINE
  5
E5A
330
1D
100
AcDbEntity
  8
0
100
AcDbLine
 10
96.63
 20
105.38415
 30
0.0
 11
97.342
 21
104.17315
 31
0.0
  0
LINE
  5
E5B
330
1D
100
AcDbEntity
  8
0
100
AcDbLine
 10
96.047
 20
106.65615
 30
0.0
 11
96.63
 21
105.38415
 31
0.0
  0
LINE
  5
E5C
330
1D
100
AcDbEntity
  8
0
100
AcDbLine
 10
98.178
 20
105.70615
 30
0.0
 11
99.128
 21
104.64815
 31
0.0
  0
LINE
  5
E5D
330
1D
100
AcDbEntity
  8
0
100
AcDbLine
 10
98.172
 20
106.56315
 30
0.0
 11
99.069
 21
105.46815
 31
0.0
  0
LINE
  5
E5E
330
1D
100
AcDbEntity
  8
0
100
AcDbLine
 10
97.342
 20
106.84615
 30
0.0
 11
98.178
 21
105.70615
 31
0.0
  0
LINE
  5
E5F
330
1D
100
AcDbEntity
  8
0
100
AcDbLine
 10
98.173
 20
106.82515
 30
0.0
 11
99.068
 21
105.73115
 31
0.0
  0
LINE
  5
E60
330
1D
100
AcDbEntity
  8
0
100
AcDbLine
 10
99.069
 20
105.46815
 30
0.0
 11
100.077
 21
104.46415
 31
0.0
  0
LINE
  5
E61
330
1D
100
AcDbEntity
  8
0
100
AcDbLine
 10
99.068
 20
105.73115
 30
0.0
 11
100.078
 21
104.72715
 31
0.0
  0
LINE
  5
E62
330
1D
100
AcDbEntity
  8
0
100
AcDbLine
 10
95.697
 20
104.29715
 30
0.0
 11
96.141
 21
102.98815
 31
0.0
  0
LINE
  5
E63
330
1D
100
AcDbEntity
  8
0
100
AcDbLine
 10
95.391
 20
105.64315
 30
0.0
 11
95.697
 21
104.29715
 31
0.0
  0
LINE
  5
E64
330
1D
100
AcDbEntity
  8
0
100
AcDbLine
 10
95.599
 20
107.97415
 30
0.0
 11
96.047
 21
106.65615
 31
0.0
  0
LINE
  5
E65
330
1D
100
AcDbEntity
  8
0
100
AcDbLine
 10
97.399
 20
107.73615
 30
0.0
 11
98.172
 21
106.56315
 31
0.0
  0
LINE
  5
E66
330
1D
100
AcDbEntity
  8
0
100
AcDbLine
 10
96.63
 20
108.05715
 30
0.0
 11
97.342
 21
106.84615
 31
0.0
  0
LINE
  5
E67
330
1D
100
AcDbEntity
  8
0
100
AcDbLine
 10
96.757
 20
108.97915
 30
0.0
 11
97.399
 21
107.73615
 31
0.0
  0
LINE
  5
E68
330
1D
100
AcDbEntity
  8
0
100
AcDbLine
 10
96.047
 20
109.32815
 30
0.0
 11
96.63
 21
108.05715
 31
0.0
  0
LINE
  5
E69
330
1D
100
AcDbEntity
  8
0
100
AcDbLine
 10
95.291
 20
109.32715
 30
0.0
 11
95.599
 21
107.97415
 31
0.0
  0
LINE
  5
E6A
330
1D
100
AcDbEntity
  8
0
100
AcDbLine
 10
96.251
 20
110.27515
 30
0.0
 11
96.757
 21
108.97915
 31
0.0
  0
LINE
  5
E6B
330
1D
100
AcDbEntity
  8
0
100
AcDbLine
 10
95.6
 20
110.64715
 30
0.0
 11
96.047
 21
109.32815
 31
0.0
  0
LINE
  5
E6C
330
1D
100
AcDbEntity
  8
0
100
AcDbLine
 10
95.887
 20
111.61315
 30
0.0
 11
96.251
 21
110.27515
 31
0.0
  0
LINE
  5
E6D
330
1D
100
AcDbEntity
  8
0
100
AcDbLine
 10
95.291
 20
112.00015
 30
0.0
 11
95.6
 21
110.64715
 31
0.0
  0
LINE
  5
E6E
330
1D
100
AcDbEntity
  8
0
100
AcDbLine
 10
95.669
 20
112.97815
 30
0.0
 11
95.887
 21
111.61315
 31
0.0
  0
LINE
  5
E6F
330
1D
100
AcDbEntity
  8
0
100
AcDbLine
 10
95.887
 20
117.26715
 30
0.0
 11
96.02627807008
 21
117.779494329222
 31
0.0
  0
LINE
  5
E70
330
1D
100
AcDbEntity
  8
0
100
AcDbLine
 10
95.67
 20
115.90315
 30
0.0
 11
95.887
 21
117.26715
 31
0.0
  0
LINE
  5
E71
330
1D
100
AcDbEntity
  8
0
100
AcDbLine
 10
95.291
 20
116.52715
 30
0.0
 11
95.6
 21
117.87915
 31
0.0
  0
LINE
  5
E72
330
1D
100
AcDbEntity
  8
0
100
AcDbLine
 10
95.6
 20
117.87915
 30
0.0
 11
96.009280999083
 21
119.086849413403
 31
0.0
  0
LINE
  5
E73
330
1D
100
AcDbEntity
  8
0
100
AcDbLine
 10
96.01
 20
117.97815
 30
0.0
 11
96.017
 21
118.37415
 31
0.0
  0
LINE
  5
E74
330
1D
100
AcDbEntity
  8
0
100
AcDbLine
 10
96.01
 20
117.97815
 30
0.0
 11
96.113
 21
116.72115
 31
0.0
  0
LINE
  5
E75
330
1D
100
AcDbEntity
  8
0
100
AcDbLine
 10
96.009
 20
120.31215
 30
0.0
 11
96.009243317972
 21
119.937197004608
 31
0.0
  0
LINE
  5
E76
330
1D
100
AcDbEntity
  8
0
100
AcDbLine
 10
96.009
 20
120.31215
 30
0.0
 11
96.01
 21
122.02615
 31
0.0
  0
LINE
  5
E77
330
1D
100
AcDbEntity
  8
0
100
AcDbLine
 10
96.01
 20
122.02615
 30
0.0
 11
96.017
 21
121.62915
 31
0.0
  0
LINE
  5
E78
330
1D
100
AcDbEntity
  8
0
100
AcDbLine
 10
96.01
 20
122.02615
 30
0.0
 11
96.114
 21
123.28115
 31
0.0
  0
LINE
  5
E79
330
1D
100
AcDbEntity
  8
0
100
AcDbLine
 10
96.01
 20
121.23415
 30
0.0
 11
96.114
 21
119.97715
 31
0.0
  0
LINE
  5
E7A
330
1D
100
AcDbEntity
  8
0
100
AcDbLine
 10
96.01
 20
121.23415
 30
0.0
 11
96.017
 21
121.62915
 31
0.0
  0
LINE
  5
E7B
330
1D
100
AcDbEntity
  8
0
100
AcDbLine
 10
96.009
 20
119.52015
 30
0.0
 11
96.01
 21
117.97815
 31
0.0
  0
LINE
  5
E7C
330
1D
100
AcDbEntity
  8
0
100
AcDbLine
 10
96.009
 20
119.52015
 30
0.0
 11
96.01
 21
121.23415
 31
0.0
  0
LINE
  5
E7D
330
1D
100
AcDbEntity
  8
0
100
AcDbLine
 10
96.171
 20
116.02715
 30
0.0
 11
96.203828898469
 21
116.233190419914
 31
0.0
  0
LINE
  5
E7E
330
1D
100
AcDbEntity
  8
0
100
AcDbLine
 10
96.114
 20
123.28115
 30
0.0
 11
96.344
 21
124.52415
 31
0.0
  0
LINE
  5
E7F
330
1D
100
AcDbEntity
  8
0
100
AcDbLine
 10
96.114
 20
119.97715
 30
0.0
 11
96.344
 21
118.73515
 31
0.0
  0
LINE
  5
E80
330
1D
100
AcDbEntity
  8
0
100
AcDbLine
 10
96.113
 20
116.72115
 30
0.0
 11
96.344
 21
115.48015
 31
0.0
  0
LINE
  5
E81
330
1D
100
AcDbEntity
  8
0
100
AcDbLine
 10
96.106
 20
114.74215
 30
0.0
 11
96.171
 21
113.45815
 31
0.0
  0
LINE
  5
E82
330
1D
100
AcDbEntity
  8
0
100
AcDbLine
 10
96.106
 20
114.74215
 30
0.0
 11
96.171
 21
116.02715
 31
0.0
  0
LINE
  5
E83
330
1D
100
AcDbEntity
  8
0
100
AcDbLine
 10
95.602
 20
114.57115
 30
0.0
 11
95.67
 21
113.24015
 31
0.0
  0
LINE
  5
E84
330
1D
100
AcDbEntity
  8
0
100
AcDbLine
 10
95.602
 20
114.57115
 30
0.0
 11
95.67
 21
115.90315
 31
0.0
  0
LINE
  5
E85
330
1D
100
AcDbEntity
  8
0
100
AcDbLine
 10
96.344
 20
124.52415
 30
0.0
 11
96.7
 21
125.74115
 31
0.0
  0
LINE
  5
E86
330
1D
100
AcDbEntity
  8
0
100
AcDbLine
 10
96.344
 20
118.73515
 30
0.0
 11
96.7
 21
117.51815
 31
0.0
  0
LINE
  5
E87
330
1D
100
AcDbEntity
  8
0
100
AcDbLine
 10
96.344
 20
115.48015
 30
0.0
 11
96.7
 21
114.26315
 31
0.0
  0
LINE
  5
E88
330
1D
100
AcDbEntity
  8
0
100
AcDbLine
 10
96.171
 20
113.45815
 30
0.0
 11
96.381
 21
112.14015
 31
0.0
  0
LINE
  5
E89
330
1D
100
AcDbEntity
  8
0
100
AcDbLine
 10
95.67
 20
113.24015
 30
0.0
 11
95.887
 21
111.87515
 31
0.0
  0
LINE
  5
E8A
330
1D
100
AcDbEntity
  8
0
100
AcDbLine
 10
96.7
 20
125.74115
 30
0.0
 11
97.177
 21
126.91915
 31
0.0
  0
LINE
  5
E8B
330
1D
100
AcDbEntity
  8
0
100
AcDbLine
 10
96.548
 20
122.78915
 30
0.0
 11
96.717
 21
124.03315
 31
0.0
  0
LINE
  5
E8C
330
1D
100
AcDbEntity
  8
0
100
AcDbLine
 10
96.517
 20
121.80115
 30
0.0
 11
96.548
 21
120.81215
 31
0.0
  0
LINE
  5
E8D
330
1D
100
AcDbEntity
  8
0
100
AcDbLine
 10
96.517
 20
121.80115
 30
0.0
 11
96.548
 21
122.78915
 31
0.0
  0
LINE
  5
E8E
330
1D
100
AcDbEntity
  8
0
100
AcDbLine
 10
96.548
 20
120.81215
 30
0.0
 11
96.717
 21
119.56915
 31
0.0
  0
LINE
  5
E8F
330
1D
100
AcDbEntity
  8
0
100
AcDbLine
 10
96.717
 20
124.03315
 30
0.0
 11
97.014
 21
125.25515
 31
0.0
  0
LINE
  5
E90
330
1D
100
AcDbEntity
  8
0
100
AcDbLine
 10
96.717
 20
119.56915
 30
0.0
 11
97.014
 21
118.34615
 31
0.0
  0
LINE
  5
E91
330
1D
100
AcDbEntity
  8
0
100
AcDbLine
 10
96.7
 20
117.51815
 30
0.0
 11
97.177
 21
116.34015
 31
0.0
  0
LINE
  5
E92
330
1D
100
AcDbEntity
  8
0
100
AcDbLine
 10
96.7
 20
114.26315
 30
0.0
 11
97.177
 21
113.08515
 31
0.0
  0
LINE
  5
E93
330
1D
100
AcDbEntity
  8
0
100
AcDbLine
 10
96.381
 20
112.14015
 30
0.0
 11
96.733
 21
110.84815
 31
0.0
  0
LINE
  5
E94
330
1D
100
AcDbEntity
  8
0
100
AcDbLine
 10
95.887
 20
111.87515
 30
0.0
 11
96.251
 21
110.53715
 31
0.0
  0
LINE
  5
E95
330
1D
100
AcDbEntity
  8
0
100
AcDbLine
 10
97.177
 20
126.91915
 30
0.0
 11
97.771
 21
128.05015
 31
0.0
  0
LINE
  5
E96
330
1D
100
AcDbEntity
  8
0
100
AcDbLine
 10
97.014
 20
125.25515
 30
0.0
 11
97.438
 21
126.44515
 31
0.0
  0
LINE
  5
E97
330
1D
100
AcDbEntity
  8
0
100
AcDbLine
 10
97.014
 20
118.34615
 30
0.0
 11
97.438
 21
117.15715
 31
0.0
  0
LINE
  5
E98
330
1D
100
AcDbEntity
  8
0
100
AcDbLine
 10
97.177
 20
116.34015
 30
0.0
 11
97.771
 21
115.20815
 31
0.0
  0
LINE
  5
E99
330
1D
100
AcDbEntity
  8
0
100
AcDbLine
 10
97.177
 20
113.08515
 30
0.0
 11
97.771
 21
111.95315
 31
0.0
  0
LINE
  5
E9A
330
1D
100
AcDbEntity
  8
0
100
AcDbLine
 10
96.733
 20
110.84815
 30
0.0
 11
97.22
 21
109.59715
 31
0.0
  0
LINE
  5
E9B
330
1D
100
AcDbEntity
  8
0
100
AcDbLine
 10
96.251
 20
110.53715
 30
0.0
 11
96.757
 21
109.24115
 31
0.0
  0
LINE
  5
E9C
330
1D
100
AcDbEntity
  8
0
100
AcDbLine
 10
97.438
 20
126.44515
 30
0.0
 11
97.984
 21
127.58915
 31
0.0
  0
LINE
  5
E9D
330
1D
100
AcDbEntity
  8
0
100
AcDbLine
 10
97.771
 20
128.05015
 30
0.0
 11
98.477
 21
129.12215
 31
0.0
  0
LINE
  5
E9E
330
1D
100
AcDbEntity
  8
0
100
AcDbLine
 10
97.438
 20
117.15715
 30
0.0
 11
97.984
 21
116.01215
 31
0.0
  0
LINE
  5
E9F
330
1D
100
AcDbEntity
  8
0
100
AcDbLine
 10
97.771
 20
115.20815
 30
0.0
 11
98.477
 21
114.13615
 31
0.0
  0
LINE
  5
EA0
330
1D
100
AcDbEntity
  8
0
100
AcDbLine
 10
97.771
 20
111.95315
 30
0.0
 11
98.477
 21
110.88115
 31
0.0
  0
LINE
  5
EA1
330
1D
100
AcDbEntity
  8
0
100
AcDbLine
 10
97.22
 20
109.59715
 30
0.0
 11
97.841
 21
108.39915
 31
0.0
  0
LINE
  5
EA2
330
1D
100
AcDbEntity
  8
0
100
AcDbLine
 10
96.757
 20
109.24115
 30
0.0
 11
97.4
 21
107.99915
 31
0.0
  0
LINE
  5
EA3
330
1D
100
AcDbEntity
  8
0
100
AcDbLine
 10
97.984
 20
127.58915
 30
0.0
 11
98.646
 21
128.67815
 31
0.0
  0
LINE
  5
EA4
330
1D
100
AcDbEntity
  8
0
100
AcDbLine
 10
98.477
 20
129.12215
 30
0.0
 11
99.105
 21
129.901148766954
 31
0.0
  0
LINE
  5
EA5
330
1D
100
AcDbEntity
  8
0
100
AcDbLine
 10
97.984
 20
116.01215
 30
0.0
 11
98.646
 21
114.92415
 31
0.0
  0
LINE
  5
EA6
330
1D
100
AcDbEntity
  8
0
100
AcDbLine
 10
98.477
 20
114.13615
 30
0.0
 11
99.288
 21
113.13115
 31
0.0
  0
LINE
  5
EA7
330
1D
100
AcDbEntity
  8
0
100
AcDbLine
 10
98.477
 20
110.88115
 30
0.0
 11
99.288
 21
109.87615
 31
0.0
  0
LINE
  5
EA8
330
1D
100
AcDbEntity
  8
0
100
AcDbLine
 10
97.841
 20
108.39915
 30
0.0
 11
98.587
 21
107.26515
 31
0.0
  0
LINE
  5
EA9
330
1D
100
AcDbEntity
  8
0
100
AcDbLine
 10
97.4
 20
107.99915
 30
0.0
 11
98.173
 21
106.82515
 31
0.0
  0
LINE
  5
EAA
330
1D
100
AcDbEntity
  8
0
100
AcDbLine
 10
98.646
 20
114.92415
 30
0.0
 11
99.419
 21
113.90215
 31
0.0
  0
LINE
  5
EAB
330
1D
100
AcDbEntity
  8
0
100
AcDbLine
 10
98.646
 20
128.67815
 30
0.0
 11
99.105
 21
129.2850038163
 31
0.0
  0
LINE
  5
EAC
330
1D
100
AcDbEntity
  8
0
100
AcDbLine
 10
98.587
 20
107.26515
 30
0.0
 11
99.451
 21
106.20815
 31
0.0
  0
LINE
  5
EAD
330
1D
100
AcDbEntity
  8
0
100
AcDbLine
 10
95.227
 20
107.00815
 30
0.0
 11
95.391
 21
105.64315
 31
0.0
  0
LINE
  5
EAE
330
1D
100
AcDbEntity
  8
0
100
AcDbLine
 10
95.214
 20
107.88915
 30
0.0
 11
95.227
 21
107.00815
 31
0.0
  0
LINE
  5
EAF
330
1D
100
AcDbEntity
  8
0
100
AcDbLine
 10
95.214
 20
107.88915
 30
0.0
 11
95.214
 21
109.972729268293
 31
0.0
  0
LINE
  5
EB0
330
1D
100
AcDbEntity
  8
0
100
AcDbLine
 10
99.105
 20
121.19315
 30
0.0
 11
99.105
 21
136.08315
 31
0.0
  0
LINE
  5
EB1
330
1D
100
AcDbEntity
  8
0
100
AcDbLine
 10
99.105
 20
121.19315
 30
0.0
 11
99.419580251712
 21
119.090387559892
 31
0.0
  0
LINE
  5
EB2
330
1D
100
AcDbEntity
  8
0
100
AcDbLine
 10
99.105
 20
136.08315
 30
0.0
 11
99.105
 21
138.98015
 31
0.0
  0
LINE
  5
EB3
330
1D
100
AcDbEntity
  8
0
100
AcDbLine
 10
99.105
 20
136.08315
 30
0.0
 11
99.105
 21
121.19315
 31
0.0
  0
LINE
  5
EB4
330
1D
100
AcDbEntity
  8
0
100
AcDbLine
 10
99.105
 20
138.98015
 30
0.0
 11
99.105
 21
143.58915
 31
0.0
  0
LINE
  5
EB5
330
1D
100
AcDbEntity
  8
0
100
AcDbLine
 10
99.105
 20
138.98015
 30
0.0
 11
99.105
 21
136.08315
 31
0.0
  0
LINE
  5
EB6
330
1D
100
AcDbEntity
  8
0
100
AcDbLine
 10
99.105
 20
143.58915
 30
0.0
 11
99.105
 21
149.59515
 31
0.0
  0
LINE
  5
EB7
330
1D
100
AcDbEntity
  8
0
100
AcDbLine
 10
99.105
 20
143.58915
 30
0.0
 11
99.105
 21
138.98015
 31
0.0
  0
LINE
  5
EB8
330
1D
100
AcDbEntity
  8
0
100
AcDbLine
 10
99.105
 20
149.59515
 30
0.0
 11
99.105
 21
143.58915
 31
0.0
  0
LINE
  5
EB9
330
1D
100
AcDbEntity
  8
0
100
AcDbLine
 10
99.105
 20
149.59515
 30
0.0
 11
99.105
 21
156.58915
 31
0.0
  0
LINE
  5
EBA
330
1D
100
AcDbEntity
  8
0
100
AcDbLine
 10
99.105
 20
156.58915
 30
0.0
 11
99.105
 21
149.59515
 31
0.0
  0
LINE
  5
EBB
330
1D
100
AcDbEntity
  8
0
100
AcDbLine
 10
99.105
 20
156.58915
 30
0.0
 11
99.105
 21
164.09515
 31
0.0
  0
LINE
  5
EBC
330
1D
100
AcDbEntity
  8
0
100
AcDbLine
 10
99.947
 20
0.64325
 30
0.0
 11
110.064
 21
0.20485
 31
0.0
  0
LINE
  5
EBD
330
1D
100
AcDbEntity
  8
0
100
AcDbLine
 10
105.282
 20
94.63715
 30
0.0
 11
106.688
 21
94.25715
 31
0.0
  0
LINE
  5
EBE
330
1D
100
AcDbEntity
  8
0
100
AcDbLine
 10
103.923
 20
95.14515
 30
0.0
 11
105.282
 21
94.63715
 31
0.0
  0
LINE
  5
EBF
330
1D
100
AcDbEntity
  8
0
100
AcDbLine
 10
102.622
 20
95.77615
 30
0.0
 11
103.923
 21
95.14515
 31
0.0
  0
LINE
  5
EC0
330
1D
100
AcDbEntity
  8
0
100
AcDbLine
 10
105.249
 20
98.24915
 30
0.0
 11
106.664
 21
97.86615
 31
0.0
  0
LINE
  5
EC1
330
1D
100
AcDbEntity
  8
0
100
AcDbLine
 10
101.395
 20
96.52415
 30
0.0
 11
102.622
 21
95.77615
 31
0.0
  0
LINE
  5
EC2
330
1D
100
AcDbEntity
  8
0
100
AcDbLine
 10
100.251
 20
97.38115
 30
0.0
 11
101.395
 21
96.52415
 31
0.0
  0
LINE
  5
EC3
330
1D
100
AcDbEntity
  8
0
100
AcDbLine
 10
102.572
 20
99.39515
 30
0.0
 11
103.881
 21
98.76015
 31
0.0
  0
LINE
  5
EC4
330
1D
100
AcDbEntity
  8
0
100
AcDbLine
 10
101.337
 20
100.14815
 30
0.0
 11
102.572
 21
99.39515
 31
0.0
  0
LINE
  5
EC5
330
1D
100
AcDbEntity
  8
0
100
AcDbLine
 10
100.184
 20
101.01115
 30
0.0
 11
101.337
 21
100.14815
 31
0.0
  0
LINE
  5
EC6
330
1D
100
AcDbEntity
  8
0
100
AcDbLine
 10
102.572
 20
102.06815
 30
0.0
 11
103.881
 21
101.43315
 31
0.0
  0
LINE
  5
EC7
330
1D
100
AcDbEntity
  8
0
100
AcDbLine
 10
99.129
 20
101.97615
 30
0.0
 11
100.184
 21
101.01115
 31
0.0
  0
LINE
  5
EC8
330
1D
100
AcDbEntity
  8
0
100
AcDbLine
 10
103.881
 20
101.43315
 30
0.0
 11
105.249
 21
100.92215
 31
0.0
  0
LINE
  5
EC9
330
1D
100
AcDbEntity
  8
0
100
AcDbLine
 10
103.881
 20
98.76015
 30
0.0
 11
105.249
 21
98.24915
 31
0.0
  0
LINE
  5
ECA
330
1D
100
AcDbEntity
  8
0
100
AcDbLine
 10
105.023
 20
101.54615
 30
0.0
 11
106.424
 21
101.12815
 31
0.0
  0
LINE
  5
ECB
330
1D
100
AcDbEntity
  8
0
100
AcDbLine
 10
103.675
 20
102.09415
 30
0.0
 11
105.023
 21
101.54615
 31
0.0
  0
LINE
  5
ECC
330
1D
100
AcDbEntity
  8
0
100
AcDbLine
 10
101.336
 20
102.82115
 30
0.0
 11
102.572
 21
102.06815
 31
0.0
  0
LINE
  5
ECD
330
1D
100
AcDbEntity
  8
0
100
AcDbLine
 10
102.392
 20
102.76915
 30
0.0
 11
103.675
 21
102.09415
 31
0.0
  0
LINE
  5
ECE
330
1D
100
AcDbEntity
  8
0
100
AcDbLine
 10
100.184
 20
103.68415
 30
0.0
 11
101.336
 21
102.82115
 31
0.0
  0
LINE
  5
ECF
330
1D
100
AcDbEntity
  8
0
100
AcDbLine
 10
101.189
 20
103.56115
 30
0.0
 11
102.392
 21
102.76915
 31
0.0
  0
LINE
  5
ED0
330
1D
100
AcDbEntity
  8
0
100
AcDbLine
 10
99.128
 20
104.64815
 30
0.0
 11
100.184
 21
103.68415
 31
0.0
  0
LINE
  5
ED1
330
1D
100
AcDbEntity
  8
0
100
AcDbLine
 10
100.077
 20
104.46415
 30
0.0
 11
101.189
 21
103.56115
 31
0.0
  0
LINE
  5
ED2
330
1D
100
AcDbEntity
  8
0
100
AcDbLine
 10
100.078
 20
104.72715
 30
0.0
 11
101.189
 21
103.82415
 31
0.0
  0
LINE
  5
ED3
330
1D
100
AcDbEntity
  8
0
100
AcDbLine
 10
101.499
 20
104.36815
 30
0.0
 11
102.661
 21
103.60315
 31
0.0
  0
LINE
  5
ED4
330
1D
100
AcDbEntity
  8
0
100
AcDbLine
 10
101.189
 20
103.82415
 30
0.0
 11
102.393
 21
103.03115
 31
0.0
  0
LINE
  5
ED5
330
1D
100
AcDbEntity
  8
0
100
AcDbLine
 10
102.661
 20
103.60315
 30
0.0
 11
103.898
 21
102.95315
 31
0.0
  0
LINE
  5
ED6
330
1D
100
AcDbEntity
  8
0
100
AcDbLine
 10
102.393
 20
103.03115
 30
0.0
 11
103.675
 21
102.35715
 31
0.0
  0
LINE
  5
ED7
330
1D
100
AcDbEntity
  8
0
100
AcDbLine
 10
103.898
 20
102.95315
 30
0.0
 11
105.2
 21
102.42315
 31
0.0
  0
LINE
  5
ED8
330
1D
100
AcDbEntity
  8
0
100
AcDbLine
 10
103.675
 20
102.35715
 30
0.0
 11
105.023
 21
101.80915
 31
0.0
  0
LINE
  5
ED9
330
1D
100
AcDbEntity
  8
0
100
AcDbLine
 10
105.249
 20
100.92215
 30
0.0
 11
106.665
 21
100.53815
 31
0.0
  0
LINE
  5
EDA
330
1D
100
AcDbEntity
  8
0
100
AcDbLine
 10
105.2
 20
102.42315
 30
0.0
 11
106.552
 21
102.02015
 31
0.0
  0
LINE
  5
EDB
330
1D
100
AcDbEntity
  8
0
100
AcDbLine
 10
105.023
 20
101.80915
 30
0.0
 11
106.423
 21
101.39115
 31
0.0
  0
LINE
  5
EDC
330
1D
100
AcDbEntity
  8
0
100
AcDbLine
 10
99.201
 20
98.33915
 30
0.0
 11
100.251
 21
97.38115
 31
0.0
  0
LINE
  5
EDD
330
1D
100
AcDbEntity
  8
0
100
AcDbLine
 10
108.127
 20
94.00815
 30
0.0
 11
109.585
 21
93.89215
 31
0.0
  0
LINE
  5
EDE
330
1D
100
AcDbEntity
  8
0
100
AcDbLine
 10
106.665
 20
100.53815
 30
0.0
 11
108.114
 21
100.28715
 31
0.0
  0
LINE
  5
EDF
330
1D
100
AcDbEntity
  8
0
100
AcDbLine
 10
106.664
 20
97.86615
 30
0.0
 11
108.114
 21
97.61515
 31
0.0
  0
LINE
  5
EE0
330
1D
100
AcDbEntity
  8
0
100
AcDbLine
 10
107.862
 20
100.84715
 30
0.0
 11
109.323
 21
100.70215
 31
0.0
  0
LINE
  5
EE1
330
1D
100
AcDbEntity
  8
0
100
AcDbLine
 10
106.424
 20
101.12815
 30
0.0
 11
107.862
 21
100.84715
 31
0.0
  0
LINE
  5
EE2
330
1D
100
AcDbEntity
  8
0
100
AcDbLine
 10
106.552
 20
102.02015
 30
0.0
 11
107.94
 21
101.74715
 31
0.0
  0
LINE
  5
EE3
330
1D
100
AcDbEntity
  8
0
100
AcDbLine
 10
106.423
 20
101.39115
 30
0.0
 11
107.863
 21
101.10915
 31
0.0
  0
LINE
  5
EE4
330
1D
100
AcDbEntity
  8
0
100
AcDbLine
 10
108.114
 20
100.28715
 30
0.0
 11
109.581
 21
100.17115
 31
0.0
  0
LINE
  5
EE5
330
1D
100
AcDbEntity
  8
0
100
AcDbLine
 10
108.114
 20
97.61515
 30
0.0
 11
109.581
 21
97.49815
 31
0.0
  0
LINE
  5
EE6
330
1D
100
AcDbEntity
  8
0
100
AcDbLine
 10
107.94
 20
101.74715
 30
0.0
 11
109.351
 21
101.60815
 31
0.0
  0
LINE
  5
EE7
330
1D
100
AcDbEntity
  8
0
100
AcDbLine
 10
107.863
 20
101.10915
 30
0.0
 11
109.323
 21
100.96415
 31
0.0
  0
LINE
  5
EE8
330
1D
100
AcDbEntity
  8
0
100
AcDbLine
 10
106.688
 20
94.25715
 30
0.0
 11
108.127
 21
94.00815
 31
0.0
  0
LINE
  5
EE9
330
1D
100
AcDbEntity
  8
0
100
AcDbLine
 10
109.323
 20
100.70215
 30
0.0
 11
110.105
 21
100.69915
 31
0.0
  0
LINE
  5
EEA
330
1D
100
AcDbEntity
  8
0
100
AcDbLine
 10
109.581
 20
100.17115
 30
0.0
 11
110.105
 21
100.17815
 31
0.0
  0
LINE
  5
EEB
330
1D
100
AcDbEntity
  8
0
100
AcDbLine
 10
110.105
 20
93.89915
 30
0.0
 11
110.625
 21
93.89215
 31
0.0
  0
LINE
  5
EEC
330
1D
100
AcDbEntity
  8
0
100
AcDbLine
 10
110.105
 20
100.69915
 30
0.0
 11
110.887
 21
100.70215
 31
0.0
  0
LINE
  5
EED
330
1D
100
AcDbEntity
  8
0
100
AcDbLine
 10
110.105
 20
100.96215
 30
0.0
 11
110.887
 21
100.96415
 31
0.0
  0
LINE
  5
EEE
330
1D
100
AcDbEntity
  8
0
100
AcDbLine
 10
110.105
 20
101.60615
 30
0.0
 11
110.859
 21
101.60815
 31
0.0
  0
LINE
  5
EEF
330
1D
100
AcDbEntity
  8
0
100
AcDbLine
 10
110.105
 20
100.17815
 30
0.0
 11
110.629
 21
100.17115
 31
0.0
  0
LINE
  5
EF0
330
1D
100
AcDbEntity
  8
0
100
AcDbLine
 10
110.105
 20
97.50515
 30
0.0
 11
110.629
 21
97.49815
 31
0.0
  0
LINE
  5
EF1
330
1D
100
AcDbEntity
  8
0
100
AcDbLine
 10
109.581
 20
97.49815
 30
0.0
 11
110.105
 21
97.50515
 31
0.0
  0
LINE
  5
EF2
330
1D
100
AcDbEntity
  8
0
100
AcDbLine
 10
109.351
 20
101.60815
 30
0.0
 11
110.105
 21
101.60615
 31
0.0
  0
LINE
  5
EF3
330
1D
100
AcDbEntity
  8
0
100
AcDbLine
 10
109.323
 20
100.96415
 30
0.0
 11
110.105
 21
100.96215
 31
0.0
  0
LINE
  5
EF4
330
1D
100
AcDbEntity
  8
0
100
AcDbLine
 10
109.585
 20
93.89215
 30
0.0
 11
110.105
 21
93.89915
 31
0.0
  0
LINE
  5
EF5
330
1D
100
AcDbEntity
  8
0
100
AcDbLine
 10
99.451
 20
106.20815
 30
0.0
 11
100.426
 21
105.24015
 31
0.0
  0
LINE
  5
EF6
330
1D
100
AcDbEntity
  8
0
100
AcDbLine
 10
100.426
 20
105.24015
 30
0.0
 11
101.499
 21
104.36815
 31
0.0
  0
LINE
  5
EF7
330
1D
100
AcDbEntity
  8
0
100
AcDbLine
 10
99.288
 20
113.13115
 30
0.0
 11
100.197
 21
112.20315
 31
0.0
  0
LINE
  5
EF8
330
1D
100
AcDbEntity
  8
0
100
AcDbLine
 10
99.419
 20
113.90215
 30
0.0
 11
100.295
 21
112.95515
 31
0.0
  0
LINE
  5
EF9
330
1D
100
AcDbEntity
  8
0
100
AcDbLine
 10
99.288
 20
109.87615
 30
0.0
 11
100.197
 21
108.94815
 31
0.0
  0
LINE
  5
EFA
330
1D
100
AcDbEntity
  8
0
100
AcDbLine
 10
101.196
 20
108.10515
 30
0.0
 11
102.275
 21
107.35715
 31
0.0
  0
LINE
  5
EFB
330
1D
100
AcDbEntity
  8
0
100
AcDbLine
 10
100.295
 20
112.95515
 30
0.0
 11
101.265
 21
112.09415
 31
0.0
  0
LINE
  5
EFC
330
1D
100
AcDbEntity
  8
0
100
AcDbLine
 10
100.197
 20
112.20315
 30
0.0
 11
101.196
 21
111.36115
 31
0.0
  0
LINE
  5
EFD
330
1D
100
AcDbEntity
  8
0
100
AcDbLine
 10
101.265
 20
112.09415
 30
0.0
 11
102.321
 21
111.32715
 31
0.0
  0
LINE
  5
EFE
330
1D
100
AcDbEntity
  8
0
100
AcDbLine
 10
101.196
 20
111.36115
 30
0.0
 11
102.274
 21
110.61215
 31
0.0
  0
LINE
  5
EFF
330
1D
100
AcDbEntity
  8
0
100
AcDbLine
 10
100.197
 20
108.94815
 30
0.0
 11
101.196
 21
108.10515
 31
0.0
  0
LINE
  5
F00
330
1D
100
AcDbEntity
  8
0
100
AcDbLine
 10
99.419580251712
 20
119.090387559894
 30
0.0
 11
99.692
 21
118.24815
 31
0.0
  0
LINE
  5
F01
330
1D
100
AcDbEntity
  8
0
100
AcDbLine
 10
99.692
 20
118.24815
 30
0.0
 11
100.161
 21
117.21215
 31
0.0
  0
LINE
  5
F02
330
1D
100
AcDbEntity
  8
0
100
AcDbLine
 10
100.161
 20
117.21215
 30
0.0
 11
100.748
 21
116.22815
 31
0.0
  0
LINE
  5
F03
330
1D
100
AcDbEntity
  8
0
100
AcDbLine
 10
100.748
 20
116.22815
 30
0.0
 11
101.444
 21
115.31015
 31
0.0
  0
LINE
  5
F04
330
1D
100
AcDbEntity
  8
0
100
AcDbLine
 10
101.444
 20
115.31015
 30
0.0
 11
102.243
 21
114.46715
 31
0.0
  0
LINE
  5
F05
330
1D
100
AcDbEntity
  8
0
100
AcDbLine
 10
102.274
 20
110.61215
 30
0.0
 11
103.425
 21
109.96315
 31
0.0
  0
LINE
  5
F06
330
1D
100
AcDbEntity
  8
0
100
AcDbLine
 10
102.321
 20
111.32715
 30
0.0
 11
103.451
 21
110.66015
 31
0.0
  0
LINE
  5
F07
330
1D
100
AcDbEntity
  8
0
100
AcDbLine
 10
102.275
 20
107.35715
 30
0.0
 11
103.425
 21
106.70715
 31
0.0
  0
LINE
  5
F08
330
1D
100
AcDbEntity
  8
0
100
AcDbLine
 10
102.243
 20
114.46715
 30
0.0
 11
103.133
 21
113.71215
 31
0.0
  0
LINE
  5
F09
330
1D
100
AcDbEntity
  8
0
100
AcDbLine
 10
103.425
 20
109.96315
 30
0.0
 11
104.636
 21
109.41815
 31
0.0
  0
LINE
  5
F0A
330
1D
100
AcDbEntity
  8
0
100
AcDbLine
 10
108.52
 20
105.21015
 30
0.0
 11
109.858
 21
105.12815
 31
0.0
  0
LINE
  5
F0B
330
1D
100
AcDbEntity
  8
0
100
AcDbLine
 10
107.195
 20
105.41115
 30
0.0
 11
108.52
 21
105.21015
 31
0.0
  0
LINE
  5
F0C
330
1D
100
AcDbEntity
  8
0
100
AcDbLine
 10
105.897
 20
105.73015
 30
0.0
 11
107.195
 21
105.41115
 31
0.0
  0
LINE
  5
F0D
330
1D
100
AcDbEntity
  8
0
100
AcDbLine
 10
103.451
 20
110.66015
 30
0.0
 11
104.645
 21
110.10115
 31
0.0
  0
LINE
  5
F0E
330
1D
100
AcDbEntity
  8
0
100
AcDbLine
 10
104.645
 20
110.10115
 30
0.0
 11
105.892
 21
109.65415
 31
0.0
  0
LINE
  5
F0F
330
1D
100
AcDbEntity
  8
0
100
AcDbLine
 10
105.892
 20
109.65415
 30
0.0
 11
107.18
 21
109.32515
 31
0.0
  0
LINE
  5
F10
330
1D
100
AcDbEntity
  8
0
100
AcDbLine
 10
104.636
 20
109.41815
 30
0.0
 11
105.897
 21
108.98515
 31
0.0
  0
LINE
  5
F11
330
1D
100
AcDbEntity
  8
0
100
AcDbLine
 10
108.496
 20
109.11515
 30
0.0
 11
109.827
 21
109.02915
 31
0.0
  0
LINE
  5
F12
330
1D
100
AcDbEntity
  8
0
100
AcDbLine
 10
107.18
 20
109.32515
 30
0.0
 11
108.496
 21
109.11515
 31
0.0
  0
LINE
  5
F13
330
1D
100
AcDbEntity
  8
0
100
AcDbLine
 10
105.897
 20
108.98515
 30
0.0
 11
107.195
 21
108.66615
 31
0.0
  0
LINE
  5
F14
330
1D
100
AcDbEntity
  8
0
100
AcDbLine
 10
107.195
 20
108.66615
 30
0.0
 11
108.52
 21
108.46515
 31
0.0
  0
LINE
  5
F15
330
1D
100
AcDbEntity
  8
0
100
AcDbLine
 10
108.52
 20
108.46515
 30
0.0
 11
109.858
 21
108.38315
 31
0.0
  0
LINE
  5
F16
330
1D
100
AcDbEntity
  8
0
100
AcDbLine
 10
104.636
 20
106.16315
 30
0.0
 11
105.897
 21
105.73015
 31
0.0
  0
LINE
  5
F17
330
1D
100
AcDbEntity
  8
0
100
AcDbLine
 10
103.425
 20
106.70715
 30
0.0
 11
104.636
 21
106.16315
 31
0.0
  0
LINE
  5
F18
330
1D
100
AcDbEntity
  8
0
100
AcDbLine
 10
103.133
 20
113.71215
 30
0.0
 11
104.105
 21
113.05115
 31
0.0
  0
LINE
  5
F19
330
1D
100
AcDbEntity
  8
0
100
AcDbLine
 10
104.105
 20
113.05115
 30
0.0
 11
105.147
 21
112.49315
 31
0.0
  0
LINE
  5
F1A
330
1D
100
AcDbEntity
  8
0
100
AcDbLine
 10
105.147
 20
112.49315
 30
0.0
 11
106.248
 21
112.04315
 31
0.0
  0
LINE
  5
F1B
330
1D
100
AcDbEntity
  8
0
100
AcDbLine
 10
106.248
 20
112.04315
 30
0.0
 11
107.393
 21
111.70915
 31
0.0
  0
LINE
  5
F1C
330
1D
100
AcDbEntity
  8
0
100
AcDbLine
 10
107.393
 20
111.70915
 30
0.0
 11
108.571
 21
111.49215
 31
0.0
  0
LINE
  5
F1D
330
1D
100
AcDbEntity
  8
0
100
AcDbLine
 10
108.571
 20
111.49215
 30
0.0
 11
109.767
 21
111.39715
 31
0.0
  0
LINE
  5
F1E
330
1D
100
AcDbEntity
  8
0
100
AcDbLine
 10
110.105
 20
105.13515
 30
0.0
 11
110.352
 21
105.12815
 31
0.0
  0
LINE
  5
F1F
330
1D
100
AcDbEntity
  8
0
100
AcDbLine
 10
110.105
 20
109.03615
 30
0.0
 11
110.383
 21
109.02915
 31
0.0
  0
LINE
  5
F20
330
1D
100
AcDbEntity
  8
0
100
AcDbLine
 10
110.105
 20
108.39015
 30
0.0
 11
110.352
 21
108.38315
 31
0.0
  0
LINE
  5
F21
330
1D
100
AcDbEntity
  8
0
100
AcDbLine
 10
110.105
 20
111.40515
 30
0.0
 11
110.443
 21
111.39715
 31
0.0
  0
LINE
  5
F22
330
1D
100
AcDbEntity
  8
0
100
AcDbLine
 10
109.858
 20
108.38315
 30
0.0
 11
110.105
 21
108.39015
 31
0.0
  0
LINE
  5
F23
330
1D
100
AcDbEntity
  8
0
100
AcDbLine
 10
109.827
 20
109.02915
 30
0.0
 11
110.105
 21
109.03615
 31
0.0
  0
LINE
  5
F24
330
1D
100
AcDbEntity
  8
0
100
AcDbLine
 10
109.858
 20
105.12815
 30
0.0
 11
110.105
 21
105.13515
 31
0.0
  0
LINE
  5
F25
330
1D
100
AcDbEntity
  8
0
100
AcDbLine
 10
109.767
 20
111.39715
 30
0.0
 11
110.105
 21
111.40515
 31
0.0
  0
LINE
  5
F26
330
1D
100
AcDbEntity
  8
0
100
AcDbLine
 10
99.105
 20
164.09515
 30
0.0
 11
99.105
 21
171.60115
 31
0.0
  0
LINE
  5
F27
330
1D
100
AcDbEntity
  8
0
100
AcDbLine
 10
99.105
 20
164.09515
 30
0.0
 11
99.105
 21
156.58915
 31
0.0
  0
LINE
  5
F28
330
1D
100
AcDbEntity
  8
0
100
AcDbLine
 10
96.905
 20
261.96615
 30
0.0
 11
97.405
 21
260.61415
 31
0.0
  0
LINE
  5
F29
330
1D
100
AcDbEntity
  8
0
100
AcDbLine
 10
95.105
 20
273.88515
 30
0.0
 11
95.154270386266
 21
274.17215
 31
0.0
  0
LINE
  5
F2A
330
1D
100
AcDbEntity
  8
0
100
AcDbLine
 10
95.105
 20
273.88515
 30
0.0
 11
95.105
 21
272.45115
 31
0.0
  0
LINE
  5
F2B
330
1D
100
AcDbEntity
  8
0
100
AcDbLine
 10
95.105
 20
272.45115
 30
0.0
 11
95.105
 21
273.88515
 31
0.0
  0
LINE
  5
F2C
330
1D
100
AcDbEntity
  8
0
100
AcDbLine
 10
95.105
 20
272.45115
 30
0.0
 11
96.905
 21
261.96615
 31
0.0
  0
LINE
  5
F2D
330
1D
100
AcDbEntity
  8
0
100
AcDbLine
 10
97.405
 20
260.61415
 30
0.0
 11
99.105
 21
257.161733333333
 31
0.0
  0
LINE
  5
F2E
330
1D
100
AcDbEntity
  8
0
100
AcDbLine
 10
96.905
 20
263.97415
 30
0.0
 11
99.105
 21
259.523864285714
 31
0.0
  0
LINE
  5
F47
330
1D
100
AcDbEntity
  8
0
100
AcDbLine
 10
96.905
 20
290.96715
 30
0.0
 11
99.105
 21
295.542701020408
 31
0.0
  0
LINE
  5
F48
330
1D
100
AcDbEntity
  8
0
100
AcDbLine
 10
95.105
 20
280.48115
 30
0.0
 11
96.905
 21
290.96715
 31
0.0
  0
LINE
  5
F49
330
1D
100
AcDbEntity
  8
0
100
AcDbLine
 10
95.105
 20
280.48115
 30
0.0
 11
95.105
 21
274.45915
 31
0.0
  0
LINE
  5
F4A
330
1D
100
AcDbEntity
  8
0
100
AcDbLine
 10
95.105
 20
274.45915
 30
0.0
 11
95.105
 21
280.48115
 31
0.0
  0
LINE
  5
F4B
330
1D
100
AcDbEntity
  8
0
100
AcDbLine
 10
95.105
 20
274.45915
 30
0.0
 11
96.905
 21
263.97415
 31
0.0
  0
LINE
  5
F4C
330
1D
100
AcDbEntity
  8
0
100
AcDbLine
 10
121.105
 20
235.559864285714
 30
0.0
 11
121.205
 21
235.50715
 31
0.0
  0
LINE
  5
F4E
330
1D
100
AcDbEntity
  8
0
100
AcDbLine
 10
121.105
 20
238.691588016529
 30
0.0
 11
132.305
 21
234.97615
 31
0.0
  0
LINE
  5
F4F
330
1D
100
AcDbEntity
  8
0
100
AcDbLine
 10
121.205
 20
235.50715
 30
0.0
 11
132.805
 21
231.65715
 31
0.0
  0
LINE
  5
F50
330
1D
100
AcDbEntity
  8
0
100
AcDbLine
 10
121.547827145517
 20
316.54189746335
 30
0.0
 11
124.275
 21
318.55315
 31
0.0
  0
LINE
  5
F51
330
1D
100
AcDbEntity
  8
0
100
AcDbLine
 10
124.275
 20
318.55315
 30
0.0
 11
128.733
 21
322.91015
 31
0.0
  0
LINE
  5
F6C
330
1D
100
AcDbEntity
  8
0
100
AcDbLine
 10
128.733
 20
322.91015
 30
0.0
 11
131.362
 21
326.98615
 31
0.0
  0
LINE
  5
F6D
330
1D
100
AcDbEntity
  8
0
100
AcDbLine
 10
99.105
 20
171.60115
 30
0.0
 11
99.105
 21
432.29515
 31
0.0
  0
LINE
  5
F6E
330
1D
100
AcDbEntity
  8
0
100
AcDbLine
 10
99.105
 20
171.60115
 30
0.0
 11
99.105
 21
164.09515
 31
0.0
  0
LINE
  5
F7B
330
1D
100
AcDbEntity
  8
0
100
AcDbLine
 10
99.105
 20
432.29515
 30
0.0
 11
99.105
 21
171.60115
 31
0.0
  0
LINE
  5
FA8
330
1D
100
AcDbEntity
  8
0
100
AcDbLine
 10
131.362
 20
326.98615
 30
0.0
 11
133.105
 21
333.79815
 31
0.0
  0
LINE
  5
FA9
330
1D
100
AcDbEntity
  8
0
100
AcDbLine
 10
132.305
 20
234.97615
 30
0.0
 11
145.105
 21
233.50115
 31
0.0
  0
LINE
  5
FAA
330
1D
100
AcDbEntity
  8
0
100
AcDbLine
 10
132.805
 20
231.65715
 30
0.0
 11
145.105
 21
230.26415
 31
0.0
  0
LINE
  5
FB6
330
1D
100
AcDbEntity
  8
0
100
AcDbLine
 10
145.105
 20
230.26415
 30
0.0
 11
157.405
 21
231.65715
 31
0.0
  0
LINE
  5
FB7
330
1D
100
AcDbEntity
  8
0
100
AcDbLine
 10
145.105
 20
233.50115
 30
0.0
 11
157.905
 21
234.97615
 31
0.0
  0
LINE
  5
FC7
330
1D
100
AcDbEntity
  8
0
100
AcDbLine
 10
157.105
 20
333.79815
 30
0.0
 11
158.848
 21
326.98615
 31
0.0
  0
LINE
  5
FCA
330
1D
100
AcDbEntity
  8
0
100
AcDbLine
 10
157.405
 20
231.65715
 30
0.0
 11
169.005
 21
235.50715
 31
0.0
  0
LINE
  5
FCB
330
1D
100
AcDbEntity
  8
0
100
AcDbLine
 10
165.935
 20
318.55315
 30
0.0
 11
169.705
 21
317.40315
 31
0.0
  0
LINE
  5
FCC
330
1D
100
AcDbEntity
  8
0
100
AcDbLine
 10
161.477
 20
322.91015
 30
0.0
 11
165.935
 21
318.55315
 31
0.0
  0
LINE
  5
FCD
330
1D
100
AcDbEntity
  8
0
100
AcDbLine
 10
158.848
 20
326.98615
 30
0.0
 11
161.477
 21
322.91015
 31
0.0
  0
LINE
  5
FCE
330
1D
100
AcDbEntity
  8
0
100
AcDbLine
 10
157.905
 20
234.97615
 30
0.0
 11
170.005
 21
238.99015
 31
0.0
  0
LINE
  5
FCF
330
1D
100
AcDbEntity
  8
0
100
AcDbLine
 10
169.705
 20
235.87615
 30
0.0
 11
180.105
 21
242.34715
 31
0.0
  0
LINE
  5
FD0
330
1D
100
AcDbEntity
  8
0
100
AcDbLine
 10
169.005
 20
235.50715
 30
0.0
 11
169.705
 21
235.87615
 31
0.0
  0
LINE
  5
FD1
330
1D
100
AcDbEntity
  8
0
100
AcDbLine
 10
169.705
 20
317.40315
 30
0.0
 11
180.105
 21
310.52715
 31
0.0
  0
LINE
  5
FD2
330
1D
100
AcDbEntity
  8
0
100
AcDbLine
 10
170.005
 20
238.99015
 30
0.0
 11
180.405
 21
245.54315
 31
0.0
  0
LINE
  5
FD3
330
1D
100
AcDbEntity
  8
0
100
AcDbLine
 10
180.105
 20
242.34715
 30
0.0
 11
188.005
 21
250.86615
 31
0.0
  0
LINE
  5
FD4
330
1D
100
AcDbEntity
  8
0
100
AcDbLine
 10
180.405
 20
245.54315
 30
0.0
 11
188.405
 21
254.06215
 31
0.0
  0
LINE
  5
FD5
330
1D
100
AcDbEntity
  8
0
100
AcDbLine
 10
180.405
 20
310.23415
 30
0.0
 11
188.405
 21
301.15815
 31
0.0
  0
LINE
  5
FD6
330
1D
100
AcDbEntity
  8
0
100
AcDbLine
 10
180.105
 20
310.52715
 30
0.0
 11
180.405
 21
310.23415
 31
0.0
  0
LINE
  5
FD7
330
1D
100
AcDbEntity
  8
0
100
AcDbLine
 10
188.005
 20
250.86615
 30
0.0
 11
192.805
 21
260.61415
 31
0.0
  0
LINE
  5
FD8
330
1D
100
AcDbEntity
  8
0
100
AcDbLine
 10
193.305
 20
261.96615
 30
0.0
 11
195.105
 21
272.45115
 31
0.0
  0
LINE
  5
FD9
330
1D
100
AcDbEntity
  8
0
100
AcDbLine
 10
192.805
 20
260.61415
 30
0.0
 11
193.305
 21
261.96615
 31
0.0
  0
LINE
  5
FDA
330
1D
100
AcDbEntity
  8
0
100
AcDbLine
 10
188.405
 20
254.06215
 30
0.0
 11
193.305
 21
263.97415
 31
0.0
  0
LINE
  5
FDB
330
1D
100
AcDbEntity
  8
0
100
AcDbLine
 10
195.105
 20
272.45115
 30
0.0
 11
195.105
 21
273.88515
 31
0.0
  0
LINE
  5
FDC
330
1D
100
AcDbEntity
  8
0
100
AcDbLine
 10
195.055729613734
 20
274.17215
 30
0.0
 11
195.105
 21
273.88515
 31
0.0
  0
LINE
  5
FDD
330
1D
100
AcDbEntity
  8
0
100
AcDbLine
 10
195.105
 20
273.88515
 30
0.0
 11
195.105
 21
272.45115
 31
0.0
  0
LINE
  5
FDE
330
1D
100
AcDbEntity
  8
0
100
AcDbLine
 10
195.105
 20
280.48115
 30
0.0
 11
195.105
 21
274.45915
 31
0.0
  0
LINE
  5
FDF
330
1D
100
AcDbEntity
  8
0
100
AcDbLine
 10
195.105
 20
274.45915
 30
0.0
 11
195.105
 21
280.48115
 31
0.0
  0
LINE
  5
FE0
330
1D
100
AcDbEntity
  8
0
100
AcDbLine
 10
193.305
 20
263.97415
 30
0.0
 11
195.105
 21
274.45915
 31
0.0
  0
LINE
  5
FE1
330
1D
100
AcDbEntity
  8
0
100
AcDbLine
 10
188.405
 20
301.15815
 30
0.0
 11
193.305
 21
290.96715
 31
0.0
  0
LINE
  5
FE2
330
1D
100
AcDbEntity
  8
0
100
AcDbLine
 10
193.305
 20
290.96715
 30
0.0
 11
195.105
 21
280.48115
 31
0.0
  0
LINE
  5
110E
330
1D
100
AcDbEntity
  8
0
100
AcDbLine
 10
121.105
 20
171.60115
 30
0.0
 11
121.105
 21
432.29515
 31
0.0
  0
LINE
  5
110F
330
1D
100
AcDbEntity
  8
0
100
AcDbLine
 10
121.105
 20
432.29515
 30
0.0
 11
121.105
 21
171.60115
 31
0.0
  0
LINE
  5
1110
330
1D
100
AcDbEntity
  8
0
100
AcDbLine
 10
140.147
 20
4.13145
 30
0.0
 11
130.291
 21
1.95445
 31
0.0
  0
LINE
  5
1111
330
1D
100
AcDbEntity
  8
0
100
AcDbLine
 10
140.232
 20
207.23715
 30
0.0
 11
130.342
 21
209.43015
 31
0.0
  0
LINE
  5
1112
330
1D
100
AcDbEntity
  8
0
100
AcDbLine
 10
218.227
 20
126.75815
 30
0.0
 11
215.904
 21
136.05415
 31
0.0
  0
LINE
  5
1113
330
1D
100
AcDbEntity
  8
0
100
AcDbLine
 10
203.341
 20
48.97815
 30
0.0
 11
197.6189
 21
41.12885
 31
0.0
  0
LINE
  5
1114
330
1D
100
AcDbEntity
  8
0
100
AcDbLine
 10
212.693
 20
66.67415
 30
0.0
 11
208.59
 21
57.94015
 31
0.0
  0
LINE
  5
1115
330
1D
100
AcDbEntity
  8
0
100
AcDbLine
 10
208.59
 20
57.94015
 30
0.0
 11
208.264
 21
57.29015
 31
0.0
  0
LINE
  5
1116
330
1D
100
AcDbEntity
  8
0
100
AcDbLine
 10
208.264
 20
57.29015
 30
0.0
 11
203.341
 21
48.97815
 31
0.0
  0
LINE
  5
1117
330
1D
100
AcDbEntity
  8
0
100
AcDbLine
 10
220.105
 20
103.98215
 30
0.0
 11
219.641
 21
94.47515
 31
0.0
  0
LINE
  5
1118
330
1D
100
AcDbEntity
  8
0
100
AcDbLine
 10
219.641
 20
94.47515
 30
0.0
 11
218.241
 21
85.01915
 31
0.0
  0
LINE
  5
1119
330
1D
100
AcDbEntity
  8
0
100
AcDbLine
 10
218.241
 20
85.01915
 30
0.0
 11
215.919
 21
75.72615
 31
0.0
  0
LINE
  5
111A
330
1D
100
AcDbEntity
  8
0
100
AcDbLine
 10
215.919
 20
75.72615
 30
0.0
 11
212.693
 21
66.67415
 31
0.0
  0
LINE
  5
111B
330
1D
100
AcDbEntity
  8
0
100
AcDbLine
 10
219.628
 20
117.30115
 30
0.0
 11
218.227
 21
126.75815
 31
0.0
  0
LINE
  5
111C
330
1D
100
AcDbEntity
  8
0
100
AcDbLine
 10
220.093
 20
107.79415
 30
0.0
 11
219.628
 21
117.30115
 31
0.0
  0
LINE
  5
111D
330
1D
100
AcDbEntity
  8
0
100
AcDbLine
 10
220.105
 20
103.98215
 30
0.0
 11
220.093
 21
107.79415
 31
0.0
  0
LINE
  5
111E
330
1D
100
AcDbEntity
  8
0
100
AcDbLine
 10
167.8548
 20
15.62665
 30
0.0
 11
159.0076
 21
10.99675
 31
0.0
  0
LINE
  5
111F
330
1D
100
AcDbEntity
  8
0
100
AcDbLine
 10
197.6189
 20
41.12885
 30
0.0
 11
191.1515
 21
33.80835
 31
0.0
  0
LINE
  5
1120
330
1D
100
AcDbEntity
  8
0
100
AcDbLine
 10
183.9951
 20
27.08135
 30
0.0
 11
176.2061
 21
21.00295
 31
0.0
  0
LINE
  5
1121
330
1D
100
AcDbEntity
  8
0
100
AcDbLine
 10
191.1515
 20
33.80835
 30
0.0
 11
183.9951
 21
27.08135
 31
0.0
  0
LINE
  5
1122
330
1D
100
AcDbEntity
  8
0
100
AcDbLine
 10
176.2061
 20
21.00295
 30
0.0
 11
167.8548
 21
15.62665
 31
0.0
  0
LINE
  5
1123
330
1D
100
AcDbEntity
  8
0
100
AcDbLine
 10
159.0076
 20
10.99675
 30
0.0
 11
149.747
 21
7.15525
 31
0.0
  0
LINE
  5
1124
330
1D
100
AcDbEntity
  8
0
100
AcDbLine
 10
149.747
 20
7.15525
 30
0.0
 11
140.147
 21
4.13145
 31
0.0
  0
LINE
  5
1125
330
1D
100
AcDbEntity
  8
0
100
AcDbLine
 10
203.637
 20
162.19015
 30
0.0
 11
197.8959
 21
170.07215
 31
0.0
  0
LINE
  5
1126
330
1D
100
AcDbEntity
  8
0
100
AcDbLine
 10
208.577
 20
153.84615
 30
0.0
 11
203.637
 21
162.19015
 31
0.0
  0
LINE
  5
1127
330
1D
100
AcDbEntity
  8
0
100
AcDbLine
 10
212.678
 20
145.10915
 30
0.0
 11
208.577
 21
153.84615
 31
0.0
  0
LINE
  5
1128
330
1D
100
AcDbEntity
  8
0
100
AcDbLine
 10
215.904
 20
136.05415
 30
0.0
 11
212.678
 21
145.10915
 31
0.0
  0
LINE
  5
1129
330
1D
100
AcDbEntity
  8
0
100
AcDbLine
 10
168.0307
 20
195.68115
 30
0.0
 11
159.156
 21
200.33415
 31
0.0
  0
LINE
  5
112A
330
1D
100
AcDbEntity
  8
0
100
AcDbLine
 10
176.4125
 20
190.28015
 30
0.0
 11
168.0307
 21
195.68115
 31
0.0
  0
LINE
  5
112B
330
1D
100
AcDbEntity
  8
0
100
AcDbLine
 10
184.226
 20
184.17715
 30
0.0
 11
176.4125
 21
190.28015
 31
0.0
  0
LINE
  5
112C
330
1D
100
AcDbEntity
  8
0
100
AcDbLine
 10
191.4079
 20
177.42115
 30
0.0
 11
184.226
 21
184.17715
 31
0.0
  0
LINE
  5
112D
330
1D
100
AcDbEntity
  8
0
100
AcDbLine
 10
197.8959
 20
170.07215
 30
0.0
 11
191.4079
 21
177.42115
 31
0.0
  0
LINE
  5
112E
330
1D
100
AcDbEntity
  8
0
100
AcDbLine
 10
149.864
 20
204.19715
 30
0.0
 11
140.232
 21
207.23715
 31
0.0
  0
LINE
  5
112F
330
1D
100
AcDbEntity
  8
0
100
AcDbLine
 10
159.156
 20
200.33415
 30
0.0
 11
149.864
 21
204.19715
 31
0.0
  0
LINE
  5
1130
330
1D
100
AcDbEntity
  8
0
100
AcDbLine
 10
122.439
 20
128.05015
 30
0.0
 11
121.733
 21
129.12215
 31
0.0
  0
LINE
  5
1131
330
1D
100
AcDbEntity
  8
0
100
AcDbLine
 10
122.226
 20
127.58915
 30
0.0
 11
121.564
 21
128.67815
 31
0.0
  0
LINE
  5
1132
330
1D
100
AcDbEntity
  8
0
100
AcDbLine
 10
121.105
 20
121.19315
 30
0.0
 11
121.105
 21
136.08315
 31
0.0
  0
LINE
  5
1133
330
1D
100
AcDbEntity
  8
0
100
AcDbLine
 10
121.105
 20
136.08315
 30
0.0
 11
121.105
 21
121.19315
 31
0.0
  0
LINE
  5
1134
330
1D
100
AcDbEntity
  8
0
100
AcDbLine
 10
130.291
 20
1.95445
 30
0.0
 11
120.263
 21
0.64325
 31
0.0
  0
LINE
  5
1135
330
1D
100
AcDbEntity
  8
0
100
AcDbLine
 10
120.263
 20
0.64325
 30
0.0
 11
110.146
 21
0.20485
 31
0.0
  0
LINE
  5
1136
330
1D
100
AcDbEntity
  8
0
100
AcDbLine
 10
118.815
 20
96.52415
 30
0.0
 11
117.588
 21
95.77615
 31
0.0
  0
LINE
  5
1137
330
1D
100
AcDbEntity
  8
0
100
AcDbLine
 10
114.928
 20
94.63715
 30
0.0
 11
113.522
 21
94.25715
 31
0.0
  0
LINE
  5
1138
330
1D
100
AcDbEntity
  8
0
100
AcDbLine
 10
116.287
 20
95.14515
 30
0.0
 11
114.928
 21
94.63715
 31
0.0
  0
LINE
  5
1139
330
1D
100
AcDbEntity
  8
0
100
AcDbLine
 10
117.588
 20
95.77615
 30
0.0
 11
116.287
 21
95.14515
 31
0.0
  0
LINE
  5
113A
330
1D
100
AcDbEntity
  8
0
100
AcDbLine
 10
112.083
 20
94.00815
 30
0.0
 11
110.625
 21
93.89215
 31
0.0
  0
LINE
  5
113B
330
1D
100
AcDbEntity
  8
0
100
AcDbLine
 10
113.522
 20
94.25715
 30
0.0
 11
112.083
 21
94.00815
 31
0.0
  0
LINE
  5
113C
330
1D
100
AcDbEntity
  8
0
100
AcDbLine
 10
110.105
 20
93.89915
 30
0.0
 11
109.585
 21
93.89215
 31
0.0
  0
LINE
  5
113D
330
1D
100
AcDbEntity
  8
0
100
AcDbLine
 10
110.625
 20
93.89215
 30
0.0
 11
110.105
 21
93.89915
 31
0.0
  0
LINE
  5
113E
330
1D
100
AcDbEntity
  8
0
100
AcDbLine
 10
118.873
 20
100.14815
 30
0.0
 11
117.638
 21
99.39515
 31
0.0
  0
LINE
  5
113F
330
1D
100
AcDbEntity
  8
0
100
AcDbLine
 10
118.874
 20
102.82115
 30
0.0
 11
117.638
 21
102.06815
 31
0.0
  0
LINE
  5
1140
330
1D
100
AcDbEntity
  8
0
100
AcDbLine
 10
119.021
 20
103.56115
 30
0.0
 11
117.818
 21
102.76915
 31
0.0
  0
LINE
  5
1141
330
1D
100
AcDbEntity
  8
0
100
AcDbLine
 10
118.711
 20
104.36815
 30
0.0
 11
117.549
 21
103.60315
 31
0.0
  0
LINE
  5
1142
330
1D
100
AcDbEntity
  8
0
100
AcDbLine
 10
119.021
 20
103.82415
 30
0.0
 11
117.817
 21
103.03115
 31
0.0
  0
LINE
  5
1143
330
1D
100
AcDbEntity
  8
0
100
AcDbLine
 10
119.014
 20
108.10515
 30
0.0
 11
117.935
 21
107.35715
 31
0.0
  0
LINE
  5
1144
330
1D
100
AcDbEntity
  8
0
100
AcDbLine
 10
118.945
 20
112.09415
 30
0.0
 11
117.889
 21
111.32715
 31
0.0
  0
LINE
  5
1145
330
1D
100
AcDbEntity
  8
0
100
AcDbLine
 10
119.014
 20
111.36115
 30
0.0
 11
117.936
 21
110.61215
 31
0.0
  0
LINE
  5
1146
330
1D
100
AcDbEntity
  8
0
100
AcDbLine
 10
118.766
 20
115.31015
 30
0.0
 11
117.967
 21
114.46715
 31
0.0
  0
LINE
  5
1147
330
1D
100
AcDbEntity
  8
0
100
AcDbLine
 10
125.097
 20
114.26315
 30
0.0
 11
125.097
 21
111.59015
 31
0.0
  0
LINE
  5
1148
330
1D
100
AcDbEntity
  8
0
100
AcDbLine
 10
125.083
 20
113.37615
 30
0.0
 11
124.919
 21
112.00015
 31
0.0
  0
LINE
  5
1149
330
1D
100
AcDbEntity
  8
0
100
AcDbLine
 10
125.097
 20
111.59015
 30
0.0
 11
125.097
 21
114.26315
 31
0.0
  0
LINE
  5
114A
330
1D
100
AcDbEntity
  8
0
100
AcDbLine
 10
124.541
 20
112.97815
 30
0.0
 11
124.323
 21
111.61315
 31
0.0
  0
LINE
  5
114B
330
1D
100
AcDbEntity
  8
0
100
AcDbLine
 10
124.54
 20
113.24015
 30
0.0
 11
124.323
 21
111.87515
 31
0.0
  0
LINE
  5
114C
330
1D
100
AcDbEntity
  8
0
100
AcDbLine
 10
123.829
 20
112.14015
 30
0.0
 11
123.477
 21
110.84815
 31
0.0
  0
LINE
  5
114D
330
1D
100
AcDbEntity
  8
0
100
AcDbLine
 10
123.033
 20
113.08515
 30
0.0
 11
122.439
 21
111.95315
 31
0.0
  0
LINE
  5
114E
330
1D
100
AcDbEntity
  8
0
100
AcDbLine
 10
119.915
 20
112.95515
 30
0.0
 11
118.945
 21
112.09415
 31
0.0
  0
LINE
  5
114F
330
1D
100
AcDbEntity
  8
0
100
AcDbLine
 10
120.013
 20
112.20315
 30
0.0
 11
119.014
 21
111.36115
 31
0.0
  0
LINE
  5
1150
330
1D
100
AcDbEntity
  8
0
100
AcDbLine
 10
122.868
 20
104.17315
 30
0.0
 11
122.033
 21
103.03315
 31
0.0
  0
LINE
  5
1151
330
1D
100
AcDbEntity
  8
0
100
AcDbLine
 10
124.513
 20
104.29715
 30
0.0
 11
124.069
 21
102.98815
 31
0.0
  0
LINE
  5
1152
330
1D
100
AcDbEntity
  8
0
100
AcDbLine
 10
121.082
 20
104.64815
 30
0.0
 11
120.026
 21
103.68415
 31
0.0
  0
LINE
  5
1153
330
1D
100
AcDbEntity
  8
0
100
AcDbLine
 10
120.133
 20
104.46415
 30
0.0
 11
119.021
 21
103.56115
 31
0.0
  0
LINE
  5
1154
330
1D
100
AcDbEntity
  8
0
100
AcDbLine
 10
120.132
 20
104.72715
 30
0.0
 11
119.021
 21
103.82415
 31
0.0
  0
LINE
  5
1155
330
1D
100
AcDbEntity
  8
0
100
AcDbLine
 10
121.952
 20
99.38915
 30
0.0
 11
121.009
 21
98.33915
 31
0.0
  0
LINE
  5
1156
330
1D
100
AcDbEntity
  8
0
100
AcDbLine
 10
122.782
 20
100.52215
 30
0.0
 11
121.952
 21
99.38915
 31
0.0
  0
LINE
  5
1157
330
1D
100
AcDbEntity
  8
0
100
AcDbLine
 10
122.033
 20
103.03315
 30
0.0
 11
121.081
 21
101.97615
 31
0.0
  0
LINE
  5
1158
330
1D
100
AcDbEntity
  8
0
100
AcDbLine
 10
123.49
 20
101.72515
 30
0.0
 11
122.782
 21
100.52215
 31
0.0
  0
LINE
  5
1159
330
1D
100
AcDbEntity
  8
0
100
AcDbLine
 10
124.069
 20
102.98815
 30
0.0
 11
123.49
 21
101.72515
 31
0.0
  0
LINE
  5
115A
330
1D
100
AcDbEntity
  8
0
100
AcDbLine
 10
119.959
 20
97.38115
 30
0.0
 11
118.815
 21
96.52415
 31
0.0
  0
LINE
  5
115B
330
1D
100
AcDbEntity
  8
0
100
AcDbLine
 10
120.026
 20
101.01115
 30
0.0
 11
118.873
 21
100.14815
 31
0.0
  0
LINE
  5
115C
330
1D
100
AcDbEntity
  8
0
100
AcDbLine
 10
121.081
 20
101.97615
 30
0.0
 11
120.026
 21
101.01115
 31
0.0
  0
LINE
  5
115D
330
1D
100
AcDbEntity
  8
0
100
AcDbLine
 10
120.026
 20
103.68415
 30
0.0
 11
118.874
 21
102.82115
 31
0.0
  0
LINE
  5
115E
330
1D
100
AcDbEntity
  8
0
100
AcDbLine
 10
121.009
 20
98.33915
 30
0.0
 11
119.959
 21
97.38115
 31
0.0
  0
LINE
  5
115F
330
1D
100
AcDbEntity
  8
0
100
AcDbLine
 10
122.868
 20
106.84615
 30
0.0
 11
122.032
 21
105.70615
 31
0.0
  0
LINE
  5
1160
330
1D
100
AcDbEntity
  8
0
100
AcDbLine
 10
122.811
 20
107.73615
 30
0.0
 11
122.038
 21
106.56315
 31
0.0
  0
LINE
  5
1161
330
1D
100
AcDbEntity
  8
0
100
AcDbLine
 10
122.439
 20
111.95315
 30
0.0
 11
121.733
 21
110.88115
 31
0.0
  0
LINE
  5
1162
330
1D
100
AcDbEntity
  8
0
100
AcDbLine
 10
122.369
 20
108.39915
 30
0.0
 11
121.623
 21
107.26515
 31
0.0
  0
LINE
  5
1163
330
1D
100
AcDbEntity
  8
0
100
AcDbLine
 10
122.81
 20
107.99915
 30
0.0
 11
122.037
 21
106.82515
 31
0.0
  0
LINE
  5
1164
330
1D
100
AcDbEntity
  8
0
100
AcDbLine
 10
124.996
 20
109.972729268293
 30
0.0
 11
124.996
 21
107.88915
 31
0.0
  0
LINE
  5
1165
330
1D
100
AcDbEntity
  8
0
100
AcDbLine
 10
123.453
 20
108.97915
 30
0.0
 11
122.811
 21
107.73615
 31
0.0
  0
LINE
  5
1166
330
1D
100
AcDbEntity
  8
0
100
AcDbLine
 10
124.163
 20
109.32815
 30
0.0
 11
123.58
 21
108.05715
 31
0.0
  0
LINE
  5
1167
330
1D
100
AcDbEntity
  8
0
100
AcDbLine
 10
124.919
 20
109.32715
 30
0.0
 11
124.611
 21
107.97415
 31
0.0
  0
LINE
  5
1168
330
1D
100
AcDbEntity
  8
0
100
AcDbLine
 10
123.453
 20
109.24115
 30
0.0
 11
122.81
 21
107.99915
 31
0.0
  0
LINE
  5
1169
330
1D
100
AcDbEntity
  8
0
100
AcDbLine
 10
124.996
 20
107.88915
 30
0.0
 11
124.996
 21
109.972729268293
 31
0.0
  0
LINE
  5
116A
330
1D
100
AcDbEntity
  8
0
100
AcDbLine
 10
123.58
 20
105.38415
 30
0.0
 11
122.868
 21
104.17315
 31
0.0
  0
LINE
  5
116B
330
1D
100
AcDbEntity
  8
0
100
AcDbLine
 10
124.163
 20
106.65615
 30
0.0
 11
123.58
 21
105.38415
 31
0.0
  0
LINE
  5
116C
330
1D
100
AcDbEntity
  8
0
100
AcDbLine
 10
124.819
 20
105.64315
 30
0.0
 11
124.513
 21
104.29715
 31
0.0
  0
LINE
  5
116D
330
1D
100
AcDbEntity
  8
0
100
AcDbLine
 10
124.611
 20
107.97415
 30
0.0
 11
124.163
 21
106.65615
 31
0.0
  0
LINE
  5
116E
330
1D
100
AcDbEntity
  8
0
100
AcDbLine
 10
123.58
 20
108.05715
 30
0.0
 11
122.868
 21
106.84615
 31
0.0
  0
LINE
  5
116F
330
1D
100
AcDbEntity
  8
0
100
AcDbLine
 10
124.983
 20
107.00815
 30
0.0
 11
124.819
 21
105.64315
 31
0.0
  0
LINE
  5
1170
330
1D
100
AcDbEntity
  8
0
100
AcDbLine
 10
124.996
 20
107.88915
 30
0.0
 11
124.983
 21
107.00815
 31
0.0
  0
LINE
  5
1171
330
1D
100
AcDbEntity
  8
0
100
AcDbLine
 10
125.083
 20
110.70215
 30
0.0
 11
124.919
 21
109.32715
 31
0.0
  0
LINE
  5
1172
330
1D
100
AcDbEntity
  8
0
100
AcDbLine
 10
125.097
 20
111.59015
 30
0.0
 11
125.083
 21
110.70215
 31
0.0
  0
LINE
  5
1173
330
1D
100
AcDbEntity
  8
0
100
AcDbLine
 10
123.959
 20
110.27515
 30
0.0
 11
123.453
 21
108.97915
 31
0.0
  0
LINE
  5
1174
330
1D
100
AcDbEntity
  8
0
100
AcDbLine
 10
124.61
 20
110.64715
 30
0.0
 11
124.163
 21
109.32815
 31
0.0
  0
LINE
  5
1175
330
1D
100
AcDbEntity
  8
0
100
AcDbLine
 10
124.323
 20
111.61315
 30
0.0
 11
123.959
 21
110.27515
 31
0.0
  0
LINE
  5
1176
330
1D
100
AcDbEntity
  8
0
100
AcDbLine
 10
124.919
 20
112.00015
 30
0.0
 11
124.61
 21
110.64715
 31
0.0
  0
LINE
  5
1177
330
1D
100
AcDbEntity
  8
0
100
AcDbLine
 10
124.323
 20
111.87515
 30
0.0
 11
123.959
 21
110.53715
 31
0.0
  0
LINE
  5
1178
330
1D
100
AcDbEntity
  8
0
100
AcDbLine
 10
123.477
 20
110.84815
 30
0.0
 11
122.99
 21
109.59715
 31
0.0
  0
LINE
  5
1179
330
1D
100
AcDbEntity
  8
0
100
AcDbLine
 10
123.959
 20
110.53715
 30
0.0
 11
123.453
 21
109.24115
 31
0.0
  0
LINE
  5
117A
330
1D
100
AcDbEntity
  8
0
100
AcDbLine
 10
122.99
 20
109.59715
 30
0.0
 11
122.369
 21
108.39915
 31
0.0
  0
LINE
  5
117B
330
1D
100
AcDbEntity
  8
0
100
AcDbLine
 10
122.032
 20
105.70615
 30
0.0
 11
121.082
 21
104.64815
 31
0.0
  0
LINE
  5
117C
330
1D
100
AcDbEntity
  8
0
100
AcDbLine
 10
122.038
 20
106.56315
 30
0.0
 11
121.141
 21
105.46815
 31
0.0
  0
LINE
  5
117D
330
1D
100
AcDbEntity
  8
0
100
AcDbLine
 10
122.037
 20
106.82515
 30
0.0
 11
121.142
 21
105.73115
 31
0.0
  0
LINE
  5
117E
330
1D
100
AcDbEntity
  8
0
100
AcDbLine
 10
121.141
 20
105.46815
 30
0.0
 11
120.133
 21
104.46415
 31
0.0
  0
LINE
  5
117F
330
1D
100
AcDbEntity
  8
0
100
AcDbLine
 10
121.142
 20
105.73115
 30
0.0
 11
120.132
 21
104.72715
 31
0.0
  0
LINE
  5
1180
330
1D
100
AcDbEntity
  8
0
100
AcDbLine
 10
121.733
 20
110.88115
 30
0.0
 11
120.922
 21
109.87615
 31
0.0
  0
LINE
  5
1181
330
1D
100
AcDbEntity
  8
0
100
AcDbLine
 10
121.623
 20
107.26515
 30
0.0
 11
120.759
 21
106.20815
 31
0.0
  0
LINE
  5
1182
330
1D
100
AcDbEntity
  8
0
100
AcDbLine
 10
120.759
 20
106.20815
 30
0.0
 11
119.784
 21
105.24015
 31
0.0
  0
LINE
  5
1183
330
1D
100
AcDbEntity
  8
0
100
AcDbLine
 10
119.784
 20
105.24015
 30
0.0
 11
118.711
 21
104.36815
 31
0.0
  0
LINE
  5
1184
330
1D
100
AcDbEntity
  8
0
100
AcDbLine
 10
120.922
 20
109.87615
 30
0.0
 11
120.013
 21
108.94815
 31
0.0
  0
LINE
  5
1185
330
1D
100
AcDbEntity
  8
0
100
AcDbLine
 10
120.013
 20
108.94815
 30
0.0
 11
119.014
 21
108.10515
 31
0.0
  0
LINE
  5
1186
330
1D
100
AcDbEntity
  8
0
100
AcDbLine
 10
124.201
 20
120.31215
 30
0.0
 11
124.200756682028
 21
119.937197004608
 31
0.0
  0
LINE
  5
1187
330
1D
100
AcDbEntity
  8
0
100
AcDbLine
 10
124.2
 20
121.23415
 30
0.0
 11
124.096
 21
119.97715
 31
0.0
  0
LINE
  5
1188
330
1D
100
AcDbEntity
  8
0
100
AcDbLine
 10
124.201
 20
119.52015
 30
0.0
 11
124.2
 21
121.23415
 31
0.0
  0
LINE
  5
1189
330
1D
100
AcDbEntity
  8
0
100
AcDbLine
 10
123.662
 20
120.81215
 30
0.0
 11
123.493
 21
119.56915
 31
0.0
  0
LINE
  5
118A
330
1D
100
AcDbEntity
  8
0
100
AcDbLine
 10
121.105
 20
121.19315
 30
0.0
 11
120.790419748288
 21
119.090387559892
 31
0.0
  0
LINE
  5
118B
330
1D
100
AcDbEntity
  8
0
100
AcDbLine
 10
122.439
 20
115.20815
 30
0.0
 11
121.733
 21
114.13615
 31
0.0
  0
LINE
  5
118C
330
1D
100
AcDbEntity
  8
0
100
AcDbLine
 10
122.226
 20
116.01215
 30
0.0
 11
121.564
 21
114.92415
 31
0.0
  0
LINE
  5
118D
330
1D
100
AcDbEntity
  8
0
100
AcDbLine
 10
125.083
 20
115.15015
 30
0.0
 11
124.919
 21
116.52715
 31
0.0
  0
LINE
  5
118E
330
1D
100
AcDbEntity
  8
0
100
AcDbLine
 10
124.54
 20
115.90315
 30
0.0
 11
124.323
 21
117.26715
 31
0.0
  0
LINE
  5
118F
330
1D
100
AcDbEntity
  8
0
100
AcDbLine
 10
124.039
 20
116.02715
 30
0.0
 11
124.006171101531
 21
116.233190419914
 31
0.0
  0
LINE
  5
1190
330
1D
100
AcDbEntity
  8
0
100
AcDbLine
 10
124.097
 20
116.72115
 30
0.0
 11
123.866
 21
115.48015
 31
0.0
  0
LINE
  5
1191
330
1D
100
AcDbEntity
  8
0
100
AcDbLine
 10
123.033
 20
116.34015
 30
0.0
 11
122.439
 21
115.20815
 31
0.0
  0
LINE
  5
1192
330
1D
100
AcDbEntity
  8
0
100
AcDbLine
 10
122.772
 20
117.15715
 30
0.0
 11
122.226
 21
116.01215
 31
0.0
  0
LINE
  5
1193
330
1D
100
AcDbEntity
  8
0
100
AcDbLine
 10
125.097
 20
114.26315
 30
0.0
 11
125.083
 21
113.37615
 31
0.0
  0
LINE
  5
1194
330
1D
100
AcDbEntity
  8
0
100
AcDbLine
 10
125.097
 20
114.26315
 30
0.0
 11
125.083
 21
115.15015
 31
0.0
  0
LINE
  5
1195
330
1D
100
AcDbEntity
  8
0
100
AcDbLine
 10
124.104
 20
114.74215
 30
0.0
 11
124.039
 21
113.45815
 31
0.0
  0
LINE
  5
1196
330
1D
100
AcDbEntity
  8
0
100
AcDbLine
 10
124.104
 20
114.74215
 30
0.0
 11
124.039
 21
116.02715
 31
0.0
  0
LINE
  5
1197
330
1D
100
AcDbEntity
  8
0
100
AcDbLine
 10
124.608
 20
114.57115
 30
0.0
 11
124.54
 21
113.24015
 31
0.0
  0
LINE
  5
1198
330
1D
100
AcDbEntity
  8
0
100
AcDbLine
 10
124.608
 20
114.57115
 30
0.0
 11
124.54
 21
115.90315
 31
0.0
  0
LINE
  5
1199
330
1D
100
AcDbEntity
  8
0
100
AcDbLine
 10
123.866
 20
115.48015
 30
0.0
 11
123.51
 21
114.26315
 31
0.0
  0
LINE
  5
119A
330
1D
100
AcDbEntity
  8
0
100
AcDbLine
 10
124.039
 20
113.45815
 30
0.0
 11
123.829
 21
112.14015
 31
0.0
  0
LINE
  5
119B
330
1D
100
AcDbEntity
  8
0
100
AcDbLine
 10
123.51
 20
114.26315
 30
0.0
 11
123.033
 21
113.08515
 31
0.0
  0
LINE
  5
119C
330
1D
100
AcDbEntity
  8
0
100
AcDbLine
 10
124.323
 20
117.26715
 30
0.0
 11
124.18372192992
 21
117.779494329222
 31
0.0
  0
LINE
  5
119D
330
1D
100
AcDbEntity
  8
0
100
AcDbLine
 10
124.919
 20
116.52715
 30
0.0
 11
124.61
 21
117.87915
 31
0.0
  0
LINE
  5
119E
330
1D
100
AcDbEntity
  8
0
100
AcDbLine
 10
124.61
 20
117.87915
 30
0.0
 11
124.200719000917
 21
119.086849413403
 31
0.0
  0
LINE
  5
119F
330
1D
100
AcDbEntity
  8
0
100
AcDbLine
 10
124.2
 20
117.97815
 30
0.0
 11
124.193
 21
118.37415
 31
0.0
  0
LINE
  5
11A0
330
1D
100
AcDbEntity
  8
0
100
AcDbLine
 10
124.2
 20
117.97815
 30
0.0
 11
124.097
 21
116.72115
 31
0.0
  0
LINE
  5
11A1
330
1D
100
AcDbEntity
  8
0
100
AcDbLine
 10
124.201
 20
119.52015
 30
0.0
 11
124.2
 21
117.97815
 31
0.0
  0
LINE
  5
11A2
330
1D
100
AcDbEntity
  8
0
100
AcDbLine
 10
124.096
 20
119.97715
 30
0.0
 11
123.866
 21
118.73515
 31
0.0
  0
LINE
  5
11A3
330
1D
100
AcDbEntity
  8
0
100
AcDbLine
 10
123.866
 20
118.73515
 30
0.0
 11
123.51
 21
117.51815
 31
0.0
  0
LINE
  5
11A4
330
1D
100
AcDbEntity
  8
0
100
AcDbLine
 10
123.493
 20
119.56915
 30
0.0
 11
123.196
 21
118.34615
 31
0.0
  0
LINE
  5
11A5
330
1D
100
AcDbEntity
  8
0
100
AcDbLine
 10
123.51
 20
117.51815
 30
0.0
 11
123.033
 21
116.34015
 31
0.0
  0
LINE
  5
11A6
330
1D
100
AcDbEntity
  8
0
100
AcDbLine
 10
123.196
 20
118.34615
 30
0.0
 11
122.772
 21
117.15715
 31
0.0
  0
LINE
  5
11A7
330
1D
100
AcDbEntity
  8
0
100
AcDbLine
 10
121.733
 20
114.13615
 30
0.0
 11
120.922
 21
113.13115
 31
0.0
  0
LINE
  5
11A8
330
1D
100
AcDbEntity
  8
0
100
AcDbLine
 10
121.564
 20
114.92415
 30
0.0
 11
120.791
 21
113.90215
 31
0.0
  0
LINE
  5
11A9
330
1D
100
AcDbEntity
  8
0
100
AcDbLine
 10
120.922
 20
113.13115
 30
0.0
 11
120.013
 21
112.20315
 31
0.0
  0
LINE
  5
11AA
330
1D
100
AcDbEntity
  8
0
100
AcDbLine
 10
120.791
 20
113.90215
 30
0.0
 11
119.915
 21
112.95515
 31
0.0
  0
LINE
  5
11AB
330
1D
100
AcDbEntity
  8
0
100
AcDbLine
 10
120.518
 20
118.24815
 30
0.0
 11
120.049
 21
117.21215
 31
0.0
  0
LINE
  5
11AC
330
1D
100
AcDbEntity
  8
0
100
AcDbLine
 10
120.049
 20
117.21215
 30
0.0
 11
119.462
 21
116.22815
 31
0.0
  0
LINE
  5
11AD
330
1D
100
AcDbEntity
  8
0
100
AcDbLine
 10
119.462
 20
116.22815
 30
0.0
 11
118.766
 21
115.31015
 31
0.0
  0
LINE
  5
11AE
330
1D
100
AcDbEntity
  8
0
100
AcDbLine
 10
120.790419748288
 20
119.090387559894
 30
0.0
 11
120.518
 21
118.24815
 31
0.0
  0
LINE
  5
11AF
330
1D
100
AcDbEntity
  8
0
100
AcDbLine
 10
124.096
 20
123.28115
 30
0.0
 11
123.866
 21
124.52415
 31
0.0
  0
LINE
  5
11B0
330
1D
100
AcDbEntity
  8
0
100
AcDbLine
 10
123.493
 20
124.03315
 30
0.0
 11
123.196
 21
125.25515
 31
0.0
  0
LINE
  5
11B1
330
1D
100
AcDbEntity
  8
0
100
AcDbLine
 10
124.201
 20
120.31215
 30
0.0
 11
124.2
 21
122.02615
 31
0.0
  0
LINE
  5
11B2
330
1D
100
AcDbEntity
  8
0
100
AcDbLine
 10
124.2
 20
122.02615
 30
0.0
 11
124.193
 21
121.62915
 31
0.0
  0
LINE
  5
11B3
330
1D
100
AcDbEntity
  8
0
100
AcDbLine
 10
124.2
 20
122.02615
 30
0.0
 11
124.096
 21
123.28115
 31
0.0
  0
LINE
  5
11B4
330
1D
100
AcDbEntity
  8
0
100
AcDbLine
 10
124.2
 20
121.23415
 30
0.0
 11
124.193
 21
121.62915
 31
0.0
  0
LINE
  5
11B5
330
1D
100
AcDbEntity
  8
0
100
AcDbLine
 10
123.662
 20
122.78915
 30
0.0
 11
123.493
 21
124.03315
 31
0.0
  0
LINE
  5
11B6
330
1D
100
AcDbEntity
  8
0
100
AcDbLine
 10
123.693
 20
121.80115
 30
0.0
 11
123.662
 21
120.81215
 31
0.0
  0
LINE
  5
11B7
330
1D
100
AcDbEntity
  8
0
100
AcDbLine
 10
123.693
 20
121.80115
 30
0.0
 11
123.662
 21
122.78915
 31
0.0
  0
LINE
  5
11B8
330
1D
100
AcDbEntity
  8
0
100
AcDbLine
 10
123.866
 20
124.52415
 30
0.0
 11
123.51
 21
125.74115
 31
0.0
  0
LINE
  5
11B9
330
1D
100
AcDbEntity
  8
0
100
AcDbLine
 10
123.51
 20
125.74115
 30
0.0
 11
123.033
 21
126.91915
 31
0.0
  0
LINE
  5
11BA
330
1D
100
AcDbEntity
  8
0
100
AcDbLine
 10
123.033
 20
126.91915
 30
0.0
 11
122.439
 21
128.05015
 31
0.0
  0
LINE
  5
11BB
330
1D
100
AcDbEntity
  8
0
100
AcDbLine
 10
123.196
 20
125.25515
 30
0.0
 11
122.772
 21
126.44515
 31
0.0
  0
LINE
  5
11BC
330
1D
100
AcDbEntity
  8
0
100
AcDbLine
 10
122.772
 20
126.44515
 30
0.0
 11
122.226
 21
127.58915
 31
0.0
  0
LINE
  5
11BD
330
1D
100
AcDbEntity
  8
0
100
AcDbLine
 10
115.063
 20
112.49315
 30
0.0
 11
113.962
 21
112.04315
 31
0.0
  0
LINE
  5
11BE
330
1D
100
AcDbEntity
  8
0
100
AcDbLine
 10
110.887
 20
100.70215
 30
0.0
 11
110.105
 21
100.69915
 31
0.0
  0
LINE
  5
11BF
330
1D
100
AcDbEntity
  8
0
100
AcDbLine
 10
110.629
 20
100.17115
 30
0.0
 11
110.105
 21
100.17815
 31
0.0
  0
LINE
  5
11C0
330
1D
100
AcDbEntity
  8
0
100
AcDbLine
 10
110.629
 20
97.49815
 30
0.0
 11
110.105
 21
97.50515
 31
0.0
  0
LINE
  5
11C1
330
1D
100
AcDbEntity
  8
0
100
AcDbLine
 10
110.859
 20
101.60815
 30
0.0
 11
110.105
 21
101.60615
 31
0.0
  0
LINE
  5
11C2
330
1D
100
AcDbEntity
  8
0
100
AcDbLine
 10
110.887
 20
100.96415
 30
0.0
 11
110.105
 21
100.96215
 31
0.0
  0
LINE
  5
11C3
330
1D
100
AcDbEntity
  8
0
100
AcDbLine
 10
110.352
 20
108.38315
 30
0.0
 11
110.105
 21
108.39015
 31
0.0
  0
LINE
  5
11C4
330
1D
100
AcDbEntity
  8
0
100
AcDbLine
 10
110.383
 20
109.02915
 30
0.0
 11
110.105
 21
109.03615
 31
0.0
  0
LINE
  5
11C5
330
1D
100
AcDbEntity
  8
0
100
AcDbLine
 10
110.352
 20
105.12815
 30
0.0
 11
110.105
 21
105.13515
 31
0.0
  0
LINE
  5
11C6
330
1D
100
AcDbEntity
  8
0
100
AcDbLine
 10
110.443
 20
111.39715
 30
0.0
 11
110.105
 21
111.40515
 31
0.0
  0
LINE
  5
11C7
330
1D
100
AcDbEntity
  8
0
100
AcDbLine
 10
114.961
 20
98.24915
 30
0.0
 11
113.546
 21
97.86615
 31
0.0
  0
LINE
  5
11C8
330
1D
100
AcDbEntity
  8
0
100
AcDbLine
 10
115.187
 20
101.54615
 30
0.0
 11
113.786
 21
101.12815
 31
0.0
  0
LINE
  5
11C9
330
1D
100
AcDbEntity
  8
0
100
AcDbLine
 10
114.961
 20
100.92215
 30
0.0
 11
113.545
 21
100.53815
 31
0.0
  0
LINE
  5
11CA
330
1D
100
AcDbEntity
  8
0
100
AcDbLine
 10
115.01
 20
102.42315
 30
0.0
 11
113.658
 21
102.02015
 31
0.0
  0
LINE
  5
11CB
330
1D
100
AcDbEntity
  8
0
100
AcDbLine
 10
115.187
 20
101.80915
 30
0.0
 11
113.787
 21
101.39115
 31
0.0
  0
LINE
  5
11CC
330
1D
100
AcDbEntity
  8
0
100
AcDbLine
 10
117.638
 20
99.39515
 30
0.0
 11
116.329
 21
98.76015
 31
0.0
  0
LINE
  5
11CD
330
1D
100
AcDbEntity
  8
0
100
AcDbLine
 10
117.638
 20
102.06815
 30
0.0
 11
116.329
 21
101.43315
 31
0.0
  0
LINE
  5
11CE
330
1D
100
AcDbEntity
  8
0
100
AcDbLine
 10
116.329
 20
101.43315
 30
0.0
 11
114.961
 21
100.92215
 31
0.0
  0
LINE
  5
11CF
330
1D
100
AcDbEntity
  8
0
100
AcDbLine
 10
116.329
 20
98.76015
 30
0.0
 11
114.961
 21
98.24915
 31
0.0
  0
LINE
  5
11D0
330
1D
100
AcDbEntity
  8
0
100
AcDbLine
 10
116.535
 20
102.09415
 30
0.0
 11
115.187
 21
101.54615
 31
0.0
  0
LINE
  5
11D1
330
1D
100
AcDbEntity
  8
0
100
AcDbLine
 10
117.818
 20
102.76915
 30
0.0
 11
116.535
 21
102.09415
 31
0.0
  0
LINE
  5
11D2
330
1D
100
AcDbEntity
  8
0
100
AcDbLine
 10
117.549
 20
103.60315
 30
0.0
 11
116.312
 21
102.95315
 31
0.0
  0
LINE
  5
11D3
330
1D
100
AcDbEntity
  8
0
100
AcDbLine
 10
117.817
 20
103.03115
 30
0.0
 11
116.535
 21
102.35715
 31
0.0
  0
LINE
  5
11D4
330
1D
100
AcDbEntity
  8
0
100
AcDbLine
 10
116.312
 20
102.95315
 30
0.0
 11
115.01
 21
102.42315
 31
0.0
  0
LINE
  5
11D5
330
1D
100
AcDbEntity
  8
0
100
AcDbLine
 10
116.535
 20
102.35715
 30
0.0
 11
115.187
 21
101.80915
 31
0.0
  0
LINE
  5
11D6
330
1D
100
AcDbEntity
  8
0
100
AcDbLine
 10
113.545
 20
100.53815
 30
0.0
 11
112.096
 21
100.28715
 31
0.0
  0
LINE
  5
11D7
330
1D
100
AcDbEntity
  8
0
100
AcDbLine
 10
113.546
 20
97.86615
 30
0.0
 11
112.096
 21
97.61515
 31
0.0
  0
LINE
  5
11D8
330
1D
100
AcDbEntity
  8
0
100
AcDbLine
 10
112.348
 20
100.84715
 30
0.0
 11
110.887
 21
100.70215
 31
0.0
  0
LINE
  5
11D9
330
1D
100
AcDbEntity
  8
0
100
AcDbLine
 10
113.786
 20
101.12815
 30
0.0
 11
112.348
 21
100.84715
 31
0.0
  0
LINE
  5
11DA
330
1D
100
AcDbEntity
  8
0
100
AcDbLine
 10
113.658
 20
102.02015
 30
0.0
 11
112.27
 21
101.74715
 31
0.0
  0
LINE
  5
11DB
330
1D
100
AcDbEntity
  8
0
100
AcDbLine
 10
113.787
 20
101.39115
 30
0.0
 11
112.347
 21
101.10915
 31
0.0
  0
LINE
  5
11DC
330
1D
100
AcDbEntity
  8
0
100
AcDbLine
 10
112.096
 20
100.28715
 30
0.0
 11
110.629
 21
100.17115
 31
0.0
  0
LINE
  5
11DD
330
1D
100
AcDbEntity
  8
0
100
AcDbLine
 10
112.096
 20
97.61515
 30
0.0
 11
110.629
 21
97.49815
 31
0.0
  0
LINE
  5
11DE
330
1D
100
AcDbEntity
  8
0
100
AcDbLine
 10
112.27
 20
101.74715
 30
0.0
 11
110.859
 21
101.60815
 31
0.0
  0
LINE
  5
11DF
330
1D
100
AcDbEntity
  8
0
100
AcDbLine
 10
112.347
 20
101.10915
 30
0.0
 11
110.887
 21
100.96415
 31
0.0
  0
LINE
  5
11E0
330
1D
100
AcDbEntity
  8
0
100
AcDbLine
 10
114.313
 20
105.73015
 30
0.0
 11
113.015
 21
105.41115
 31
0.0
  0
LINE
  5
11E1
330
1D
100
AcDbEntity
  8
0
100
AcDbLine
 10
114.318
 20
109.65415
 30
0.0
 11
113.03
 21
109.32515
 31
0.0
  0
LINE
  5
11E2
330
1D
100
AcDbEntity
  8
0
100
AcDbLine
 10
114.313
 20
108.98515
 30
0.0
 11
113.015
 21
108.66615
 31
0.0
  0
LINE
  5
11E3
330
1D
100
AcDbEntity
  8
0
100
AcDbLine
 10
117.936
 20
110.61215
 30
0.0
 11
116.785
 21
109.96315
 31
0.0
  0
LINE
  5
11E4
330
1D
100
AcDbEntity
  8
0
100
AcDbLine
 10
117.889
 20
111.32715
 30
0.0
 11
116.759
 21
110.66015
 31
0.0
  0
LINE
  5
11E5
330
1D
100
AcDbEntity
  8
0
100
AcDbLine
 10
117.935
 20
107.35715
 30
0.0
 11
116.785
 21
106.70715
 31
0.0
  0
LINE
  5
11E6
330
1D
100
AcDbEntity
  8
0
100
AcDbLine
 10
116.785
 20
109.96315
 30
0.0
 11
115.574
 21
109.41815
 31
0.0
  0
LINE
  5
11E7
330
1D
100
AcDbEntity
  8
0
100
AcDbLine
 10
116.759
 20
110.66015
 30
0.0
 11
115.565
 21
110.10115
 31
0.0
  0
LINE
  5
11E8
330
1D
100
AcDbEntity
  8
0
100
AcDbLine
 10
115.565
 20
110.10115
 30
0.0
 11
114.318
 21
109.65415
 31
0.0
  0
LINE
  5
11E9
330
1D
100
AcDbEntity
  8
0
100
AcDbLine
 10
115.574
 20
109.41815
 30
0.0
 11
114.313
 21
108.98515
 31
0.0
  0
LINE
  5
11EA
330
1D
100
AcDbEntity
  8
0
100
AcDbLine
 10
115.574
 20
106.16315
 30
0.0
 11
114.313
 21
105.73015
 31
0.0
  0
LINE
  5
11EB
330
1D
100
AcDbEntity
  8
0
100
AcDbLine
 10
116.785
 20
106.70715
 30
0.0
 11
115.574
 21
106.16315
 31
0.0
  0
LINE
  5
11EC
330
1D
100
AcDbEntity
  8
0
100
AcDbLine
 10
111.69
 20
105.21015
 30
0.0
 11
110.352
 21
105.12815
 31
0.0
  0
LINE
  5
11ED
330
1D
100
AcDbEntity
  8
0
100
AcDbLine
 10
113.015
 20
105.41115
 30
0.0
 11
111.69
 21
105.21015
 31
0.0
  0
LINE
  5
11EE
330
1D
100
AcDbEntity
  8
0
100
AcDbLine
 10
111.714
 20
109.11515
 30
0.0
 11
110.383
 21
109.02915
 31
0.0
  0
LINE
  5
11EF
330
1D
100
AcDbEntity
  8
0
100
AcDbLine
 10
113.03
 20
109.32515
 30
0.0
 11
111.714
 21
109.11515
 31
0.0
  0
LINE
  5
11F0
330
1D
100
AcDbEntity
  8
0
100
AcDbLine
 10
113.015
 20
108.66615
 30
0.0
 11
111.69
 21
108.46515
 31
0.0
  0
LINE
  5
11F1
330
1D
100
AcDbEntity
  8
0
100
AcDbLine
 10
111.69
 20
108.46515
 30
0.0
 11
110.352
 21
108.38315
 31
0.0
  0
LINE
  5
11F2
330
1D
100
AcDbEntity
  8
0
100
AcDbLine
 10
113.962
 20
112.04315
 30
0.0
 11
112.817
 21
111.70915
 31
0.0
  0
LINE
  5
11F3
330
1D
100
AcDbEntity
  8
0
100
AcDbLine
 10
112.817
 20
111.70915
 30
0.0
 11
111.639
 21
111.49215
 31
0.0
  0
LINE
  5
11F4
330
1D
100
AcDbEntity
  8
0
100
AcDbLine
 10
111.639
 20
111.49215
 30
0.0
 11
110.443
 21
111.39715
 31
0.0
  0
LINE
  5
11F5
330
1D
100
AcDbEntity
  8
0
100
AcDbLine
 10
110.105
 20
97.50515
 30
0.0
 11
109.581
 21
97.49815
 31
0.0
  0
LINE
  5
11F6
330
1D
100
AcDbEntity
  8
0
100
AcDbLine
 10
110.105
 20
100.69915
 30
0.0
 11
109.323
 21
100.70215
 31
0.0
  0
LINE
  5
11F7
330
1D
100
AcDbEntity
  8
0
100
AcDbLine
 10
110.105
 20
100.96215
 30
0.0
 11
109.323
 21
100.96415
 31
0.0
  0
LINE
  5
11F8
330
1D
100
AcDbEntity
  8
0
100
AcDbLine
 10
110.105
 20
101.60615
 30
0.0
 11
109.351
 21
101.60815
 31
0.0
  0
LINE
  5
11F9
330
1D
100
AcDbEntity
  8
0
100
AcDbLine
 10
110.105
 20
100.17815
 30
0.0
 11
109.581
 21
100.17115
 31
0.0
  0
LINE
  5
11FA
330
1D
100
AcDbEntity
  8
0
100
AcDbLine
 10
110.105
 20
105.13515
 30
0.0
 11
109.858
 21
105.12815
 31
0.0
  0
LINE
  5
11FB
330
1D
100
AcDbEntity
  8
0
100
AcDbLine
 10
110.105
 20
109.03615
 30
0.0
 11
109.827
 21
109.02915
 31
0.0
  0
LINE
  5
11FC
330
1D
100
AcDbEntity
  8
0
100
AcDbLine
 10
110.105
 20
108.39015
 30
0.0
 11
109.858
 21
108.38315
 31
0.0
  0
LINE
  5
11FD
330
1D
100
AcDbEntity
  8
0
100
AcDbLine
 10
110.105
 20
111.40515
 30
0.0
 11
109.767
 21
111.39715
 31
0.0
  0
LINE
  5
11FE
330
1D
100
AcDbEntity
  8
0
100
AcDbLine
 10
117.967
 20
114.46715
 30
0.0
 11
117.077
 21
113.71215
 31
0.0
  0
LINE
  5
11FF
330
1D
100
AcDbEntity
  8
0
100
AcDbLine
 10
117.077
 20
113.71215
 30
0.0
 11
116.105
 21
113.05115
 31
0.0
  0
LINE
  5
1200
330
1D
100
AcDbEntity
  8
0
100
AcDbLine
 10
116.105
 20
113.05115
 30
0.0
 11
115.063
 21
112.49315
 31
0.0
  0
LINE
  5
1201
330
1D
100
AcDbEntity
  8
0
100
AcDbLine
 10
121.733
 20
129.12215
 30
0.0
 11
121.105
 21
129.901148766954
 31
0.0
  0
LINE
  5
1202
330
1D
100
AcDbEntity
  8
0
100
AcDbLine
 10
121.564
 20
128.67815
 30
0.0
 11
121.105
 21
129.2850038163
 31
0.0
  0
LINE
  5
1203
330
1D
100
AcDbEntity
  8
0
100
AcDbLine
 10
121.105
 20
136.08315
 30
0.0
 11
121.105
 21
138.98015
 31
0.0
  0
LINE
  5
1204
330
1D
100
AcDbEntity
  8
0
100
AcDbLine
 10
121.105
 20
138.98015
 30
0.0
 11
121.105
 21
143.58915
 31
0.0
  0
LINE
  5
1205
330
1D
100
AcDbEntity
  8
0
100
AcDbLine
 10
121.105
 20
138.98015
 30
0.0
 11
121.105
 21
136.08315
 31
0.0
  0
LINE
  5
1206
330
1D
100
AcDbEntity
  8
0
100
AcDbLine
 10
121.105
 20
143.58915
 30
0.0
 11
121.105
 21
149.59515
 31
0.0
  0
LINE
  5
1207
330
1D
100
AcDbEntity
  8
0
100
AcDbLine
 10
121.105
 20
143.58915
 30
0.0
 11
121.105
 21
138.98015
 31
0.0
  0
LINE
  5
1208
330
1D
100
AcDbEntity
  8
0
100
AcDbLine
 10
121.105
 20
149.59515
 30
0.0
 11
121.105
 21
143.58915
 31
0.0
  0
LINE
  5
1209
330
1D
100
AcDbEntity
  8
0
100
AcDbLine
 10
121.105
 20
149.59515
 30
0.0
 11
121.105
 21
156.58915
 31
0.0
  0
LINE
  5
120A
330
1D
100
AcDbEntity
  8
0
100
AcDbLine
 10
121.105
 20
156.58915
 30
0.0
 11
121.105
 21
149.59515
 31
0.0
  0
LINE
  5
120B
330
1D
100
AcDbEntity
  8
0
100
AcDbLine
 10
121.105
 20
156.58915
 30
0.0
 11
121.105
 21
164.09515
 31
0.0
  0
LINE
  5
120C
330
1D
100
AcDbEntity
  8
0
100
AcDbLine
 10
121.105
 20
164.09515
 30
0.0
 11
121.105
 21
171.60115
 31
0.0
  0
LINE
  5
120D
330
1D
100
AcDbEntity
  8
0
100
AcDbLine
 10
121.105
 20
164.09515
 30
0.0
 11
121.105
 21
156.58915
 31
0.0
  0
LINE
  5
120E
330
1D
100
AcDbEntity
  8
0
100
AcDbLine
 10
121.105
 20
171.60115
 30
0.0
 11
121.105
 21
164.09515
 31
0.0
  0
LINE
  5
120F
330
1D
100
AcDbEntity
  8
0
100
AcDbLine
 10
130.342
 20
209.43015
 30
0.0
 11
121.105
 21
210.649143938189
 31
0.0
  0
ENDSEC
  0
SECTION
  2
OBJECTS
  0
DICTIONARY
  5
C
330
0
100
AcDbDictionary
281
     1
  3
ACAD_GROUP
350
D
  3
ACAD_LAYOUT
350
1A
  3
ACAD_MLEADERSTYLE
350
1289
  3
ACAD_MLINESTYLE
350
17
  3
ACAD_PLOTSETTINGS
350
19
  3
ACAD_PLOTSTYLENAME
350
E
  3
ACAD_SCALELIST
350
650
  3
AcDbVariableDictionary
350
1287
  3
DWGPROPS
350
128C
  0
DICTIONARY
  5
D
102
{ACAD_REACTORS
330
C
102
}
330
C
100
AcDbDictionary
281
     1
  0
DICTIONARY
  5
1A
102
{ACAD_REACTORS
330
C
102
}
330
C
100
AcDbDictionary
281
     1
  3
Layout1
350
1C
  3
Model
350
1E
  0
DICTIONARY
  5
1289
102
{ACAD_REACTORS
330
C
102
}
330
C
100
AcDbDictionary
281
     1
  0
DICTIONARY
  5
17
102
{ACAD_REACTORS
330
C
102
}
330
C
100
AcDbDictionary
281
     1
  3
Standard
350
18
  0
DICTIONARY
  5
19
102
{ACAD_REACTORS
330
C
102
}
330
C
100
AcDbDictionary
281
     1
  0
ACDBDICTIONARYWDFLT
  5
E
102
{ACAD_REACTORS
330
C
102
}
330
C
100
AcDbDictionary
281
     1
  3
Normal
350
F
100
AcDbDictionaryWithDefault
340
F
  0
DICTIONARY
  5
650
102
{ACAD_REACTORS
330
C
102
}
330
C
100
AcDbDictionary
281
     1
  3
A0
350
651
  3
A1
350
652
  3
A2
350
653
  3
A3
350
654
  3
A4
350
655
  3
A5
350
656
  3
A6
350
657
  3
A7
350
658
  3
A8
350
659
  3
A9
350
65A
  3
B0
350
65B
  3
B1
350
65C
  3
B2
350
65D
  3
B3
350
65E
  3
B4
350
65F
  3
B5
350
660
  3
B6
350
661
  3
B7
350
662
  3
B8
350
663
  3
B9
350
664
  3
C0
350
665
  3
C1
350
666
  3
C2
350
667
  3
C3
350
668
  3
C4
350
669
  3
C5
350
66A
  3
C6
350
66B
  3
C7
350
66C
  3
C8
350
66D
  3
C9
350
66E
  3
D0
350
66F
  3
D1
350
670
  3
D2
350
671
  0
DICTIONARY
  5
1287
102
{ACAD_REACTORS
330
C
102
}
330
C
100
AcDbDictionary
281
     1
  3
CANNOSCALE
350
128A
  0
XRECORD
  5
128C
102
{ACAD_REACTORS
330
C
102
}
330
C
100
AcDbXrecord
280
     1
  1
DWGPROPS COOKIE
  2

  3

  4

  6

  7

  8
MARTIN
  9

300
=
301
=
302
=
303
=
304
=
305
=
306
=
307
=
308
=
309
=
 40
0.0
 41
2455870.868981007
 42
2455870.870793611
  1

 90
        0
  0
LAYOUT
  5
1C
102
{ACAD_REACTORS
330
1A
102
}
330
1A
100
AcDbPlotSettings
  1

  2
none_device
  4

  6

 40
0.0
 41
0.0
 42
0.0
 43
0.0
 44
0.0
 45
0.0
 46
0.0
 47
0.0
 48
0.0
 49
0.0
140
0.0
141
0.0
142
1.0
143
1.0
 70
   688
 72
     0
 73
     0
 74
     5
  7

 75
    16
147
1.0
148
0.0
149
0.0
100
AcDbLayout
  1
Layout1
 70
     1
 71
     1
 10
0.0
 20
0.0
 11
12.0
 21
9.0
 12
0.0
 22
0.0
 32
0.0
 14
1.000000000000E+20
 24
1.000000000000E+20
 34
1.000000000000E+20
 15
-1.000000000000E+20
 25
-1.000000000000E+20
 35
-1.000000000000E+20
146
0.0
 13
0.0
 23
0.0
 33
0.0
 16
1.0
 26
0.0
 36
0.0
 17
0.0
 27
1.0
 37
0.0
 76
     0
330
1B
  0
LAYOUT
  5
1E
102
{ACAD_REACTORS
330
1A
102
}
330
1A
100
AcDbPlotSettings
  1

  2
none_device
  4

  6

 40
0.0
 41
0.0
 42
0.0
 43
0.0
 44
0.0
 45
0.0
 46
0.0
 47
0.0
 48
0.0
 49
0.0
140
0.0
141
0.0
142
1.0
143
1.0
 70
  1712
 72
     0
 73
     0
 74
     0
  7

 75
     0
147
1.0
148
0.0
149
0.0
100
AcDbLayout
  1
Model
 70
     1
 71
     0
 10
0.0
 20
0.0
 11
12.0
 21
9.0
 12
0.0
 22
0.0
 32
0.0
 14
0.105
 24
0.20485
 34
0.0
 15
363.895
 25
511.79515
 35
0.0
146
0.0
 13
0.0
 23
0.0
 33
0.0
 16
1.0
 26
0.0
 36
0.0
 17
0.0
 27
1.0
 37
0.0
 76
     0
330
1D
331
64B
  0
MLINESTYLE
  5
18
102
{ACAD_REACTORS
330
17
102
}
330
17
100
AcDbMlineStyle
  2
Standard
 70
     0
  3

 62
   256
 51
90.0
 52
90.0
 71
     2
 49
0.5
 62
   256
  6
BYLAYER
 49
-0.5
 62
   256
  6
BYLAYER
  0
ACDBPLACEHOLDER
  5
F
102
{ACAD_REACTORS
330
E
102
}
330
E
  0
SCALE
  5
651
102
{ACAD_REACTORS
330
650
102
}
330
650
100
AcDbScale
 70
     0
300
1:1
140
1.0
141
1.0
290
     1
  0
SCALE
  5
652
102
{ACAD_REACTORS
330
650
102
}
330
650
100
AcDbScale
 70
     0
300
1:2
140
1.0
141
2.0
290
     0
  0
SCALE
  5
653
102
{ACAD_REACTORS
330
650
102
}
330
650
100
AcDbScale
 70
     0
300
1:4
140
1.0
141
4.0
290
     0
  0
SCALE
  5
654
102
{ACAD_REACTORS
330
650
102
}
330
650
100
AcDbScale
 70
     0
300
1:5
140
1.0
141
5.0
290
     0
  0
SCALE
  5
655
102
{ACAD_REACTORS
330
650
102
}
330
650
100
AcDbScale
 70
     0
300
1:8
140
1.0
141
8.0
290
     0
  0
SCALE
  5
656
102
{ACAD_REACTORS
330
650
102
}
330
650
100
AcDbScale
 70
     0
300
1:10
140
1.0
141
10.0
290
     0
  0
SCALE
  5
657
102
{ACAD_REACTORS
330
650
102
}
330
650
100
AcDbScale
 70
     0
300
1:16
140
1.0
141
16.0
290
     0
  0
SCALE
  5
658
102
{ACAD_REACTORS
330
650
102
}
330
650
100
AcDbScale
 70
     0
300
1:20
140
1.0
141
20.0
290
     0
  0
SCALE
  5
659
102
{ACAD_REACTORS
330
650
102
}
330
650
100
AcDbScale
 70
     0
300
1:30
140
1.0
141
30.0
290
     0
  0
SCALE
  5
65A
102
{ACAD_REACTORS
330
650
102
}
330
650
100
AcDbScale
 70
     0
300
1:40
140
1.0
141
40.0
290
     0
  0
SCALE
  5
65B
102
{ACAD_REACTORS
330
650
102
}
330
650
100
AcDbScale
 70
     0
300
1:50
140
1.0
141
50.0
290
     0
  0
SCALE
  5
65C
102
{ACAD_REACTORS
330
650
102
}
330
650
100
AcDbScale
 70
     0
300
1:100
140
1.0
141
100.0
290
     0
  0
SCALE
  5
65D
102
{ACAD_REACTORS
330
650
102
}
330
650
100
AcDbScale
 70
     0
300
2:1
140
2.0
141
1.0
290
     0
  0
SCALE
  5
65E
102
{ACAD_REACTORS
330
650
102
}
330
650
100
AcDbScale
 70
     0
300
4:1
140
4.0
141
1.0
290
     0
  0
SCALE
  5
65F
102
{ACAD_REACTORS
330
650
102
}
330
650
100
AcDbScale
 70
     0
300
8:1
140
8.0
141
1.0
290
     0
  0
SCALE
  5
660
102
{ACAD_REACTORS
330
650
102
}
330
650
100
AcDbScale
 70
     0
300
10:1
140
10.0
141
1.0
290
     0
  0
SCALE
  5
661
102
{ACAD_REACTORS
330
650
102
}
330
650
100
AcDbScale
 70
     0
300
100:1
140
100.0
141
1.0
290
     0
  0
SCALE
  5
662
102
{ACAD_REACTORS
330
650
102
}
330
650
100
AcDbScale
 70
     0
300
1/128" = 1'-0"
140
0.0078125
141
12.0
290
     0
  0
SCALE
  5
663
102
{ACAD_REACTORS
330
650
102
}
330
650
100
AcDbScale
 70
     0
300
1/64" = 1'-0"
140
0.015625
141
12.0
290
     0
  0
SCALE
  5
664
102
{ACAD_REACTORS
330
650
102
}
330
650
100
AcDbScale
 70
     0
300
1/32" = 1'-0"
140
0.03125
141
12.0
290
     0
  0
SCALE
  5
665
102
{ACAD_REACTORS
330
650
102
}
330
650
100
AcDbScale
 70
     0
300
1/16" = 1'-0"
140
0.0625
141
12.0
290
     0
  0
SCALE
  5
666
102
{ACAD_REACTORS
330
650
102
}
330
650
100
AcDbScale
 70
     0
300
3/32" = 1'-0"
140
0.09375
141
12.0
290
     0
  0
SCALE
  5
667
102
{ACAD_REACTORS
330
650
102
}
330
650
100
AcDbScale
 70
     0
300
1/8" = 1'-0"
140
0.125
141
12.0
290
     0
  0
SCALE
  5
668
102
{ACAD_REACTORS
330
650
102
}
330
650
100
AcDbScale
 70
     0
300
3/16" = 1'-0"
140
0.1875
141
12.0
290
     0
  0
SCALE
  5
669
102
{ACAD_REACTORS
330
650
102
}
330
650
100
AcDbScale
 70
     0
300
1/4" = 1'-0"
140
0.25
141
12.0
290
     0
  0
SCALE
  5
66A
102
{ACAD_REACTORS
330
650
102
}
330
650
100
AcDbScale
 70
     0
300
3/8" = 1'-0"
140
0.375
141
12.0
290
     0
  0
SCALE
  5
66B
102
{ACAD_REACTORS
330
650
102
}
330
650
100
AcDbScale
 70
     0
300
1/2" = 1'-0"
140
0.5
141
12.0
290
     0
  0
SCALE
  5
66C
102
{ACAD_REACTORS
330
650
102
}
330
650
100
AcDbScale
 70
     0
300
3/4" = 1'-0"
140
0.75
141
12.0
290
     0
  0
SCALE
  5
66D
102
{ACAD_REACTORS
330
650
102
}
330
650
100
AcDbScale
 70
     0
300
1" = 1'-0"
140
1.0
141
12.0
290
     0
  0
SCALE
  5
66E
102
{ACAD_REACTORS
330
650
102
}
330
650
100
AcDbScale
 70
     0
300
1-1/2" = 1'-0"
140
1.5
141
12.0
290
     0
  0
SCALE
  5
66F
102
{ACAD_REACTORS
330
650
102
}
330
650
100
AcDbScale
 70
     0
300
3" = 1'-0"
140
3.0
141
12.0
290
     0
  0
SCALE
  5
670
102
{ACAD_REACTORS
330
650
102
}
330
650
100
AcDbScale
 70
     0
300
6" = 1'-0"
140
6.0
141
12.0
290
     0
  0
SCALE
  5
671
102
{ACAD_REACTORS
330
650
102
}
330
650
100
AcDbScale
 70
     0
300
1'-0" = 1'-0"
140
12.0
141
12.0
290
     0
  0
DICTIONARYVAR
  5
128A
102
{ACAD_REACTORS
330
1287
102
}
330
1287
100
DictionaryVariables
280
     0
  1
1:1
  0
ENDSEC
  0
SECTION
  2
THUMBNAILIMAGE
 90
    16364
310
28000000B40000005500000001000800000000000000000000000000000000000000000000000000FFFFFF000000FF0000FFFF0000FF0000FFFF0000FF000000FF00FF000000000080808000C0C0C0000000FF007F7FFF000000A5005252A50000007F003F3F7F0000004C0026264C000000260013132600003FFF007F9FFF
310
000029A5005267A500001F7F003F4F7F0000134C00262F4C000009260013172600007FFF007FBFFF000052A500527CA500003F7F003F5F7F0000264C0026394C0000132600131C260000BFFF007FDFFF00007CA5005291A500005F7F003F6F7F0000394C0026424C00001C26001321260000FFFF007FFFFF0000A5A50052A5
310
A500007F7F003F7F7F00004C4C00264C4C00002626001326260000FFBF007FFFDF0000A57C0052A59100007F5F003F7F6F00004C3900264C420000261C001326210000FF7F007FFFBF0000A5520052A57C00007F3F003F7F5F00004C2600264C39000026130013261C0000FF3F007FFF9F0000A5290052A56700007F1F003F
310
7F4F00004C1300264C2F00002609001326170000FF00007FFF7F0000A5000052A55200007F00003F7F3F00004C0000264C260000260000132613003FFF00009FFF7F0029A5000067A552001F7F00004F7F3F00134C00002F4C260009260000172613007FFF0000BFFF7F0052A500007CA552003F7F00005F7F3F00264C0000
310
394C2600132600001C261300BFFF0000DFFF7F007CA5000091A552005F7F00006F7F3F00394C0000424C26001C26000021261300FFFF0000FFFF7F00A5A50000A5A552007F7F00007F7F3F004C4C00004C4C26002626000026261300FFBF0000FFDF7F00A57C0000A59152007F5F00007F6F3F004C3900004C422600261C00
310
0026211300FF7F0000FFBF7F00A5520000A57C52007F3F00007F5F3F004C2600004C39260026130000261C1300FF3F0000FF9F7F00A5290000A56752007F1F00007F4F3F004C1300004C2F26002609000026171300FF000000FF7F7F00A5000000A55252007F0000007F3F3F004C0000004C2626002600000026131300FF00
310
3F00FF7F9F00A5002900A55267007F001F007F3F4F004C0013004C262F002600090026131700FF007F00FF7FBF00A5005200A5527C007F003F007F3F5F004C0026004C2639002600130026131C00FF00BF00FF7FDF00A5007C00A55291007F005F007F3F6F004C0039004C26420026001C0026132100FF00FF00FF7FFF00A5
310
00A500A552A5007F007F007F3F7F004C004C004C264C002600260026132600BF00FF00DF7FFF007C00A5009152A5005F007F006F3F7F0039004C0042264C001C002600211326007F00FF00BF7FFF005200A5007C52A5003F007F005F3F7F0026004C0039264C00130026001C1326003F00FF009F7FFF002900A5006752A500
310
1F007F004F3F7F0013004C002F264C000900260017132600000000002D2D2D005B5B5B0089898900B7B7B700B3B3B30000000000000000000000000000000000000000000000000000000000000000000000000000000000000000000000000000000000000000000000000000000000000000000000000000000000000000
310
00000000000000000000000000000000000000000000000000000000000000000000000000000000000000000000000000000000000000000000000000000000000000000000000000000000000000000000000000000000000000000000000000000000000000000000000000000000000000000000000000000000000000
310
00000000000000000000000000000000000000000000000000000000000000000000000000000000000000000000000000000000000000000000000000000000000000000000000000000000000000000000000000000000000000000000000000000000000000000000000000000000000000000000000000000000000000
310
00000000000000000000000000000000000000000000000000000000000000000000000000000000000000000000000000000000000000000000000000000000000000000000000000000000000000000000000000000000000000000000000000000000000000000000000000000000000000000000000000000000000000
310
00000000000000000000000000000000000000000000000000000000000000000000000000000000000000000000000000000000000000000000000000000000000000000000000000000000000000000000000000000000000000000000000000000000000000000000000000000000000000000000000000000000000000
310
00000000000000000000000000000000000000000000000000000000070707070007070707070000000000000000000000000000000000000000000000000000000000000000000000000000000000000000000000000000000000000000000000000000000000000000000000000000000000000000000000000000000000
310
00000000000000000000000000000000000000000000000000000000000000000000000000000000000000000000000000000000000000000000000000000000000000000000000000000000000007070700000000000000000000070707000000000000000000000000000000000000000000000000000000000000000000
310
00000000000000000000000000000000000000000000000000000000000000000000000000000000000000000000000000000000000000000000000000000000000000000000000000000000000000000000000000000000000000000000000000000000000000000000000000000000000000000000000000000000000000
310
00000707000000000000000000000000000000000700000000000000000000000000000000000000000000000000000000000000000000000000000000000000000000000000000000000000000000000000000000000000000000000000000000000000000000000000000000000000000000000000000000000000000000
310
00000000000000000000000000000000000000000000000000000000000000000000000000000000000000000000000000000000000007000000000000000000000000000000000000000700000000000000000000000000000000000000000000000000000000000000000000000000000000000000000000000000000000
310
00000000000000000000000000000000000000000000000000000000000000000000000000000000000000000000000000000000000000000000000000000000000000000000000000000000000000000000000000000000000000000000000000000000000000000000070000000000000000000000000000000000000000
310
00070000000000000000000000000000000000000000000000000000000000000000000000000000000000000000000000000000000000000000000000000000000000000000000000000000000000000000000000000000000000000000000000000000000000000000000000000000000000000000000000000000000000
310
00000000000000000000000000000000000000000000000000000000000000070000000000000000000000000000000000000000000000070000000000000000000000000000000000000000000000000000000000000000000000000000000000000000000000000000000000000000000000000000000000000000000000
310
00000000000000000000000000000000000000000000000000000000000000000000000000000000000000000000000000000000000000000000000000000000000000000000000000000000000000000000000700000000000000000000000000000000000000000000000000070000000000000000000000000000000000
310
00000000000000000000000000000000000000000000000000000000000000000000000000000000000000000000000000000000000000000000000000000000000000000000000000000000000000000000000000000000000000000000000000000000000000000000000000000000000000000000000000000000000000
310
00000000000000000700000000000000000000000000000000000000000000000000000007000000000000000000000000000000000000000000000000000000000000000000000000000000000000000000000000000000000000000000000000000000000000000000000000000000000000000000000000000000000000
310
00000000000000000000000000000000000000000000000000000000000000000000000000000000000000000000000000000000000000000000000007000000000000000000000000000000000000000000000000000000000007000000000000000000000000000000000000000000000000000000000000000000000000
310
00000000000000000000000000000000000000000000000000000000000000000000000000000000000000000000000000000000000000000000000000000000000000000000000000000000000000000000000000000000000000000000000000000000000000000000000000000000000700000000000000000000000000
310
00000000000000000000000000000000070000000000000000000000000000000000000000000000000000000000000000000000000000000000000000000000000000000000000000000000000000000000000000000000000000000000000000000000000000000000000000000000000000000000000000000000000000
310
00000000000000000000000000000000000000000000000000000000000000000000000000000007000000000000000000000000000000000000000000000000000000000000070000000000000000000000000000000000000000000000000000000000000000000000000000000000000000000000000000000000000000
310
00000000000000000000000000000000000000000000000000000000000000000000000000000000000000000000000000000000000000000000000000000000000000000000000000000000000000000000000000000000000000070000000000000000000000000000000000000000000000000000000000000007000000
310
00000000000000000000000000000000000000000000000000000000000000000000000000000000000000000000000000000000000000000000000000000000000000000000000000000000000000000000000000000000000000000000000000000000000000000000000000000000000000000000000000000000000000
310
00000000000000000000000000000000000700000000000000000000000000000000000000000000000000000000000000070000000000000000000000000000000000000000000000000000000000000000000000000000000000000000000000000000000000000000000000000000000000000000000000000000000000
310
00000000000000000000000000000000000000000000000000000000000000000000000000000000000000000000000000000000000000000000000000000000000000000000070000000000000000000000000000000000000000000000000000000000000000070000000000000000000000000000000000000000000000
310
00000000000000000000000000000000000000000000000000000000000000000000000000000000000000000000000000000000000000000000000000000000000000000000000000000000000000000000000000000000000000000000000000000000000000000000000000000000000000000000000000000700000000
310
00000000000000000000000707070700000000000000000000000000000700000000000000000000000000000000000000000000000000000000000000000000000000000000000000000000000000000000000000000000000000000000000000000000000000000000000000000000000000000000000000000000000000
310
00000000000000000000000000000000000000000000000000000000000000000000000000000000000000000000000007000000000000000000000000000007070707070000000000000000000000000000070000000000000000000000000000000000000000000000000000000000000000000000000000000000000000
310
00000000000000000000000000000000000000000000000000000000000000000000000000000000000000000000000000000000000000000000000000000000000000000000000000000000000000000000000000000000000000000000000000000000000700000000000000000000000000000707070707000000000000
310
00000000000000000700000000000000000000000000000000000000000000000000000000000000000000000000000000000000000000000000000000000000000000000000000000000000000000000000000000000000000000000000000000000000000000000000000000000000000000000000000000000000000000
310
00000000000000000000000000000000000000000000000000000007000000000000000000000000000007070707070000000000000000000000000000070000000000000000000000000000000000000000000000000000000000000000000000000000000000000000000000000000000000000000000000000000000000
310
00000000000000000000000000000000000000000000000000000000000000000000000000000000000000000000000000000000000000000000000000000000000000000000000000000000000000000700000000000000000000000000000707000007000000000000000000000000000007000000000000000000000000
310
00000000000000000000000000000000000000000000000000000000000000000000000000000000000000000000000000000000000000000000000000000000000000000000000000000000000000000000000000000000000000000000000000000000000000000000000000000000000000000000000000000000000000
310
00000000000000070000000000000000000000000007000000070000000000000000000000000000070000000000000000000000000000000000000000000000000000000000000000000000000000000000000000000000000000000000000000000000000000000000000000000000000000000000000000000000000000
310
00000000000000000000000000000000000000000000000000000000000000000000000000000000000000000000000000000000000000000000000007000000000000000000000000000700000007000000000000000000000000000700000000000000000000000000000000000000000000000000000000000000000000
310
00000000000000000000000000000000000000000000000000000000000000000000000000000000000000000000000000000000000000000000000000000000000000000000000000000000000000000000000000000000000000000000000000000000000000000000000000000000000700000000000000000000000000
310
07000000070000000000000000000000000007000000000000000000000000000000000000000000000000000000000000000000000000000000000000000000000000000000000000000000000000000000000000000000000000000000000000000000000000000000000000000000000000000000000000000000000000
310
00000000000000000000000000000000000000000000000000000000000000000000000000000000070000000000000000000000000700000007000000000000000000000000000700000000000000000000000000000000000000000000000000000000000000000000000000000000000000000000000000000000000000
310
00000000000000000000000000000000000000000000000000000000000000000000000000000000000000000000000000000000000000000000000000000000000000000000000000000000000000000000000000000000000000000007000000000000000000000000070000000700000000000000000000000007000000
310
00000000000000000000000000000000000000000000000000000000000000000000000000000000000000000000000000000000000000000000000000000000000000000000000000000000000000000000000000000000000000000000000000000000000000000000000000000000000000000000000000000000000000
310
00000000000000000000000000000000000000000700000000000000000000000700000007000000000000000000000007000000000000000000000000000000000000000000000000000000000000000000000000000000000000000000000000000000000000000000000000000000000000000000000000000000000000
310
00000000000000000000000000000000000000000000000000000000000000000000000000000000000000000000000000000000000000000000000000000000000000000000000000000700000000000000000000070000000700000000000000000000070000000000000000000000000000000000000000000000000000
310
00000000000000000000000000000000000000000000000000000000000000000000000000000000000000000000000000000000000000000000000000000000000000000000000000000000000000000000000000000000000000000000000000000000000000000000000000000000000000000000000000000000000000
310
07000000000000000000000700000007000000000000000000070000000000000000000000000000000000000000000000000000000000000000000000000000000000000000000000000000000000000000000000000000000000000000000000000000000000000000000000000000000000000000000000000000000000
310
00000000000000000000000000000000000000000000000000000000000000000000000000000000000000000000000000000000000007000000000000000000070000000700000000000000000007000000000000000000000000000000000000000000000000000000000000000000000000000000000000000000000000
310
00000000000000000000000000000000000000000000000000000000000000000000000000000000000000000000000000000000000000000000000000000000000000000000000000000000000000000000000000000000000000000000000000000000000000000000000007000000000000000007000000070000000000
310
00000007000000000000000000000000000000000000000000000000000000000000000000000000000000000000000000000000000000000000000000000000000000000000000000000000000000000000000000000000000000000000000000000000000000000000000000000000000000000000000000000000000000
310
00000000000000000000000000000000000000000000000000000000000000000000000707000000000000070000000700000000000007070000000000000000000000000000000000000000000000000000000000000000000000000000000000000000000000000000000000000000000000000000000000000000000000
310
00000000000000000000000000000000000000000000000000000000000000000000000000000000000000000000000000000000000000000000000000000000000000000000000000000000000000000000000000000000000007070000000007000000070000000000070000000000000000000000000000000000000000
310
00000000000000000000000000000000000000000000000000000000000000000000000000000000000000000000000000000000000000000000000000000000000000000000000000000000000000000000000000000000000000000000000000000000000000000000000000000000000000000000000000000000000000
310
00000000000000000000000000000000000007070707070000000707070707070000000000000000000000000000000000000000000000000000000000000000000000000000000000000000000000000000000000000000000000000000000000000000000000000000000000000000000000000000000000000000000000
310
00000000000000000000000000000000000000000000000000000000000000000000000000000000000000000000000000000000000000000000000000000000000000000000000000000007000000070000000000000000000000000000000000000000000000000000000000000000000000000000000000000000000000
310
00000000000000000000000000000000000000000000000000000000000000000000000000000000000000000000000000000000000000000000000000000000000000000000000000000000000000000000000000000000000000000000000000000000000000000000000000000000000000000000000000000000000000
310
00070000000700000000000000000000000000000000000000000000000000000000000000000000000000000000000000000000000000000000000000000000000000000000000000000000000000000000000000000000000000000000000000000000000000000000000000000000000000000000000000000000000000
310
00000000000000000000000000000000000000000000000000000000000000000000000000000000000000000000000000000000000007000000070000000000000000000000000000000000000000000000000000000000000000000000000000000000000000000000000000000000000000000000000000000000000000
310
00000000000000000000000000000000000000000000000000000000000000000000000000000000000000000000000000000000000000000000000000000000000000000000000000000000000000000000000000000000000000000000000000000000000000000000000700000007070707070707070000000000000000
310
00000000000000000000000000000000000000000000000000000000000000000000000000000000000000000000000000000000000000000000000000000000000000000000000000000000000000000000000000000000000000000000000000000000000000000000000000000000000000000000000000000000000000
310
00000000000000000000000000000000000000000000000000000000000000000007000000070000000000070707070000000000000000000000000000000000000000000000000000000000000000000000000000000000000000000000000000000000000000000000000000000000000000000000000000000000000000
310
00000000000000000000000000000000000000000000000000000000000000000000000000000000000000000000000000000000000000000000000000000000000000000000000000000000000000000000000000000700000007000000000000000707000000000000000000000000000000000000000000000000000000
310
00000000000000000000000000000000000000000000000000000000000000000000000000000000000000000000000000000000000000000000000000000000000000000000000000000000000000000000000000000000000000000000000000000000000000000000000000000000000000000000000000000000000000
310
00000000000000000000000007000000070000000000000000000700000000000000000000000000000000000000000000000000000000000000000000000000000000000000000000000000000000000000000000000000000000000000000000000000000000000000000000000000000000000000000000000000000000
310
00000000000000000000000000000000000000000000000000000000000000000000000000000000000000000000000000000000000000000000000000000000000700000007000000000000000000070700000000000000000000000000000000000000000000000000000000000000000000000000000000000000000000
310
00000000000000000000000000000000000000000000000000000000000000000000000000000000000000000000000000000000000000000000000000000000000000000000000000000000000000000000000000000000000000000000000000000000000000000000000000000000000000000000070000000700000000
310
00000000000007000000000000000000000000000000000000000000000000000000000000000000000000000000000000000000000000000000000000000000000000000000000000000000000000000000000000000000000000000000000000000000000000000000000000000000000000000000000000000000000000
310
00000000000000000000000000000000000000000000000000000000000000000000000000000000000000000700000007000000000000000000000700000000000000000000000000000000000000000000000000000000000000000000000000000000000000000000000000000000000000000000000000000000000000
310
00000000000000000000000000000000000000000000000000000000000000000000000000000000000000000000000000000000000000000000000000000000000000000000000000000000000000000000000000000000000000000000000000070000000700000000000000000000070000000000000000000000000000
310
00000000000000000000000000000000000000000000000000000000000000000000000000000000000000000000000000000000000000000000000000000000000000000000000000000000000000000000000000000000000000000000000000000000000000000000000000000000000000000000000000000000000000
310
00000000000000000000000000000000000000000000000700000007000000000000000000000700000000000000000000000000000000000000000000000000000000000000000000000000000000000000000000000000000000000000000000000000000000000000000000000000000000000000000000000000000000
310
00000000000000000000000000000000000000000000000000000000000000000000000000000000000000000000000000000000000000000000000000000000000000000000000000000000070000000700000000000000000000070000000000000000000000000000000000000000000000000000000000000000000000
310
00000000000000000000000000000000000000000000000000000000000000000000000000000000000000000000000000000000000000000000000000000000000000000000000000000000000000000000000000000000000000000000000000000000000000000000000000000000000000000000000000000000000000
310
00000700000007000000000000000000070000000000000000000000000000000000000000000000000000000000000000000000000000000000000000000000000000000000000000000000000000000000000000000000000000000000000000000000000000000000000000000000000000000000000000000000000000
310
00000000000000000000000000000000000000000000000000000000000000000000000000000000000000000000000000000000000000070000000700000000000000000700000000000000000000000000000000000000000000000000000000000000000000000000000000000000000000000000000000000000000000
310
00000000000000000000000000000000000000000000000000000000000000000000000000000000000000000000000000000000000000000000000000000000000000000000000000000000000000000000000000000000000000000000000000000000000000000000000007000000070000000000000000070000000000
310
00000000000000000000000000000000000000000000000000000000000000000000000000000000000000000000000000000000000000000000000000000000000000000000000000000000000000000000000000000000000000000000000000000000000000000000000000000000000000000000000000000000000000
310
00000000000000000000000000000000000000000000000000000000000000000000070000000700000000000007070000000000000000000000000000000000000000000000000000000000000000000000000000000000000000000000000000000000000000000000000000000000000000000000000000000000000000
310
00000000000000000000000000000000000000000000000000000000000000000000000000000000000000000000000000000000000000000000000000000000000000000000000000000000000000000000000000000007000000070700000007070000000000000000000000000000000000000000000000000000000000
310
00000000000000000000000000000000000000000000000000000000000000000000000000000000000000000000000000000000000000000000000000000000000000000000000000000000000000000000000000000000000000000000000000000000000000000000000000000000000000000000000000000000000000
310
00000000000000000000000000070000000700070000070000000000000000000000000000000000000000000000000000000000000000000000000000000000000000000000000000000000000000000000000000000000000000000000000000000000000000000000000000000000000000000000000000000000000000
310
00000000000000000000000000000000000000000000000000000000000000000000000000000000000000000000000000000000000000000000000000000000000007000000070007000007000000000000000000000000000000000000000000000000000000000000000000000000000000000000000000000000000000
310
00000000000000000000000000000000000000000000000000000000000000000000000000000000000000000000000000000000000000000000000000000000000000000000000000000000000000000000000000000000000000000000000000000000000000000000000000000000000000000000000700000007000700
310
00070000000000000000000000000000000000000000000000000000000000000000000000000000000000000000000000000000000000000000000000000000000000000000000000000000000000000000000000000000000000000000000000000000000000000000000000000000000000000000000000000000000000
310
00000000000000000000000000000000000000000000000000000000000000000000000000000000000000000007000000070007000007000000000000000000000000000000000000000000000000000000000000000000000000000000000000000000000000000000000000000000000000000000000000000000000000
310
00000000000000000000000000000000000000000000000000000000000000000000000000000000000000000000000000000000000000000000000000000000000000000000000000000000000000000000000000000000000000000000000000000700000007000700000700000000000000000000000000000000000000
310
00000000000000000000000000000000000000000000000000000000000000000000000000000000000000000000000000000000000000000000000000000000000000000000000000000000000000000000000000000000000000000000000000000000000000000000000000000000000000000000000000000000000000
310
00000000000000000000000000000000000000000000000707000000070707000007000000000000000000000000000000000000000000000000000000000000000000000000000000000000000000000000000000000000000000000000000000000000000000000000000000000000000000000000000000000000000000
310
00000000000000000000000000000000000000000000000000000000000000000000000000000000000000000000000000000000000000000000000000000000000000000000000000000000070700000007070700000700000000000000000000000000000000000000000000000000000000000000000000000000000000
310
00000000000000000000000000000000000000000000000000000000000000000000000000000000000000000000000000000000000000000000000000000000000000000000000000000000000000000000000000000000000000000000000000000000000000000000000000000000000000000000000000000000000000
310
00000707000000070707000007000000000000000000000000000000000000000000000000000000000000000000000000000000000000000000000000000000000000000000000000000000000000000000000000000000000000000000000000000000000000000000000000000000000000000000000000000000000000
310
00000000000000000000000000000000000000000000000000000000000000000000000000000000000000000000000000000000000000070700000007070700000700000000000000000000000000000000000000000000000000000000000000000000000000000000000000000000000000000000000000000000000000
310
00000000000000000000000000000000000000000000000000000000000000000000000000000000000000000000000000000000000000000000000000000000000000000000000000000000000000000000000000000000000000000000000000000000000000000000000007070000000707070000070000000000000000
310
00000000000000000000000000000000000000000000000000000000000000000000000000000000000000000000000000000000000000000000000000000000000000000000000000000000000000000000000000000000000000000000000000000000000000000000000000000000000000000000000000000000000000
310
00000000000000000000000000000000000000000000000000000000000000000000070700000007070700000700000000000000000000000000000000000000000000000000000000000000000000000000000000000000000000000000000000000000000000000000000000000000000000000000000000000000000000
310
00000000000000000000000000000000000000000000000000000000000000000000000000000000000000000000000000000000000000000000000000000000000000000000000000000000000000000000000000000007070000000707070000070000000000000000000000000000000000000000000000000000000000
310
00000000000000000000000000000000000000000000000000000000000000000000000000000000000000000000000000000000000000000000000000000000000000000000000000000000000000000000000000000000000000000000000000000000000000000000000000000000000000000000000000000000000000
310
00000000000000000000000000070700000007070700000700000000000000000000000000000000000000000000000000000000000000000000000000000000000000000000000000000000000000000000000000000000000000000000000000000000000000000000000000000000000000000000000000000000000000
310
00000000000000000000000000000000000000000000000000000000000000000000000000000000000000000000000000000000000000000000000000000000000007070000000707070000070000000000000000000000000000000000000000000000000000000000000000000000000000000000000000000000000000
310
00000000000000000000000000000000000000000000000000000000000000000000000000000000000000000000000000000000000000000000000000000000000000000000000000000000000000000000000000000000000000000000000000000000000000000000000000000000000000000000000707000000070707
310
07070700000000000000000000000000000000000000000000000000000000000000000000000000000000000000000000000000000000000000000000000000000000000000000000000000000000000000000000000000000000000000000000000000000000000000000000000000000000000000000000000000000000
310
00000000000000000000000000000000000000000000000000000000000000000000000000000000000707070707070000000707000000070707070707070707070707070707070707070707070707070707070000000000000000000000000000000000000000000000000000000000000000000000000000000000000000
310
00000000000000000000000000000000000000000000000000000000000000000000000000000000000000000000000000000000000000000000000000000000000000000000000000000000000000000000000000000000000000000000070000000707000000070700000007000000000707070707070707070707070707
310
07070707000000000007000000000000000000000000000000000000000000000000000000000000000000000000000000000000000000000000000000000000000000000000000000000000000000000000000000000000000000000000000000000000000000000000000000000000000000000000000000000000000000
310
00000000000000000000000000000000000000070700000007070000000707070000070707070700000000000000000000000000000000000000000000070700000000000000000000000000000000000000000000000000000000000000000000000000000000000000000000000000000000000000000000000000000000
310
00000000000000000000000000000000000000000000000000000000000000000000000000000000000000000000000000000000000000000000000000000000000000000000000007070000000707070007070707070707000000000000000000000000000707070707070707070707070700000000000000000000000000
310
00000000000000000000000000000000000000000000000000000000000000000000000000000000000000000000000000000000000000000000000000000000000000000000000000000000000000000000000000000000000000000000000000000000000000000000000000000000000000000000000000000000000007
310
00000007000707070007070007070007070707070707070707070700000000000000000000000000000000000000000000000000000000000000000000000000000000000000000000000000000000000000000000000000000000000000000000000000000000000000000000000000000000000000000000000000000000
310
00000000000000000000000000000000000000000000000000000000000000000000000000000000000000000000000000000000070707070707070007070707070707070000000000000707070707070000000000000000000000000000000000000000000000000000000000000000000000000000000000000000000000
310
00000000000000000000000000000000000000000000000000000000000000000000000000000000000000000000000000000000000000000000000000000000000000000000000000000000000000000000000000000000000000000000000000000000000000000000000000070007000700070000070707070000000000
310
00000000000007070707070700000000000007070700000000000000000000000000000000000000000000000000000000000000000000000000000000000000000000000000000000000000000000000000000000000000000000000000000000000000000000000000000000000000000000000000000000000000000000
310
00000000000000000000000000000000000000000000000000000000000000000000000700070007000700000000000007070707070707000000000000000000000707070707070700070707000000000000000000000000000000000000000000000000000000000000000000000000000000000000000000000000000000
310
00000000000000000000000000000000000000000000000000000000000000000000000000000000000000000000000000000000000000000000000000000000000000000000000000000000000000000000000000000000070007000700070000000000000000000000000007070707070707070000000007070000000000
310
00000707000000000000000000000000000000000000000000000000000000000000000000000000000000000000000000000000000000000000000000000000000000000000000000000000000000000000000000000000000000000000000000000000000000000000000000000000000000000000000000000000000000
310
00000000000000000000000000000700070007000700000000000000000000000000000000000000000007070707070000000000000000000700000000000000000000000000000000000000000000000000000000000000000000000000000000000000000000000000000000000000000000000000000000000000000000
310
00000000000000000000000000000000000000000000000000000000000000000000000000000000000000000000000000000000000000000000000000000000000000070007000700070000000000000000000000000000000000000000000000000007000000000000000000070000000000000000000000000000000000
310
00000000000000000000000000000000000000000000000000000000000000000000000000000000000000000000000000000000000000000000000000000000000000000000000000000000000000000000000000000000000000000000000000000000000000000000000000000000000000000007070707070707070707
310
07070700000000000000000000000000000000000000000000070000000000000000000700000000000000000000000000000000000000000000000000000000000000000000000000000000000000000000000000000000000000000000000000000000000000000000000000000000000000000000000000000000000000
310
00000000000000000000000000000000000000000000000000000000000000000000000000000000000000070707070707070707070707070000000000000000000000000000000000000000000007070707070707070707070000000000000000000000000000000000000000000000000000000000000000000000000000
310
00000000000000000000000000000000000000000000000000000000000000000000000000000000000000000000000000000000000000000000000000000000000000000000000000000000000000000000000000000000000000000000000000000000000000000000000000000000000000000000000000000000000000
310
00000000000000000000000000000000000000000000000000000000000000000000000000000000000000000000000000000000000000000000000000000000000000000000000000000000000000000000000000000000000000000000000000000000000000000000000000000000000000000000000000000000000000
310
00000000000000000000000000000000000000000000000000000000000000000000000000000000000000000000000000000000000000000000000000000000000000000000000000000000000000000000000000000000000000000000000000000000000000000000000000000000000000000000000000000000000000
310
00000000000000000000000000000000000000000000000000000000000000000000000000000000000000000000000000000000000000000000000000000000000000000000000000000000000000000000000000000000000000000000000000000000000000000000000000000000000000000000000000000000000000
310
00000000000000000000000000000000000000000000000000000000000000000000000000000000000000000000000000000000000000000000000000000000000000000000000000000000000000000000000000000000000000000000000000000000000000000000000000000000000000000000000000000000000000
310
000000000000000000000000000000000000000000000000000000000000000000000000000000000000000000000000000000000000000000000000000000000000000000000000000000000000000000000000000000000000000000000000000000000000000000000000
  0
ENDSEC
  0
EOF
