  0
SECTION
  2
HEADER
  9
$ACADVER
  1
AC1015
  9
$ACADMAINTVER
 70
     6
  9
$DWGCODEPAGE
  3
ANSI_1252
  9
$INSBASE
 10
0.0
 20
0.0
 30
0.0
  9
$EXTMIN
 10
-0.0315
 20
-0.02569
 30
0.0
  9
$EXTMAX
 10
230.0315
 20
954.02569
 30
0.0
  9
$LIMMIN
 10
0.0
 20
0.0
  9
$LIMMAX
 10
12.0
 20
9.0
  9
$ORTHOMODE
 70
     0
  9
$REGENMODE
 70
     1
  9
$FILLMODE
 70
     1
  9
$QTEXTMODE
 70
     0
  9
$MIRRTEXT
 70
     1
  9
$LTSCALE
 40
1.0
  9
$ATTMODE
 70
     1
  9
$TEXTSIZE
 40
0.2
  9
$TRACEWID
 40
0.05
  9
$TEXTSTYLE
  7
Standard
  9
$CLAYER
  8
0
  9
$CELTYPE
  6
ByBlock
  9
$CECOLOR
 62
   256
  9
$CELTSCALE
 40
1.0
  9
$DISPSILH
 70
     0
  9
$DIMSCALE
 40
1.0
  9
$DIMASZ
 40
0.18
  9
$DIMEXO
 40
0.0625
  9
$DIMDLI
 40
0.38
  9
$DIMRND
 40
0.0
  9
$DIMDLE
 40
0.0
  9
$DIMEXE
 40
0.18
  9
$DIMTP
 40
0.0
  9
$DIMTM
 40
0.0
  9
$DIMTXT
 40
0.18
  9
$DIMCEN
 40
0.09
  9
$DIMTSZ
 40
0.0
  9
$DIMTOL
 70
     0
  9
$DIMLIM
 70
     0
  9
$DIMTIH
 70
     1
  9
$DIMTOH
 70
     1
  9
$DIMSE1
 70
     0
  9
$DIMSE2
 70
     0
  9
$DIMTAD
 70
     0
  9
$DIMZIN
 70
     0
  9
$DIMBLK
  1

  9
$DIMASO
 70
     1
  9
$DIMSHO
 70
     1
  9
$DIMPOST
  1

  9
$DIMAPOST
  1

  9
$DIMALT
 70
     0
  9
$DIMALTD
 70
     2
  9
$DIMALTF
 40
25.4
  9
$DIMLFAC
 40
1.0
  9
$DIMTOFL
 70
     0
  9
$DIMTVP
 40
0.0
  9
$DIMTIX
 70
     0
  9
$DIMSOXD
 70
     0
  9
$DIMSAH
 70
     0
  9
$DIMBLK1
  1

  9
$DIMBLK2
  1

  9
$DIMSTYLE
  2
Standard
  9
$DIMCLRD
 70
     0
  9
$DIMCLRE
 70
     0
  9
$DIMCLRT
 70
     0
  9
$DIMTFAC
 40
1.0
  9
$DIMGAP
 40
0.09
  9
$DIMJUST
 70
     0
  9
$DIMSD1
 70
     0
  9
$DIMSD2
 70
     0
  9
$DIMTOLJ
 70
     1
  9
$DIMTZIN
 70
     0
  9
$DIMALTZ
 70
     0
  9
$DIMALTTZ
 70
     0
  9
$DIMUPT
 70
     0
  9
$DIMDEC
 70
     4
  9
$DIMTDEC
 70
     4
  9
$DIMALTU
 70
     2
  9
$DIMALTTD
 70
     2
  9
$DIMTXSTY
  7
Standard
  9
$DIMAUNIT
 70
     0
  9
$DIMADEC
 70
     0
  9
$DIMALTRND
 40
0.0
  9
$DIMAZIN
 70
     0
  9
$DIMDSEP
 70
    46
  9
$DIMATFIT
 70
     3
  9
$DIMFRAC
 70
     0
  9
$DIMLDRBLK
  1

  9
$DIMLUNIT
 70
     2
  9
$DIMLWD
 70
    -2
  9
$DIMLWE
 70
    -2
  9
$DIMTMOVE
 70
     2
  9
$LUNITS
 70
     2
  9
$LUPREC
 70
     4
  9
$SKETCHINC
 40
0.1
  9
$FILLETRAD
 40
0.5
  9
$AUNITS
 70
     0
  9
$AUPREC
 70
     0
  9
$MENU
  1
.
  9
$ELEVATION
 40
0.0
  9
$PELEVATION
 40
0.0
  9
$THICKNESS
 40
0.0
  9
$LIMCHECK
 70
     0
  9
$CHAMFERA
 40
0.5
  9
$CHAMFERB
 40
0.5
  9
$CHAMFERC
 40
1.0
  9
$CHAMFERD
 40
0.0
  9
$SKPOLY
 70
     0
  9
$TDCREATE
 40
2455872.556308588
  9
$TDUCREATE
 40
2455872.514641922
  9
$TDUPDATE
 40
2455872.557603981
  9
$TDUUPDATE
 40
2455872.515937315
  9
$TDINDWG
 40
0.0012952199
  9
$TDUSRTIMER
 40
0.0012952199
  9
$USRTIMER
 70
     1
  9
$ANGBASE
 50
0.0
  9
$ANGDIR
 70
     0
  9
$PDMODE
 70
     0
  9
$PDSIZE
 40
0.0
  9
$PLINEWID
 40
0.0
  9
$SPLFRAME
 70
     0
  9
$SPLINETYPE
 70
     6
  9
$SPLINESEGS
 70
     8
  9
$HANDSEED
  5
3FB
  9
$SURFTAB1
 70
     6
  9
$SURFTAB2
 70
     6
  9
$SURFTYPE
 70
     6
  9
$SURFU
 70
     6
  9
$SURFV
 70
     6
  9
$UCSBASE
  2

  9
$UCSNAME
  2

  9
$UCSORG
 10
0.0
 20
0.0
 30
0.0
  9
$UCSXDIR
 10
1.0
 20
0.0
 30
0.0
  9
$UCSYDIR
 10
0.0
 20
1.0
 30
0.0
  9
$UCSORTHOREF
  2

  9
$UCSORTHOVIEW
 70
     0
  9
$UCSORGTOP
 10
0.0
 20
0.0
 30
0.0
  9
$UCSORGBOTTOM
 10
0.0
 20
0.0
 30
0.0
  9
$UCSORGLEFT
 10
0.0
 20
0.0
 30
0.0
  9
$UCSORGRIGHT
 10
0.0
 20
0.0
 30
0.0
  9
$UCSORGFRONT
 10
0.0
 20
0.0
 30
0.0
  9
$UCSORGBACK
 10
0.0
 20
0.0
 30
0.0
  9
$PUCSBASE
  2

  9
$PUCSNAME
  2

  9
$PUCSORG
 10
0.0
 20
0.0
 30
0.0
  9
$PUCSXDIR
 10
1.0
 20
0.0
 30
0.0
  9
$PUCSYDIR
 10
0.0
 20
1.0
 30
0.0
  9
$PUCSORTHOREF
  2

  9
$PUCSORTHOVIEW
 70
     0
  9
$PUCSORGTOP
 10
0.0
 20
0.0
 30
0.0
  9
$PUCSORGBOTTOM
 10
0.0
 20
0.0
 30
0.0
  9
$PUCSORGLEFT
 10
0.0
 20
0.0
 30
0.0
  9
$PUCSORGRIGHT
 10
0.0
 20
0.0
 30
0.0
  9
$PUCSORGFRONT
 10
0.0
 20
0.0
 30
0.0
  9
$PUCSORGBACK
 10
0.0
 20
0.0
 30
0.0
  9
$USERI1
 70
     0
  9
$USERI2
 70
     0
  9
$USERI3
 70
     0
  9
$USERI4
 70
     0
  9
$USERI5
 70
     0
  9
$USERR1
 40
0.0
  9
$USERR2
 40
0.0
  9
$USERR3
 40
0.0
  9
$USERR4
 40
0.0
  9
$USERR5
 40
0.0
  9
$WORLDVIEW
 70
     1
  9
$SHADEDGE
 70
     3
  9
$SHADEDIF
 70
    70
  9
$TILEMODE
 70
     1
  9
$MAXACTVP
 70
    64
  9
$PINSBASE
 10
0.0
 20
0.0
 30
0.0
  9
$PLIMCHECK
 70
     0
  9
$PEXTMIN
 10
1.000000000000E+20
 20
1.000000000000E+20
 30
1.000000000000E+20
  9
$PEXTMAX
 10
-1.000000000000E+20
 20
-1.000000000000E+20
 30
-1.000000000000E+20
  9
$PLIMMIN
 10
0.0
 20
0.0
  9
$PLIMMAX
 10
12.0
 20
9.0
  9
$UNITMODE
 70
     0
  9
$VISRETAIN
 70
     1
  9
$PLINEGEN
 70
     0
  9
$PSLTSCALE
 70
     1
  9
$TREEDEPTH
 70
  3020
  9
$CMLSTYLE
  2
Standard
  9
$CMLJUST
 70
     0
  9
$CMLSCALE
 40
1.0
  9
$PROXYGRAPHICS
 70
     1
  9
$MEASUREMENT
 70
     0
  9
$CELWEIGHT
370
    -1
  9
$ENDCAPS
280
     0
  9
$JOINSTYLE
280
     0
  9
$LWDISPLAY
290
     0
  9
$INSUNITS
 70
     0
  9
$HYPERLINKBASE
  1

  9
$STYLESHEET
  1

  9
$XEDIT
290
     1
  9
$CEPSNTYPE
380
     0
  9
$PSTYLEMODE
290
     1
  9
$FINGERPRINTGUID
  2
{A137860D-9B3C-48DC-B594-D20FAA59B844}
  9
$VERSIONGUID
  2
{FAEB1C32-E019-11D5-929B-00C0DF256EC4}
  9
$EXTNAMES
290
     1
  9
$PSVPSCALE
 40
0.0
  9
$OLESTARTUP
290
     0
  0
ENDSEC
  0
SECTION
  2
CLASSES
  0
CLASS
  1
ACDBDICTIONARYWDFLT
  2
AcDbDictionaryWithDefault
  3
ObjectDBX Classes
 90
        0
280
     0
281
     0
  0
CLASS
  1
SCALE
  2
AcDbScale
  3
ObjectDBX Classes
 90
     1153
280
     0
281
     0
  0
CLASS
  1
DICTIONARYVAR
  2
AcDbDictionaryVar
  3
ObjectDBX Classes
 90
        0
280
     0
281
     0
  0
CLASS
  1
ACDBPLACEHOLDER
  2
AcDbPlaceHolder
  3
ObjectDBX Classes
 90
        0
280
     0
281
     0
  0
CLASS
  1
LAYOUT
  2
AcDbLayout
  3
ObjectDBX Classes
 90
        0
280
     0
281
     0
  0
ENDSEC
  0
SECTION
  2
TABLES
  0
TABLE
  2
VPORT
  5
8
330
0
100
AcDbSymbolTable
 70
     1
  0
VPORT
  5
3CE
330
8
100
AcDbSymbolTableRecord
100
AcDbViewportTableRecord
  2
*Active
 70
     0
 10
0.0
 20
0.0
 11
1.0
 21
1.0
 12
115.0
 22
477.0
 13
0.0
 23
0.0
 14
0.5
 24
0.5
 15
0.5
 25
0.5
 16
0.0
 26
0.0
 36
1.0
 17
0.0
 27
0.0
 37
0.0
 40
973.1324076
 41
2.271724137931
 42
50.0
 43
0.0
 44
0.0
 50
0.0
 51
0.0
 71
    16
 72
   100
 73
     1
 74
     3
 75
     0
 76
     0
 77
     0
 78
     0
281
     0
 65
     1
110
0.0
120
0.0
130
0.0
111
1.0
121
0.0
131
0.0
112
0.0
122
1.0
132
0.0
 79
     0
146
0.0
  0
ENDTAB
  0
TABLE
  2
LTYPE
  5
5
330
0
100
AcDbSymbolTable
 70
     1
  0
LTYPE
  5
14
330
5
100
AcDbSymbolTableRecord
100
AcDbLinetypeTableRecord
  2
ByBlock
 70
     0
  3

 72
    65
 73
     0
 40
0.0
  0
LTYPE
  5
15
330
5
100
AcDbSymbolTableRecord
100
AcDbLinetypeTableRecord
  2
ByLayer
 70
     0
  3

 72
    65
 73
     0
 40
0.0
  0
LTYPE
  5
16
330
5
100
AcDbSymbolTableRecord
100
AcDbLinetypeTableRecord
  2
Continuous
 70
     0
  3
Solid line
 72
    65
 73
     0
 40
0.0
  0
ENDTAB
  0
TABLE
  2
LAYER
  5
2
330
0
100
AcDbSymbolTable
 70
     1
  0
LAYER
  5
10
330
2
100
AcDbSymbolTableRecord
100
AcDbLayerTableRecord
  2
0
 70
     0
 62
     7
  6
Continuous
370
    -3
390
F
  0
ENDTAB
  0
TABLE
  2
STYLE
  5
3
330
0
100
AcDbSymbolTable
 70
     1
  0
STYLE
  5
11
330
3
100
AcDbSymbolTableRecord
100
AcDbTextStyleTableRecord
  2
Standard
 70
     0
 40
0.0
 41
1.0
 50
0.0
 71
     0
 42
0.2
  3
txt
  4

  0
ENDTAB
  0
TABLE
  2
VIEW
  5
6
330
0
100
AcDbSymbolTable
 70
     0
  0
ENDTAB
  0
TABLE
  2
UCS
  5
7
330
0
100
AcDbSymbolTable
 70
     0
  0
ENDTAB
  0
TABLE
  2
APPID
  5
9
330
0
100
AcDbSymbolTable
 70
     1
  0
APPID
  5
12
330
9
100
AcDbSymbolTableRecord
100
AcDbRegAppTableRecord
  2
ACAD
 70
     0
  0
ENDTAB
  0
TABLE
  2
DIMSTYLE
  5
A
330
0
100
AcDbSymbolTable
 70
     1
100
AcDbDimStyleTable
  0
DIMSTYLE
105
20
330
A
100
AcDbSymbolTableRecord
100
AcDbDimStyleTableRecord
  2
Standard
 70
     0
340
11
  0
ENDTAB
  0
TABLE
  2
BLOCK_RECORD
  5
1
330
0
100
AcDbSymbolTable
 70
     0
  0
BLOCK_RECORD
  5
1D
330
1
100
AcDbSymbolTableRecord
100
AcDbBlockTableRecord
  2
*Model_Space
340
1E
  0
BLOCK_RECORD
  5
1B
330
1
100
AcDbSymbolTableRecord
100
AcDbBlockTableRecord
  2
*Paper_Space
340
1C
  0
ENDTAB
  0
ENDSEC
  0
SECTION
  2
BLOCKS
  0
BLOCK
  5
3D1
330
1D
100
AcDbEntity
  8
0
100
AcDbBlockBegin
  2
*Model_Space
 70
     0
 10
0.0
 20
0.0
 30
0.0
  3
*Model_Space
  1
*Model_Space
  0
ENDBLK
  5
3D2
330
1D
100
AcDbEntity
  8
0
100
AcDbBlockEnd
  0
BLOCK
  5
3CF
330
1B
100
AcDbEntity
 67
     1
  8
0
100
AcDbBlockBegin
  2
*Paper_Space
 70
     0
 10
0.0
 20
0.0
 30
0.0
  3
*Paper_Space
  1
*Paper_Space
  0
ENDBLK
  5
3D0
330
1B
100
AcDbEntity
 67
     1
  8
0
100
AcDbBlockEnd
  0
ENDSEC
  0
SECTION
  2
ENTITIES
  0
LINE
  5
21
330
1D
100
AcDbEntity
  8
0
100
AcDbLine
 10
26.2185
 20
800.81269
 30
0.0
 11
32.9685
 21
789.12169
 31
0.0
  0
LINE
  5
22
330
1D
100
AcDbEntity
  8
0
100
AcDbLine
 10
25.785500000021
 20
800.562689999963
 30
0.0
 11
32.3355
 21
789.21769
 31
0.0
  0
LINE
  5
23
330
1D
100
AcDbEntity
  8
0
100
AcDbLine
 10
25.7855
 20
800.56269
 30
0.0
 11
32.3355
 21
789.21769
 31
0.0
  0
LINE
  5
24
330
1D
100
AcDbEntity
  8
0
100
AcDbLine
 10
19.4685
 20
812.50369
 30
0.0
 11
26.2185
 21
800.81269
 31
0.0
  0
LINE
  5
25
330
1D
100
AcDbEntity
  8
0
100
AcDbLine
 10
19.3855
 20
811.64769
 30
0.0
 11
25.7855
 21
800.56269
 31
0.0
  0
LINE
  5
26
330
1D
100
AcDbEntity
  8
0
100
AcDbLine
 10
13.1685
 20
823.41569
 30
0.0
 11
19.4685
 21
812.50369
 31
0.0
  0
LINE
  5
27
330
1D
100
AcDbEntity
  8
0
100
AcDbLine
 10
13.085499999989
 20
822.559690000018
 30
0.0
 11
19.3855
 21
811.64769
 31
0.0
  0
LINE
  5
28
330
1D
100
AcDbEntity
  8
0
100
AcDbLine
 10
13.0855
 20
822.55969
 30
0.0
 11
19.3855
 21
811.64769
 31
0.0
  0
LINE
  5
29
330
1D
100
AcDbEntity
  8
0
100
AcDbLine
 10
0.9185
 20
844.63369
 30
0.0
 11
3.4685
 21
840.21669
 31
0.0
  0
LINE
  5
2A
330
1D
100
AcDbEntity
  8
0
100
AcDbLine
 10
3.4685
 20
840.21669
 30
0.0
 11
7.7185
 21
832.85569
 31
0.0
  0
LINE
  5
2B
330
1D
100
AcDbEntity
  8
0
100
AcDbLine
 10
7.7185
 20
832.85569
 30
0.0
 11
13.1685
 21
823.41569
 31
0.0
  0
LINE
  5
2C
330
1D
100
AcDbEntity
  8
0
100
AcDbLine
 10
7.5825
 20
841.09069
 30
0.0
 11
11.6825
 21
833.98969
 31
0.0
  0
LINE
  5
2D
330
1D
100
AcDbEntity
  8
0
100
AcDbLine
 10
6.4995
 20
841.96669
 30
0.0
 11
10.7495
 21
834.60569
 31
0.0
  0
LINE
  5
2E
330
1D
100
AcDbEntity
  8
0
100
AcDbLine
 10
3.6855
 20
838.84069
 30
0.0
 11
7.7855
 21
831.73969
 31
0.0
  0
LINE
  5
2F
330
1D
100
AcDbEntity
  8
0
100
AcDbLine
 10
1.1855
 20
843.17069
 30
0.0
 11
3.6855
 21
838.84069
 31
0.0
  0
LINE
  5
30
330
1D
100
AcDbEntity
  8
0
100
AcDbLine
 10
3.9495
 20
846.38369
 30
0.0
 11
6.4995
 21
841.96669
 31
0.0
  0
LINE
  5
31
330
1D
100
AcDbEntity
  8
0
100
AcDbLine
 10
5.0825
 20
845.42069
 30
0.0
 11
7.5825
 21
841.09069
 31
0.0
  0
LINE
  5
32
330
1D
100
AcDbEntity
  8
0
100
AcDbLine
 10
4.1825
 20
846.97969
 30
0.0
 11
9.1955
 21
849.29669
 31
0.0
  0
LINE
  5
33
330
1D
100
AcDbEntity
  8
0
100
AcDbLine
 10
4.1825
 20
846.97969
 30
0.0
 11
5.0825
 21
845.42069
 31
0.0
  0
LINE
  5
34
330
1D
100
AcDbEntity
  8
0
100
AcDbLine
 10
2.9995
 20
848.02869
 30
0.0
 11
4.1825
 21
846.97969
 31
0.0
  0
LINE
  5
35
330
1D
100
AcDbEntity
  8
0
100
AcDbLine
 10
2.9995
 20
848.02869
 30
0.0
 11
3.9495
 21
846.38369
 31
0.0
  0
LINE
  5
36
330
1D
100
AcDbEntity
  8
0
100
AcDbLine
 10
1.4505
 20
847.71169
 30
0.0
 11
2.9995
 21
848.02869
 31
0.0
  0
LINE
  5
37
330
1D
100
AcDbEntity
  8
0
100
AcDbLine
 10
1.0175
 20
847.46169
 30
0.0
 11
1.4505
 21
847.71169
 31
0.0
  0
LINE
  5
38
330
1D
100
AcDbEntity
  8
0
100
AcDbLine
 10
-0.0315
 20
846.27869
 30
0.0
 11
0.9185
 21
844.63369
 31
0.0
  0
LINE
  5
39
330
1D
100
AcDbEntity
  8
0
100
AcDbLine
 10
-0.0315
 20
846.27869
 30
0.0
 11
0.2855
 21
844.72969
 31
0.0
  0
LINE
  5
3A
330
1D
100
AcDbEntity
  8
0
100
AcDbLine
 10
-0.0315
 20
846.27869
 30
0.0
 11
1.0175
 21
847.46169
 31
0.0
  0
LINE
  5
3B
330
1D
100
AcDbEntity
  8
0
100
AcDbLine
 10
0.2855
 20
844.72969
 30
0.0
 11
1.1855
 21
843.17069
 31
0.0
  0
LINE
  5
3C
330
1D
100
AcDbEntity
  8
0
100
AcDbLine
 10
10.7495
 20
834.60569
 30
0.0
 11
16.1995
 21
825.16569
 31
0.0
  0
LINE
  5
3D
330
1D
100
AcDbEntity
  8
0
100
AcDbLine
 10
11.6445
 20
848.05469
 30
0.0
 11
14.0945
 21
843.81169
 31
0.0
  0
LINE
  5
3E
330
1D
100
AcDbEntity
  8
0
100
AcDbLine
 10
9.1955
 20
849.29669
 30
0.0
 11
10.7445
 21
849.61369
 31
0.0
  0
LINE
  5
3F
330
1D
100
AcDbEntity
  8
0
100
AcDbLine
 10
11.6825
 20
833.98969
 30
0.0
 11
16.9825
 21
824.80969
 31
0.0
  0
LINE
  5
40
330
1D
100
AcDbEntity
  8
0
100
AcDbLine
 10
12.8275
 20
847.00569
 30
0.0
 11
15.1775
 21
842.93569
 31
0.0
  0
LINE
  5
41
330
1D
100
AcDbEntity
  8
0
100
AcDbLine
 10
16.1995
 20
825.16569
 30
0.0
 11
22.4995
 21
814.25369
 31
0.0
  0
LINE
  5
42
330
1D
100
AcDbEntity
  8
0
100
AcDbLine
 10
17.9755
 20
844.08969
 30
0.0
 11
21.8255
 21
837.42069
 31
0.0
  0
LINE
  5
43
330
1D
100
AcDbEntity
  8
0
100
AcDbLine
 10
15.6255
 20
848.15969
 30
0.0
 11
17.9755
 21
844.08969
 31
0.0
  0
LINE
  5
44
330
1D
100
AcDbEntity
  8
0
100
AcDbLine
 10
15.1775
 20
842.93569
 30
0.0
 11
19.0775
 21
836.18069
 31
0.0
  0
LINE
  5
45
330
1D
100
AcDbEntity
  8
0
100
AcDbLine
 10
14.0945
 20
843.81169
 30
0.0
 11
18.0945
 21
836.88369
 31
0.0
  0
LINE
  5
46
330
1D
100
AcDbEntity
  8
0
100
AcDbLine
 10
11.9275
 20
848.56469
 30
0.0
 11
13.6595
 21
849.56469
 31
0.0
  0
LINE
  5
47
330
1D
100
AcDbEntity
  8
0
100
AcDbLine
 10
11.9275
 20
848.56469
 30
0.0
 11
12.8275
 21
847.00569
 31
0.0
  0
LINE
  5
48
330
1D
100
AcDbEntity
  8
0
100
AcDbLine
 10
10.7445
 20
849.61369
 30
0.0
 11
11.9275
 21
848.56469
 31
0.0
  0
LINE
  5
49
330
1D
100
AcDbEntity
  8
0
100
AcDbLine
 10
10.7445
 20
849.61369
 30
0.0
 11
11.6445
 21
848.05469
 31
0.0
  0
LINE
  5
4A
330
1D
100
AcDbEntity
  8
0
100
AcDbLine
 10
17.3405
 20
850.18869
 30
0.0
 11
19.7405
 21
846.03169
 31
0.0
  0
LINE
  5
4B
330
1D
100
AcDbEntity
  8
0
100
AcDbLine
 10
17.9895
 20
852.06469
 30
0.0
 11
19.7885
 21
851.94869
 31
0.0
  0
LINE
  5
4C
330
1D
100
AcDbEntity
  8
0
100
AcDbLine
 10
16.4405
 20
851.74769
 30
0.0
 11
17.9895
 21
852.06469
 31
0.0
  0
LINE
  5
4D
330
1D
100
AcDbEntity
  8
0
100
AcDbLine
 10
16.4405
 20
851.74769
 30
0.0
 11
17.3405
 21
850.18869
 31
0.0
  0
LINE
  5
4E
330
1D
100
AcDbEntity
  8
0
100
AcDbLine
 10
15.3915
 20
850.56469
 30
0.0
 11
16.4405
 21
851.74769
 31
0.0
  0
LINE
  5
4F
330
1D
100
AcDbEntity
  8
0
100
AcDbLine
 10
14.7755
 20
849.63169
 30
0.0
 11
15.3915
 21
850.56469
 31
0.0
  0
LINE
  5
50
330
1D
100
AcDbEntity
  8
0
100
AcDbLine
 10
14.7755
 20
849.63169
 30
0.0
 11
15.6255
 21
848.15969
 31
0.0
  0
LINE
  5
51
330
1D
100
AcDbEntity
  8
0
100
AcDbLine
 10
13.6595
 20
849.56469
 30
0.0
 11
14.7755
 21
849.63169
 31
0.0
  0
LINE
  5
52
330
1D
100
AcDbEntity
  8
0
100
AcDbLine
 10
18.0945
 20
836.88369
 30
0.0
 11
23.2945
 21
827.87669
 31
0.0
  0
LINE
  5
53
330
1D
100
AcDbEntity
  8
0
100
AcDbLine
 10
16.9825
 20
824.80969
 30
0.0
 11
23.1325
 21
814.15769
 31
0.0
  0
LINE
  5
54
330
1D
100
AcDbEntity
  8
0
100
AcDbLine
 10
7.7855
 20
831.73969
 30
0.0
 11
13.0855
 21
822.55969
 31
0.0
  0
LINE
  5
55
330
1D
100
AcDbEntity
  8
0
100
AcDbLine
 10
19.0775
 20
836.18069
 30
0.0
 11
24.1275
 21
827.43369
 31
0.0
  0
LINE
  5
56
330
1D
100
AcDbEntity
  8
0
100
AcDbLine
 10
19.7405
 20
846.03169
 30
0.0
 11
23.6405
 21
839.27669
 31
0.0
  0
LINE
  5
57
330
1D
100
AcDbEntity
  8
0
100
AcDbLine
 10
19.7885
 20
851.94869
 30
0.0
 11
22.2035
 21
852.76569
 31
0.0
  0
LINE
  5
58
330
1D
100
AcDbEntity
  8
0
100
AcDbLine
 10
23.2945
 20
827.87669
 30
0.0
 11
29.3445
 21
817.39769
 31
0.0
  0
LINE
  5
59
330
1D
100
AcDbEntity
  8
0
100
AcDbLine
 10
23.1325
 20
814.15769
 30
0.0
 11
29.6825
 21
802.81269
 31
0.0
  0
LINE
  5
5A
330
1D
100
AcDbEntity
  8
0
100
AcDbLine
 10
22.4995
 20
814.25369
 30
0.0
 11
29.2495
 21
802.56269
 31
0.0
  0
LINE
  5
5B
330
1D
100
AcDbEntity
  8
0
100
AcDbLine
 10
23.6405
 20
839.27669
 30
0.0
 11
28.7405
 21
830.44369
 31
0.0
  0
LINE
  5
5C
330
1D
100
AcDbEntity
  8
0
100
AcDbLine
 10
21.8255
 20
837.42069
 30
0.0
 11
26.8255
 21
828.76069
 31
0.0
  0
LINE
  5
5D
330
1D
100
AcDbEntity
  8
0
100
AcDbLine
 10
23.7525
 20
853.08269
 30
0.0
 11
25.1185
 21
852.71669
 31
0.0
  0
LINE
  5
5E
330
1D
100
AcDbEntity
  8
0
100
AcDbLine
 10
22.2035
 20
852.76569
 30
0.0
 11
23.7525
 21
853.08269
 31
0.0
  0
LINE
  5
5F
330
1D
100
AcDbEntity
  8
0
100
AcDbLine
 10
24.1275
 20
827.43369
 30
0.0
 11
29.9275
 21
817.38769
 31
0.0
  0
LINE
  5
60
330
1D
100
AcDbEntity
  8
0
100
AcDbLine
 10
26.3015
 20
851.66769
 30
0.0
 11
36.5335
 21
837.94569
 31
0.0
  0
LINE
  5
61
330
1D
100
AcDbEntity
  8
0
100
AcDbLine
 10
25.1185
 20
852.71669
 30
0.0
 11
26.3015
 21
851.66769
 31
0.0
  0
LINE
  5
62
330
1D
100
AcDbEntity
  8
0
100
AcDbLine
 10
196.0768
 20
-0.02569
 30
0.0
 11
198.9828
 21
0.48261
 31
0.0
  0
LINE
  5
63
330
1D
100
AcDbEntity
  8
0
100
AcDbLine
 10
201.3748
 20
1.43361
 30
0.0
 11
202.8038
 21
2.80741
 31
0.0
  0
LINE
  5
64
330
1D
100
AcDbEntity
  8
0
100
AcDbLine
 10
198.9828
 20
0.48261
 30
0.0
 11
201.3748
 21
1.43361
 31
0.0
  0
LINE
  5
65
330
1D
100
AcDbEntity
  8
0
100
AcDbLine
 10
192.9338
 20
0.10321
 30
0.0
 11
196.0768
 21
-0.02569
 31
0.0
  0
LINE
  5
66
330
1D
100
AcDbEntity
  8
0
100
AcDbLine
 10
190.1348
 20
0.80591
 30
0.0
 11
192.9338
 21
0.10321
 31
0.0
  0
LINE
  5
67
330
1D
100
AcDbEntity
  8
0
100
AcDbLine
 10
202.0368
 20
5.77681
 30
0.0
 11
203.0668
 21
4.34921
 31
0.0
  0
LINE
  5
68
330
1D
100
AcDbEntity
  8
0
100
AcDbLine
 10
200.1008
 20
6.95291
 30
0.0
 11
202.0368
 21
5.77681
 31
0.0
  0
LINE
  5
69
330
1D
100
AcDbEntity
  8
0
100
AcDbLine
 10
197.3068
 20
7.656713
 30
0.0
 11
200.1008
 21
6.95291
 31
0.0
  0
LINE
  5
6A
330
1D
100
AcDbEntity
  8
0
100
AcDbLine
 10
194.1638
 20
7.787813
 30
0.0
 11
197.3068
 21
7.656713
 31
0.0
  0
LINE
  5
6B
330
1D
100
AcDbEntity
  8
0
100
AcDbLine
 10
191.2538
 20
7.282613
 30
0.0
 11
194.1638
 21
7.787813
 31
0.0
  0
LINE
  5
6C
330
1D
100
AcDbEntity
  8
0
100
AcDbLine
 10
188.8588
 20
6.33051
 30
0.0
 11
191.2538
 21
7.282613
 31
0.0
  0
LINE
  5
6D
330
1D
100
AcDbEntity
  8
0
100
AcDbLine
 10
187.42582
 20
4.95681
 30
0.0
 11
188.8588
 21
6.33051
 31
0.0
  0
LINE
  5
6E
330
1D
100
AcDbEntity
  8
0
100
AcDbLine
 10
202.8038
 20
2.80741
 30
0.0
 11
203.0668
 21
4.34921
 31
0.0
  0
LINE
  5
6F
330
1D
100
AcDbEntity
  8
0
100
AcDbLine
 10
188.1948
 20
1.98211
 30
0.0
 11
190.1348
 21
0.80591
 31
0.0
  0
LINE
  5
70
330
1D
100
AcDbEntity
  8
0
100
AcDbLine
 10
187.16082
 20
3.41181
 30
0.0
 11
188.1948
 21
1.98211
 31
0.0
  0
LINE
  5
71
330
1D
100
AcDbEntity
  8
0
100
AcDbLine
 10
187.16082
 20
3.41181
 30
0.0
 11
187.42582
 21
4.95681
 31
0.0
  0
LINE
  5
72
330
1D
100
AcDbEntity
  8
0
100
AcDbLine
 10
179.5315
 20
31.82569
 30
0.0
 11
179.5315
 21
30.92569
 31
0.0
  0
LINE
  5
73
330
1D
100
AcDbEntity
  8
0
100
AcDbLine
 10
179.5315
 20
31.82569
 30
0.0
 11
179.5315
 21
33.42569
 31
0.0
  0
LINE
  5
74
330
1D
100
AcDbEntity
  8
0
100
AcDbLine
 10
179.5315
 20
30.92569
 30
0.0
 11
179.5315
 21
30.52569
 31
0.0
  0
LINE
  5
75
330
1D
100
AcDbEntity
  8
0
100
AcDbLine
 10
179.5315
 20
30.92569
 30
0.0
 11
179.5315
 21
31.82569
 31
0.0
  0
LINE
  5
76
330
1D
100
AcDbEntity
  8
0
100
AcDbLine
 10
178.5315
 20
45.02569
 30
0.0
 11
179.0315
 21
48.02569
 31
0.0
  0
LINE
  5
77
330
1D
100
AcDbEntity
  8
0
100
AcDbLine
 10
178.0315
 20
40.52569
 30
0.0
 11
178.5315
 21
36.02569
 31
0.0
  0
LINE
  5
78
330
1D
100
AcDbEntity
  8
0
100
AcDbLine
 10
178.0315
 20
40.52569
 30
0.0
 11
178.5315
 21
45.02569
 31
0.0
  0
LINE
  5
79
330
1D
100
AcDbEntity
  8
0
100
AcDbLine
 10
179.5315
 20
35.52569
 30
0.0
 11
179.5315
 21
33.42569
 31
0.0
  0
LINE
  5
7A
330
1D
100
AcDbEntity
  8
0
100
AcDbLine
 10
179.5315
 20
35.52569
 30
0.0
 11
179.5315
 21
37.92569
 31
0.0
  0
LINE
  5
7B
330
1D
100
AcDbEntity
  8
0
100
AcDbLine
 10
179.0315
 20
48.02569
 30
0.0
 11
179.5315
 21
50.52569
 31
0.0
  0
LINE
  5
7C
330
1D
100
AcDbEntity
  8
0
100
AcDbLine
 10
179.5315
 20
49.22569
 30
0.0
 11
179.5315
 21
47.62569
 31
0.0
  0
LINE
  5
7D
330
1D
100
AcDbEntity
  8
0
100
AcDbLine
 10
179.5315
 20
49.22569
 30
0.0
 11
179.5315
 21
50.12569
 31
0.0
  0
LINE
  5
7E
330
1D
100
AcDbEntity
  8
0
100
AcDbLine
 10
179.5315
 20
50.12569
 30
0.0
 11
179.5315
 21
49.22569
 31
0.0
  0
LINE
  5
7F
330
1D
100
AcDbEntity
  8
0
100
AcDbLine
 10
179.5315
 20
50.12569
 30
0.0
 11
179.5315
 21
50.52569
 31
0.0
  0
LINE
  5
80
330
1D
100
AcDbEntity
  8
0
100
AcDbLine
 10
179.5315
 20
50.52569
 30
0.0
 11
179.5315
 21
50.12569
 31
0.0
  0
LINE
  5
81
330
1D
100
AcDbEntity
  8
0
100
AcDbLine
 10
179.5315
 20
50.52569
 30
0.0
 11
182.535586265607
 21
50.52569
 31
0.0
  0
LINE
  5
82
330
1D
100
AcDbEntity
  8
0
100
AcDbLine
 10
179.5315
 20
47.62569
 30
0.0
 11
179.5315
 21
45.52569
 31
0.0
  0
LINE
  5
83
330
1D
100
AcDbEntity
  8
0
100
AcDbLine
 10
179.5315
 20
47.62569
 30
0.0
 11
179.5315
 21
49.22569
 31
0.0
  0
LINE
  5
84
330
1D
100
AcDbEntity
  8
0
100
AcDbLine
 10
179.5315
 20
45.52569
 30
0.0
 11
179.5315
 21
43.12569
 31
0.0
  0
LINE
  5
85
330
1D
100
AcDbEntity
  8
0
100
AcDbLine
 10
179.5315
 20
45.52569
 30
0.0
 11
179.5315
 21
47.62569
 31
0.0
  0
LINE
  5
86
330
1D
100
AcDbEntity
  8
0
100
AcDbLine
 10
179.5315
 20
43.12569
 30
0.0
 11
179.5315
 21
40.52569
 31
0.0
  0
LINE
  5
87
330
1D
100
AcDbEntity
  8
0
100
AcDbLine
 10
179.5315
 20
43.12569
 30
0.0
 11
179.5315
 21
45.52569
 31
0.0
  0
LINE
  5
88
330
1D
100
AcDbEntity
  8
0
100
AcDbLine
 10
179.5315
 20
37.92569
 30
0.0
 11
179.5315
 21
35.52569
 31
0.0
  0
LINE
  5
89
330
1D
100
AcDbEntity
  8
0
100
AcDbLine
 10
179.5315
 20
37.92569
 30
0.0
 11
179.5315
 21
40.52569
 31
0.0
  0
LINE
  5
8A
330
1D
100
AcDbEntity
  8
0
100
AcDbLine
 10
179.5315
 20
40.52569
 30
0.0
 11
179.5315
 21
37.92569
 31
0.0
  0
LINE
  5
8B
330
1D
100
AcDbEntity
  8
0
100
AcDbLine
 10
179.5315
 20
40.52569
 30
0.0
 11
179.5315
 21
43.12569
 31
0.0
  0
LINE
  5
8C
330
1D
100
AcDbEntity
  8
0
100
AcDbLine
 10
179.5315
 20
33.42569
 30
0.0
 11
179.5315
 21
31.82569
 31
0.0
  0
LINE
  5
8D
330
1D
100
AcDbEntity
  8
0
100
AcDbLine
 10
179.5315
 20
33.42569
 30
0.0
 11
179.5315
 21
35.52569
 31
0.0
  0
LINE
  5
8E
330
1D
100
AcDbEntity
  8
0
100
AcDbLine
 10
178.5315
 20
36.02569
 30
0.0
 11
179.0315
 21
33.02569
 31
0.0
  0
LINE
  5
8F
330
1D
100
AcDbEntity
  8
0
100
AcDbLine
 10
179.0315
 20
33.02569
 30
0.0
 11
179.5315
 21
30.52569
 31
0.0
  0
LINE
  5
93
330
1D
100
AcDbEntity
  8
0
100
AcDbLine
 10
182.650834783862
 20
30.52569
 30
0.0
 11
183.19004
 21
29.94429
 31
0.0
  0
LINE
  5
94
330
1D
100
AcDbEntity
  8
0
100
AcDbLine
 10
183.19004
 20
29.94429
 30
0.0
 11
185.95083
 21
27.99079
 31
0.0
  0
LINE
  5
95
330
1D
100
AcDbEntity
  8
0
100
AcDbLine
 10
185.95083
 20
27.99079
 30
0.0
 11
187.142224593528
 21
27.553684087864
 31
0.0
  0
LINE
  5
9F
330
1D
100
AcDbEntity
  8
0
100
AcDbLine
 10
182.5315
 20
50.468547142857
 30
0.0
 11
182.5315
 21
575.077008744395
 31
0.0
  0
LINE
  5
A0
330
1D
100
AcDbEntity
  8
0
100
AcDbLine
 10
182.5315
 20
50.468547142857
 30
0.0
 11
182.5315
 21
575.077008744395
 31
0.0
  0
LINE
  5
A7
330
1D
100
AcDbEntity
  8
0
100
AcDbLine
 10
179.5315
 20
30.52569
 30
0.0
 11
182.650834783862
 21
30.52569
 31
0.0
  0
LINE
  5
A8
330
1D
100
AcDbEntity
  8
0
100
AcDbLine
 10
179.5315
 20
30.52569
 30
0.0
 11
179.5315
 21
30.92569
 31
0.0
  0
LINE
  5
A9
330
1D
100
AcDbEntity
  8
0
100
AcDbLine
 10
150.8115
 20
665.83669
 30
0.0
 11
152.0799
 21
666.56969
 31
0.0
  0
LINE
  5
AA
330
1D
100
AcDbEntity
  8
0
100
AcDbLine
 10
150.8115
 20
665.83669
 30
0.0
 11
168.484313152849
 21
635.226574309576
 31
0.0
  0
LINE
  5
AB
330
1D
100
AcDbEntity
  8
0
100
AcDbLine
 10
150.8115
 20
665.83669
 30
0.0
 11
172.8115
 21
627.73169
 31
0.0
  0
LINE
  5
AC
330
1D
100
AcDbEntity
  8
0
100
AcDbLine
 10
154.432321290822
 20
667.927321071468
 30
0.0
 11
155.878
 21
668.76269
 31
0.0
  0
LINE
  5
AD
330
1D
100
AcDbEntity
  8
0
100
AcDbLine
 10
154.0066
 20
668.47669
 30
0.0
 11
155.1227
 21
668.54369
 31
0.0
  0
LINE
  5
AE
330
1D
100
AcDbEntity
  8
0
100
AcDbLine
 10
154.432321290822
 20
667.927321071468
 30
0.0
 11
155.878
 21
668.76269
 31
0.0
  0
LINE
  5
AF
330
1D
100
AcDbEntity
  8
0
100
AcDbLine
 10
154.6097
 20
668.02969
 30
0.0
 11
157.4737
 21
669.68369
 31
0.0
  0
LINE
  5
B0
330
1D
100
AcDbEntity
  8
0
100
AcDbLine
 10
152.0799
 20
666.56969
 30
0.0
 11
154.432321290822
 21
667.927321071468
 31
0.0
  0
LINE
  5
B1
330
1D
100
AcDbEntity
  8
0
100
AcDbLine
 10
152.0799
 20
666.56969
 30
0.0
 11
154.432321290822
 21
667.927321071468
 31
0.0
  0
LINE
  5
B2
330
1D
100
AcDbEntity
  8
0
100
AcDbLine
 10
152.0799
 20
666.56969
 30
0.0
 11
154.6097
 21
668.02969
 31
0.0
  0
LINE
  5
B3
330
1D
100
AcDbEntity
  8
0
100
AcDbLine
 10
182.05882
 20
578.61469
 30
0.0
 11
184.95782
 21
556.91769
 31
0.0
  0
LINE
  5
B4
330
1D
100
AcDbEntity
  8
0
100
AcDbLine
 10
174.2335
 20
610.93369
 30
0.0
 11
176.1055
 21
606.25369
 31
0.0
  0
LINE
  5
B5
330
1D
100
AcDbEntity
  8
0
100
AcDbLine
 10
173.5315
 20
615.92569
 30
0.0
 11
174.2335
 21
610.93369
 31
0.0
  0
LINE
  5
B6
330
1D
100
AcDbEntity
  8
0
100
AcDbLine
 10
173.5315
 20
615.92569
 30
0.0
 11
173.74460059877
 21
617.441072035699
 31
0.0
  0
LINE
  5
B9
330
1D
100
AcDbEntity
  8
0
100
AcDbLine
 10
172.8115
 20
627.73169
 30
0.0
 11
185.5836
 21
635.10569
 31
0.0
  0
LINE
  5
BA
330
1D
100
AcDbEntity
  8
0
100
AcDbLine
 10
172.8115
 20
627.73169
 30
0.0
 11
183.8929
 21
608.53869
 31
0.0
  0
LINE
  5
BB
330
1D
100
AcDbEntity
  8
0
100
AcDbLine
 10
176.1055
 20
606.25369
 30
0.0
 11
176.832409981917
 21
605.29053427396
 31
0.0
  0
LINE
  5
BC
330
1D
100
AcDbEntity
  8
0
100
AcDbLine
 10
177.459816
 20
602.82169
 30
0.0
 11
182.05882
 21
578.61469
 31
0.0
  0
LINE
  5
BD
330
1D
100
AcDbEntity
  8
0
100
AcDbLine
 10
171.25982
 20
627.21869
 30
0.0
 11
177.459816
 21
602.82169
 31
0.0
  0
LINE
  5
C1
330
1D
100
AcDbEntity
  8
0
100
AcDbLine
 10
168.484313152849
 20
635.226574309576
 30
0.0
 11
171.25982
 21
627.21869
 31
0.0
  0
LINE
  5
C2
330
1D
100
AcDbEntity
  8
0
100
AcDbLine
 10
155.1227
 20
668.54369
 30
0.0
 11
156.1616
 21
669.14369
 31
0.0
  0
LINE
  5
C3
330
1D
100
AcDbEntity
  8
0
100
AcDbLine
 10
47.8855
 20
762.28469
 30
0.0
 11
50.3855
 21
757.95369
 31
0.0
  0
LINE
  5
C4
330
1D
100
AcDbEntity
  8
0
100
AcDbLine
 10
50.3855
 20
757.95369
 30
0.0
 11
51.2855
 21
756.39469
 31
0.0
  0
LINE
  5
C5
330
1D
100
AcDbEntity
  8
0
100
AcDbLine
 10
50.685499999989
 20
757.434023333352
 30
0.0
 11
50.7855
 21
757.26069
 31
0.0
  0
LINE
  5
C6
330
1D
100
AcDbEntity
  8
0
100
AcDbLine
 10
48.9685
 20
761.40869
 30
0.0
 11
51.5185
 21
756.99169
 31
0.0
  0
LINE
  5
C7
330
1D
100
AcDbEntity
  8
0
100
AcDbLine
 10
48.465210144873
 20
761.280400145022
 30
0.0
 11
50.3855
 21
757.95369
 31
0.0
  0
LINE
  5
C8
330
1D
100
AcDbEntity
  8
0
100
AcDbLine
 10
48.465210144873
 20
761.280400145022
 30
0.0
 11
50.3855
 21
757.95369
 31
0.0
  0
LINE
  5
C9
330
1D
100
AcDbEntity
  8
0
100
AcDbLine
 10
37.993500004495
 20
779.417849992214
 30
0.0
 11
38.2355
 21
778.99869
 31
0.0
  0
LINE
  5
CA
330
1D
100
AcDbEntity
  8
0
100
AcDbLine
 10
39.2685
 20
778.20969
 30
0.0
 11
44.7185
 21
768.76969
 31
0.0
  0
LINE
  5
CB
330
1D
100
AcDbEntity
  8
0
100
AcDbLine
 10
38.2355
 20
778.99869
 30
0.0
 11
43.4355
 21
769.99169
 31
0.0
  0
LINE
  5
CC
330
1D
100
AcDbEntity
  8
0
100
AcDbLine
 10
32.3355
 20
789.21769
 30
0.0
 11
37.993500004457
 21
779.41784999228
 31
0.0
  0
LINE
  5
CD
330
1D
100
AcDbEntity
  8
0
100
AcDbLine
 10
32.3355
 20
789.21769
 30
0.0
 11
38.4855
 21
778.56569
 31
0.0
  0
LINE
  5
CE
330
1D
100
AcDbEntity
  8
0
100
AcDbLine
 10
42.3825
 20
780.81569
 30
0.0
 11
47.6825
 21
771.63569
 31
0.0
  0
LINE
  5
CF
330
1D
100
AcDbEntity
  8
0
100
AcDbLine
 10
42.2995
 20
779.95969
 30
0.0
 11
47.7495
 21
770.51969
 31
0.0
  0
LINE
  5
D0
330
1D
100
AcDbEntity
  8
0
100
AcDbLine
 10
32.9685
 20
789.12169
 30
0.0
 11
39.2685
 21
778.20969
 31
0.0
  0
LINE
  5
D1
330
1D
100
AcDbEntity
  8
0
100
AcDbLine
 10
42.4275
 20
795.73769
 30
0.0
 11
48.2275
 21
785.69169
 31
0.0
  0
LINE
  5
D2
330
1D
100
AcDbEntity
  8
0
100
AcDbLine
 10
42.1445
 20
795.22769
 30
0.0
 11
48.1945
 21
784.74869
 31
0.0
  0
LINE
  5
D3
330
1D
100
AcDbEntity
  8
0
100
AcDbLine
 10
36.2325
 20
791.46769
 30
0.0
 11
42.3825
 21
780.81569
 31
0.0
  0
LINE
  5
D4
330
1D
100
AcDbEntity
  8
0
100
AcDbLine
 10
35.9995
 20
790.87169
 30
0.0
 11
42.2995
 21
779.95969
 31
0.0
  0
LINE
  5
D5
330
1D
100
AcDbEntity
  8
0
100
AcDbLine
 10
37.993500004474
 20
779.417849992252
 30
0.0
 11
38.2355
 21
778.99869
 31
0.0
  0
LINE
  5
D6
330
1D
100
AcDbEntity
  8
0
100
AcDbLine
 10
44.7185
 20
768.76969
 30
0.0
 11
48.9685
 21
761.40869
 31
0.0
  0
LINE
  5
D7
330
1D
100
AcDbEntity
  8
0
100
AcDbLine
 10
47.6825
 20
771.63569
 30
0.0
 11
51.7825
 21
764.53469
 31
0.0
  0
LINE
  5
D8
330
1D
100
AcDbEntity
  8
0
100
AcDbLine
 10
47.7495
 20
770.51969
 30
0.0
 11
51.9995
 21
763.15869
 31
0.0
  0
LINE
  5
D9
330
1D
100
AcDbEntity
  8
0
100
AcDbLine
 10
47.2405
 20
798.40069
 30
0.0
 11
53.1405
 21
788.18169
 31
0.0
  0
LINE
  5
DA
330
1D
100
AcDbEntity
  8
0
100
AcDbLine
 10
44.9255
 20
797.41069
 30
0.0
 11
50.7255
 21
787.36469
 31
0.0
  0
LINE
  5
DB
330
1D
100
AcDbEntity
  8
0
100
AcDbLine
 10
50.7255
 20
787.36469
 30
0.0
 11
55.7255
 21
778.70469
 31
0.0
  0
LINE
  5
DC
330
1D
100
AcDbEntity
  8
0
100
AcDbLine
 10
48.2275
 20
785.69169
 30
0.0
 11
53.2775
 21
776.94469
 31
0.0
  0
LINE
  5
DD
330
1D
100
AcDbEntity
  8
0
100
AcDbLine
 10
48.1945
 20
784.74869
 30
0.0
 11
53.3945
 21
775.74169
 31
0.0
  0
LINE
  5
DE
330
1D
100
AcDbEntity
  8
0
100
AcDbLine
 10
43.4355
 20
769.99169
 30
0.0
 11
47.4355
 21
763.06369
 31
0.0
  0
LINE
  5
DF
330
1D
100
AcDbEntity
  8
0
100
AcDbLine
 10
47.4355
 20
763.06369
 30
0.0
 11
48.465210144873
 21
761.280400145023
 31
0.0
  0
LINE
  5
E0
330
1D
100
AcDbEntity
  8
0
100
AcDbLine
 10
47.4355
 20
763.06369
 30
0.0
 11
48.465210144873
 21
761.280400145022
 31
0.0
  0
LINE
  5
E1
330
1D
100
AcDbEntity
  8
0
100
AcDbLine
 10
116.6086
 20
724.25069
 30
0.0
 11
122.4256
 21
713.17569
 31
0.0
  0
LINE
  5
E2
330
1D
100
AcDbEntity
  8
0
100
AcDbLine
 10
122.4256
 20
713.17569
 30
0.0
 11
129.1086
 21
702.59969
 31
0.0
  0
LINE
  5
E3
330
1D
100
AcDbEntity
  8
0
100
AcDbLine
 10
129.1086
 20
702.59969
 30
0.0
 11
141.1587
 21
684.73069
 31
0.0
  0
LINE
  5
E4
330
1D
100
AcDbEntity
  8
0
100
AcDbLine
 10
148.8417
 20
672.42269
 30
0.0
 11
149.9576
 21
672.48969
 31
0.0
  0
LINE
  5
E6
330
1D
100
AcDbEntity
  8
0
100
AcDbLine
 10
147.8417
 20
674.15469
 30
0.0
 11
147.9086
 21
673.03869
 31
0.0
  0
LINE
  5
E7
330
1D
100
AcDbEntity
  8
0
100
AcDbLine
 10
147.8417
 20
674.15469
 30
0.0
 11
148.4576
 21
675.08769
 31
0.0
  0
LINE
  5
E9
330
1D
100
AcDbEntity
  8
0
100
AcDbLine
 10
149.7566
 20
675.83769
 30
0.0
 11
151.4016
 21
676.78769
 31
0.0
  0
LINE
  5
EA
330
1D
100
AcDbEntity
  8
0
100
AcDbLine
 10
148.8037
 20
675.28769
 30
0.0
 11
149.7566
 21
675.83769
 31
0.0
  0
LINE
  5
EB
330
1D
100
AcDbEntity
  8
0
100
AcDbLine
 10
148.4576
 20
675.08769
 30
0.0
 11
148.8037
 21
675.28769
 31
0.0
  0
LINE
  5
EC
330
1D
100
AcDbEntity
  8
0
100
AcDbLine
 10
149.3806
 20
673.88869
 30
0.0
 11
151.1987
 21
674.93869
 31
0.0
  0
LINE
  5
ED
330
1D
100
AcDbEntity
  8
0
100
AcDbLine
 10
148.3417
 20
673.28869
 30
0.0
 11
149.3806
 21
673.88869
 31
0.0
  0
LINE
  5
EE
330
1D
100
AcDbEntity
  8
0
100
AcDbLine
 10
150.3037
 20
672.68969
 30
0.0
 11
151.2566
 21
673.23969
 31
0.0
  0
LINE
  5
EF
330
1D
100
AcDbEntity
  8
0
100
AcDbLine
 10
147.9086
 20
673.03869
 30
0.0
 11
148.8417
 21
672.42269
 31
0.0
  0
LINE
  5
F0
330
1D
100
AcDbEntity
  8
0
100
AcDbLine
 10
147.9086
 20
673.03869
 30
0.0
 11
148.3417
 21
673.28869
 31
0.0
  0
LINE
  5
F1
330
1D
100
AcDbEntity
  8
0
100
AcDbLine
 10
149.9576
 20
672.48969
 30
0.0
 11
150.9576
 21
670.75769
 31
0.0
  0
LINE
  5
F2
330
1D
100
AcDbEntity
  8
0
100
AcDbLine
 10
149.9576
 20
672.48969
 30
0.0
 11
150.3037
 21
672.68969
 31
0.0
  0
LINE
  5
F3
330
1D
100
AcDbEntity
  8
0
100
AcDbLine
 10
151.2566
 20
673.23969
 30
0.0
 11
152.9016
 21
674.18969
 31
0.0
  0
LINE
  5
F4
330
1D
100
AcDbEntity
  8
0
100
AcDbLine
 10
151.4016
 20
676.78769
 30
0.0
 11
153.4807
 21
677.98769
 31
0.0
  0
LINE
  5
F5
330
1D
100
AcDbEntity
  8
0
100
AcDbLine
 10
153.4807
 20
677.98769
 30
0.0
 11
155.8186
 21
679.33769
 31
0.0
  0
LINE
  5
F6
330
1D
100
AcDbEntity
  8
0
100
AcDbLine
 10
151.1987
 20
674.93869
 30
0.0
 11
153.5376
 21
676.28869
 31
0.0
  0
LINE
  5
F7
330
1D
100
AcDbEntity
  8
0
100
AcDbLine
 10
153.5376
 20
676.28869
 30
0.0
 11
156.3086
 21
677.88869
 31
0.0
  0
LINE
  5
F8
330
1D
100
AcDbEntity
  8
0
100
AcDbLine
 10
152.9016
 20
674.18969
 30
0.0
 11
154.9807
 21
675.38969
 31
0.0
  0
LINE
  5
F9
330
1D
100
AcDbEntity
  8
0
100
AcDbLine
 10
150.9576
 20
670.75769
 30
0.0
 11
152.3906
 21
669.27569
 31
0.0
  0
LINE
  5
FA
330
1D
100
AcDbEntity
  8
0
100
AcDbLine
 10
152.3906
 20
669.27569
 30
0.0
 11
154.0066
 21
668.47669
 31
0.0
  0
LINE
  5
FB
330
1D
100
AcDbEntity
  8
0
100
AcDbLine
 10
141.1587
 20
684.73069
 30
0.0
 11
148.4576
 21
675.08769
 31
0.0
  0
LINE
  5
FC
330
1D
100
AcDbEntity
  8
0
100
AcDbLine
 10
101.3417
 20
754.69569
 30
0.0
 11
102.4576
 21
754.76269
 31
0.0
  0
LINE
  5
FE
330
1D
100
AcDbEntity
  8
0
100
AcDbLine
 10
100.8417
 20
755.56169
 30
0.0
 11
101.8807
 21
756.16169
 31
0.0
  0
LINE
  5
FF
330
1D
100
AcDbEntity
  8
0
100
AcDbLine
 10
100.4087
 20
755.31169
 30
0.0
 11
101.3417
 21
754.69569
 31
0.0
  0
LINE
  5
100
330
1D
100
AcDbEntity
  8
0
100
AcDbLine
 10
100.4087
 20
755.31169
 30
0.0
 11
100.8417
 21
755.56169
 31
0.0
  0
LINE
  5
101
330
1D
100
AcDbEntity
  8
0
100
AcDbLine
 10
141.7237
 20
738.75069
 30
0.0
 11
148.4067
 21
728.17569
 31
0.0
  0
LINE
  5
102
330
1D
100
AcDbEntity
  8
0
100
AcDbLine
 10
103.7567
 20
755.51269
 30
0.0
 11
105.4016
 21
756.46269
 31
0.0
  0
LINE
  5
103
330
1D
100
AcDbEntity
  8
0
100
AcDbLine
 10
102.8036
 20
754.96269
 30
0.0
 11
103.7567
 21
755.51269
 31
0.0
  0
LINE
  5
104
330
1D
100
AcDbEntity
  8
0
100
AcDbLine
 10
107.1587
 20
743.61969
 30
0.0
 11
116.6086
 21
724.25069
 31
0.0
  0
LINE
  5
105
330
1D
100
AcDbEntity
  8
0
100
AcDbLine
 10
102.4576
 20
754.76269
 30
0.0
 11
107.1587
 21
743.61969
 31
0.0
  0
LINE
  5
106
330
1D
100
AcDbEntity
  8
0
100
AcDbLine
 10
102.4576
 20
754.76269
 30
0.0
 11
102.8036
 21
754.96269
 31
0.0
  0
LINE
  5
107
330
1D
100
AcDbEntity
  8
0
100
AcDbLine
 10
148.4067
 20
728.17569
 30
0.0
 11
154.2237
 21
717.09969
 31
0.0
  0
LINE
  5
108
330
1D
100
AcDbEntity
  8
0
100
AcDbLine
 10
156.1616
 20
669.14369
 30
0.0
 11
159.0196
 21
670.79369
 31
0.0
  0
LINE
  5
109
330
1D
100
AcDbEntity
  8
0
100
AcDbLine
 10
154.9807
 20
675.38969
 30
0.0
 11
157.3186
 21
676.73969
 31
0.0
  0
LINE
  5
10A
330
1D
100
AcDbEntity
  8
0
100
AcDbLine
 10
155.8186
 20
679.33769
 30
0.0
 11
158.4167
 21
680.83769
 31
0.0
  0
LINE
  5
10C
330
1D
100
AcDbEntity
  8
0
100
AcDbLine
 10
156.3086
 20
677.88869
 30
0.0
 11
159.1667
 21
679.53869
 31
0.0
  0
LINE
  5
10E
330
1D
100
AcDbEntity
  8
0
100
AcDbLine
 10
157.3186
 20
676.73969
 30
0.0
 11
159.9167
 21
678.23969
 31
0.0
  0
LINE
  5
10F
330
1D
100
AcDbEntity
  8
0
100
AcDbLine
 10
154.2237
 20
717.09969
 30
0.0
 11
163.6747
 21
697.73069
 31
0.0
  0
LINE
  5
110
330
1D
100
AcDbEntity
  8
0
100
AcDbLine
 10
101.8807
 20
756.16169
 30
0.0
 11
103.6987
 21
757.21169
 31
0.0
  0
LINE
  5
111
330
1D
100
AcDbEntity
  8
0
100
AcDbLine
 10
54.4505
 20
755.91269
 30
0.0
 11
55.4995
 21
757.09569
 31
0.0
  0
LINE
  5
112
330
1D
100
AcDbEntity
  8
0
100
AcDbLine
 10
54.0175
 20
755.66269
 30
0.0
 11
54.4505
 21
755.91269
 31
0.0
  0
LINE
  5
113
330
1D
100
AcDbEntity
  8
0
100
AcDbLine
 10
52.4685
 20
755.34569
 30
0.0
 11
54.0175
 21
755.66269
 31
0.0
  0
LINE
  5
114
330
1D
100
AcDbEntity
  8
0
100
AcDbLine
 10
51.7825
 20
764.53469
 30
0.0
 11
54.2825
 21
760.20469
 31
0.0
  0
LINE
  5
115
330
1D
100
AcDbEntity
  8
0
100
AcDbLine
 10
53.2775
 20
776.94469
 30
0.0
 11
57.1775
 21
770.18969
 31
0.0
  0
LINE
  5
116
330
1D
100
AcDbEntity
  8
0
100
AcDbLine
 10
53.3945
 20
775.74169
 30
0.0
 11
57.3945
 21
768.81369
 31
0.0
  0
LINE
  5
117
330
1D
100
AcDbEntity
  8
0
100
AcDbLine
 10
54.2825
 20
760.20469
 30
0.0
 11
55.1825
 21
758.64469
 31
0.0
  0
LINE
  5
118
330
1D
100
AcDbEntity
  8
0
100
AcDbLine
 10
51.9995
 20
763.15869
 30
0.0
 11
54.5495
 21
758.74169
 31
0.0
  0
LINE
  5
119
330
1D
100
AcDbEntity
  8
0
100
AcDbLine
 10
54.5495
 20
758.74169
 30
0.0
 11
55.4995
 21
757.09569
 31
0.0
  0
LINE
  5
11A
330
1D
100
AcDbEntity
  8
0
100
AcDbLine
 10
51.5185
 20
756.99169
 30
0.0
 11
52.4685
 21
755.34569
 31
0.0
  0
LINE
  5
11B
330
1D
100
AcDbEntity
  8
0
100
AcDbLine
 10
53.1405
 20
788.18169
 30
0.0
 11
58.2405
 21
779.34769
 31
0.0
  0
LINE
  5
11C
330
1D
100
AcDbEntity
  8
0
100
AcDbLine
 10
101.3036
 20
757.56069
 30
0.0
 11
102.2567
 21
758.11069
 31
0.0
  0
LINE
  5
11D
330
1D
100
AcDbEntity
  8
0
100
AcDbLine
 10
100.9576
 20
757.36069
 30
0.0
 11
101.3036
 21
757.56069
 31
0.0
  0
LINE
  5
11E
330
1D
100
AcDbEntity
  8
0
100
AcDbLine
 10
103.6987
 20
757.21169
 30
0.0
 11
106.0376
 21
758.56169
 31
0.0
  0
LINE
  5
11F
330
1D
100
AcDbEntity
  8
0
100
AcDbLine
 10
105.4016
 20
756.46269
 30
0.0
 11
107.4797
 21
757.66269
 31
0.0
  0
LINE
  5
120
330
1D
100
AcDbEntity
  8
0
100
AcDbLine
 10
102.2567
 20
758.11069
 30
0.0
 11
103.9016
 21
759.06069
 31
0.0
  0
LINE
  5
121
330
1D
100
AcDbEntity
  8
0
100
AcDbLine
 10
103.9016
 20
759.06069
 30
0.0
 11
105.9797
 21
760.26069
 31
0.0
  0
LINE
  5
123
330
1D
100
AcDbEntity
  8
0
100
AcDbLine
 10
106.0376
 20
758.56169
 30
0.0
 11
108.8087
 21
760.16169
 31
0.0
  0
LINE
  5
124
330
1D
100
AcDbEntity
  8
0
100
AcDbLine
 10
108.8087
 20
760.16169
 30
0.0
 11
111.6666
 21
761.81169
 31
0.0
  0
LINE
  5
125
330
1D
100
AcDbEntity
  8
0
100
AcDbLine
 10
105.9797
 20
760.26069
 30
0.0
 11
108.3186
 21
761.61069
 31
0.0
  0
LINE
  5
126
330
1D
100
AcDbEntity
  8
0
100
AcDbLine
 10
107.4797
 20
757.66269
 30
0.0
 11
109.8186
 21
759.01269
 31
0.0
  0
LINE
  5
128
330
1D
100
AcDbEntity
  8
0
100
AcDbLine
 10
112.4166
 20
760.51269
 30
0.0
 11
115.0147
 21
762.01269
 31
0.0
  0
LINE
  5
129
330
1D
100
AcDbEntity
  8
0
100
AcDbLine
 10
109.8186
 20
759.01269
 30
0.0
 11
112.4166
 21
760.51269
 31
0.0
  0
LINE
  5
12A
330
1D
100
AcDbEntity
  8
0
100
AcDbLine
 10
100.3417
 20
756.42769
 30
0.0
 11
100.9576
 21
757.36069
 31
0.0
  0
LINE
  5
12B
330
1D
100
AcDbEntity
  8
0
100
AcDbLine
 10
100.3417
 20
756.42769
 30
0.0
 11
100.4087
 21
755.31169
 31
0.0
  0
LINE
  5
12D
330
1D
100
AcDbEntity
  8
0
100
AcDbLine
 10
99.9576
 20
759.09269
 30
0.0
 11
100.9576
 21
757.36069
 31
0.0
  0
LINE
  5
12E
330
1D
100
AcDbEntity
  8
0
100
AcDbLine
 10
111.6666
 20
761.81169
 30
0.0
 11
114.5246
 21
763.46169
 31
0.0
  0
LINE
  5
130
330
1D
100
AcDbEntity
  8
0
100
AcDbLine
 10
108.3186
 20
761.61069
 30
0.0
 11
110.9166
 21
763.11069
 31
0.0
  0
LINE
  5
131
330
1D
100
AcDbEntity
  8
0
100
AcDbLine
 10
99.3902
 20
761.07469
 30
0.0
 11
99.5062
 21
762.87369
 31
0.0
  0
LINE
  5
132
330
1D
100
AcDbEntity
  8
0
100
AcDbLine
 10
99.3902
 20
761.07469
 30
0.0
 11
99.9576
 21
759.09269
 31
0.0
  0
LINE
  5
133
330
1D
100
AcDbEntity
  8
0
100
AcDbLine
 10
129.6747
 20
756.61969
 30
0.0
 11
141.7237
 21
738.75069
 31
0.0
  0
LINE
  5
134
330
1D
100
AcDbEntity
  8
0
100
AcDbLine
 10
59.5275
 20
766.11969
 30
0.0
 11
60.4275
 21
764.56069
 31
0.0
  0
LINE
  5
135
330
1D
100
AcDbEntity
  8
0
100
AcDbLine
 10
57.3945
 20
768.81369
 30
0.0
 11
59.8445
 21
764.57069
 31
0.0
  0
LINE
  5
136
330
1D
100
AcDbEntity
  8
0
100
AcDbLine
 10
59.8445
 20
764.57069
 30
0.0
 11
60.7445
 21
763.01169
 31
0.0
  0
LINE
  5
137
330
1D
100
AcDbEntity
  8
0
100
AcDbLine
 10
58.2405
 20
779.34769
 30
0.0
 11
62.1405
 21
772.59269
 31
0.0
  0
LINE
  5
138
330
1D
100
AcDbEntity
  8
0
100
AcDbLine
 10
55.7255
 20
778.70469
 30
0.0
 11
59.5755
 21
772.03569
 31
0.0
  0
LINE
  5
139
330
1D
100
AcDbEntity
  8
0
100
AcDbLine
 10
59.5755
 20
772.03569
 30
0.0
 11
61.9255
 21
767.96569
 31
0.0
  0
LINE
  5
13A
330
1D
100
AcDbEntity
  8
0
100
AcDbLine
 10
57.1775
 20
770.18969
 30
0.0
 11
59.5275
 21
766.11969
 31
0.0
  0
LINE
  5
13B
330
1D
100
AcDbEntity
  8
0
100
AcDbLine
 10
99.5062
 20
762.87369
 30
0.0
 11
100.1226
 21
763.80669
 31
0.0
  0
LINE
  5
13C
330
1D
100
AcDbEntity
  8
0
100
AcDbLine
 10
114.5246
 20
763.46169
 30
0.0
 11
117.2956
 21
765.06169
 31
0.0
  0
LINE
  5
140
330
1D
100
AcDbEntity
  8
0
100
AcDbLine
 10
117.3527
 20
763.36269
 30
0.0
 11
119.4317
 21
764.56269
 31
0.0
  0
LINE
  5
141
330
1D
100
AcDbEntity
  8
0
100
AcDbLine
 10
115.0147
 20
762.01269
 30
0.0
 11
117.3527
 21
763.36269
 31
0.0
  0
LINE
  5
142
330
1D
100
AcDbEntity
  8
0
100
AcDbLine
 10
117.2956
 20
765.06169
 30
0.0
 11
119.6336
 21
766.41169
 31
0.0
  0
LINE
  5
147
330
1D
100
AcDbEntity
  8
0
100
AcDbLine
 10
119.4317
 20
764.56269
 30
0.0
 11
121.0767
 21
765.51269
 31
0.0
  0
LINE
  5
148
330
1D
100
AcDbEntity
  8
0
100
AcDbLine
 10
121.0767
 20
765.51269
 30
0.0
 11
122.0296
 21
766.06269
 31
0.0
  0
LINE
  5
14B
330
1D
100
AcDbEntity
  8
0
100
AcDbLine
 10
100.1226
 20
763.80669
 30
0.0
 11
115.4507
 21
772.65669
 31
0.0
  0
LINE
  5
14C
330
1D
100
AcDbEntity
  8
0
100
AcDbLine
 10
115.8527
 20
765.96069
 30
0.0
 11
117.9317
 21
767.16069
 31
0.0
  0
LINE
  5
14D
330
1D
100
AcDbEntity
  8
0
100
AcDbLine
 10
119.6336
 20
766.41169
 30
0.0
 11
121.4527
 21
767.46169
 31
0.0
  0
LINE
  5
150
330
1D
100
AcDbEntity
  8
0
100
AcDbLine
 10
122.0296
 20
766.06269
 30
0.0
 11
122.3757
 21
766.26269
 31
0.0
  0
LINE
  5
151
330
1D
100
AcDbEntity
  8
0
100
AcDbLine
 10
122.3757
 20
766.26269
 30
0.0
 11
129.6747
 21
756.61969
 31
0.0
  0
LINE
  5
152
330
1D
100
AcDbEntity
  8
0
100
AcDbLine
 10
122.3757
 20
766.26269
 30
0.0
 11
122.9917
 21
767.19569
 31
0.0
  0
LINE
  5
153
330
1D
100
AcDbEntity
  8
0
100
AcDbLine
 10
62.1405
 20
772.59269
 30
0.0
 11
64.5405
 21
768.43669
 31
0.0
  0
LINE
  5
154
330
1D
100
AcDbEntity
  8
0
100
AcDbLine
 10
63.5335
 20
791.17969
 30
0.0
 11
70.3015
 21
775.45769
 31
0.0
  0
LINE
  5
155
330
1D
100
AcDbEntity
  8
0
100
AcDbLine
 10
64.5405
 20
768.43669
 30
0.0
 11
65.4405
 21
766.87769
 31
0.0
  0
LINE
  5
156
330
1D
100
AcDbEntity
  8
0
100
AcDbLine
 10
117.9317
 20
767.16069
 30
0.0
 11
119.5767
 21
768.11069
 31
0.0
  0
LINE
  5
157
330
1D
100
AcDbEntity
  8
0
100
AcDbLine
 10
119.5767
 20
768.11069
 30
0.0
 11
120.5296
 21
768.66069
 31
0.0
  0
LINE
  5
15A
330
1D
100
AcDbEntity
  8
0
100
AcDbLine
 10
120.5296
 20
768.66069
 30
0.0
 11
120.8757
 21
768.86069
 31
0.0
  0
LINE
  5
15D
330
1D
100
AcDbEntity
  8
0
100
AcDbLine
 10
121.4527
 20
767.46169
 30
0.0
 11
122.4917
 21
768.06169
 31
0.0
  0
LINE
  5
15F
330
1D
100
AcDbEntity
  8
0
100
AcDbLine
 10
122.9247
 20
768.31169
 30
0.0
 11
122.9917
 21
767.19569
 31
0.0
  0
LINE
  5
160
330
1D
100
AcDbEntity
  8
0
100
AcDbLine
 10
121.9917
 20
768.92769
 30
0.0
 11
122.9247
 21
768.31169
 31
0.0
  0
LINE
  5
161
330
1D
100
AcDbEntity
  8
0
100
AcDbLine
 10
122.4917
 20
768.06169
 30
0.0
 11
122.9247
 21
768.31169
 31
0.0
  0
LINE
  5
162
330
1D
100
AcDbEntity
  8
0
100
AcDbLine
 10
120.8757
 20
768.86069
 30
0.0
 11
121.9917
 21
768.92769
 31
0.0
  0
LINE
  5
169
330
1D
100
AcDbEntity
  8
0
100
AcDbLine
 10
119.8757
 20
770.59269
 30
0.0
 11
120.8757
 21
768.86069
 31
0.0
  0
LINE
  5
16B
330
1D
100
AcDbEntity
  8
0
100
AcDbLine
 10
118.4427
 20
772.07469
 30
0.0
 11
119.8757
 21
770.59269
 31
0.0
  0
LINE
  5
16E
330
1D
100
AcDbEntity
  8
0
100
AcDbLine
 10
116.8267
 20
772.87369
 30
0.0
 11
118.4427
 21
772.07469
 31
0.0
  0
LINE
  5
16F
330
1D
100
AcDbEntity
  8
0
100
AcDbLine
 10
115.7106
 20
772.80669
 30
0.0
 11
116.8267
 21
772.87369
 31
0.0
  0
LINE
  5
170
330
1D
100
AcDbEntity
  8
0
100
AcDbLine
 10
115.4507
 20
772.65669
 30
0.0
 11
115.7106
 21
772.80669
 31
0.0
  0
LINE
  5
171
330
1D
100
AcDbEntity
  8
0
100
AcDbLine
 10
70.3015
 20
775.45769
 30
0.0
 11
70.6185
 21
773.90869
 31
0.0
  0
LINE
  5
172
330
1D
100
AcDbEntity
  8
0
100
AcDbLine
 10
70.2525
 20
772.54269
 30
0.0
 11
70.6185
 21
773.90869
 31
0.0
  0
LINE
  5
173
330
1D
100
AcDbEntity
  8
0
100
AcDbLine
 10
69.2035
 20
771.35969
 30
0.0
 11
70.2525
 21
772.54269
 31
0.0
  0
LINE
  5
174
330
1D
100
AcDbEntity
  8
0
100
AcDbLine
 10
67.2885
 20
769.67669
 30
0.0
 11
69.2035
 21
771.35969
 31
0.0
  0
LINE
  5
175
330
1D
100
AcDbEntity
  8
0
100
AcDbLine
 10
66.4895
 20
768.06069
 30
0.0
 11
67.2885
 21
769.67669
 31
0.0
  0
LINE
  5
176
330
1D
100
AcDbEntity
  8
0
100
AcDbLine
 10
65.4405
 20
766.87769
 30
0.0
 11
66.4895
 21
768.06069
 31
0.0
  0
LINE
  5
177
330
1D
100
AcDbEntity
  8
0
100
AcDbLine
 10
63.8915
 20
766.56069
 30
0.0
 11
65.4405
 21
766.87769
 31
0.0
  0
LINE
  5
178
330
1D
100
AcDbEntity
  8
0
100
AcDbLine
 10
62.7755
 20
766.49369
 30
0.0
 11
63.8915
 21
766.56069
 31
0.0
  0
LINE
  5
179
330
1D
100
AcDbEntity
  8
0
100
AcDbLine
 10
61.9255
 20
767.96569
 30
0.0
 11
62.7755
 21
766.49369
 31
0.0
  0
LINE
  5
17A
330
1D
100
AcDbEntity
  8
0
100
AcDbLine
 10
62.1595
 20
765.56069
 30
0.0
 11
62.7755
 21
766.49369
 31
0.0
  0
LINE
  5
17B
330
1D
100
AcDbEntity
  8
0
100
AcDbLine
 10
60.4275
 20
764.56069
 30
0.0
 11
60.7445
 21
763.01169
 31
0.0
  0
LINE
  5
17C
330
1D
100
AcDbEntity
  8
0
100
AcDbLine
 10
60.4275
 20
764.56069
 30
0.0
 11
62.1595
 21
765.56069
 31
0.0
  0
LINE
  5
17D
330
1D
100
AcDbEntity
  8
0
100
AcDbLine
 10
59.6955
 20
761.82869
 30
0.0
 11
60.7445
 21
763.01169
 31
0.0
  0
LINE
  5
17E
330
1D
100
AcDbEntity
  8
0
100
AcDbLine
 10
55.1825
 20
758.64469
 30
0.0
 11
55.4995
 21
757.09569
 31
0.0
  0
LINE
  5
17F
330
1D
100
AcDbEntity
  8
0
100
AcDbLine
 10
55.1825
 20
758.64469
 30
0.0
 11
59.6955
 21
761.82869
 31
0.0
  0
LINE
  5
180
330
1D
100
AcDbEntity
  8
0
100
AcDbLine
 10
51.2855
 20
756.39469
 30
0.0
 11
52.4685
 21
755.34569
 31
0.0
  0
LINE
  5
181
330
1D
100
AcDbEntity
  8
0
100
AcDbLine
 10
155.878
 20
668.76269
 30
0.0
 11
157.948453688643
 21
669.957819462117
 31
0.0
  0
LINE
  5
182
330
1D
100
AcDbEntity
  8
0
100
AcDbLine
 10
159.0196
 20
670.79369
 30
0.0
 11
160.9247
 21
671.89369
 31
0.0
  0
LINE
  5
183
330
1D
100
AcDbEntity
  8
0
100
AcDbLine
 10
162.9166
 20
673.04369
 30
0.0
 11
164.9086
 21
674.19369
 31
0.0
  0
LINE
  5
184
330
1D
100
AcDbEntity
  8
0
100
AcDbLine
 10
160.9247
 20
671.89369
 30
0.0
 11
162.9166
 21
673.04369
 31
0.0
  0
LINE
  5
185
330
1D
100
AcDbEntity
  8
0
100
AcDbLine
 10
163.309853003074
 20
673.052709065901
 30
0.0
 11
165.1793
 21
674.13269
 31
0.0
  0
LINE
  5
187
330
1D
100
AcDbEntity
  8
0
100
AcDbLine
 10
159.1667
 20
679.53869
 30
0.0
 11
162.0247
 21
681.18869
 31
0.0
  0
LINE
  5
189
330
1D
100
AcDbEntity
  8
0
100
AcDbLine
 10
162.0247
 20
681.18869
 30
0.0
 11
164.7956
 21
682.78869
 31
0.0
  0
LINE
  5
18A
330
1D
100
AcDbEntity
  8
0
100
AcDbLine
 10
162.5146
 20
679.73969
 30
0.0
 11
164.8526
 21
681.08969
 31
0.0
  0
LINE
  5
18B
330
1D
100
AcDbEntity
  8
0
100
AcDbLine
 10
159.9167
 20
678.23969
 30
0.0
 11
162.5146
 21
679.73969
 31
0.0
  0
LINE
  5
18C
330
1D
100
AcDbEntity
  8
0
100
AcDbLine
 10
163.3526
 20
683.68769
 30
0.0
 11
165.4317
 21
684.88769
 31
0.0
  0
LINE
  5
18D
330
1D
100
AcDbEntity
  8
0
100
AcDbLine
 10
161.0147
 20
682.33769
 30
0.0
 11
163.3526
 21
683.68769
 31
0.0
  0
LINE
  5
18E
330
1D
100
AcDbEntity
  8
0
100
AcDbLine
 10
158.4167
 20
680.83769
 30
0.0
 11
161.0147
 21
682.33769
 31
0.0
  0
LINE
  5
18F
330
1D
100
AcDbEntity
  8
0
100
AcDbLine
 10
163.309853003074
 20
673.052709065901
 30
0.0
 11
165.1793
 21
674.13269
 31
0.0
  0
LINE
  5
190
330
1D
100
AcDbEntity
  8
0
100
AcDbLine
 10
164.9086
 20
674.19369
 30
0.0
 11
166.8137
 21
675.29369
 31
0.0
  0
LINE
  5
191
330
1D
100
AcDbEntity
  8
0
100
AcDbLine
 10
165.1793
 20
674.13269
 30
0.0
 11
166.170372414885
 21
674.704587197702
 31
0.0
  0
LINE
  5
192
330
1D
100
AcDbEntity
  8
0
100
AcDbLine
 10
165.1793
 20
674.13269
 30
0.0
 11
166.170372414885
 21
674.704587197702
 31
0.0
  0
LINE
  5
193
330
1D
100
AcDbEntity
  8
0
100
AcDbLine
 10
164.7956
 20
682.78869
 30
0.0
 11
167.1336
 21
684.13869
 31
0.0
  0
LINE
  5
194
330
1D
100
AcDbEntity
  8
0
100
AcDbLine
 10
164.8526
 20
681.08969
 30
0.0
 11
166.9317
 21
682.28969
 31
0.0
  0
LINE
  5
195
330
1D
100
AcDbEntity
  8
0
100
AcDbLine
 10
166.677621428531
 20
675.215118571405
 30
0.0
 11
167.7667
 21
675.84369
 31
0.0
  0
LINE
  5
196
330
1D
100
AcDbEntity
  8
0
100
AcDbLine
 10
166.677621428531
 20
675.215118571405
 30
0.0
 11
167.7667
 21
675.84369
 31
0.0
  0
LINE
  5
197
330
1D
100
AcDbEntity
  8
0
100
AcDbLine
 10
167.1336
 20
684.13869
 30
0.0
 11
168.95265
 21
685.18869
 31
0.0
  0
LINE
  5
198
330
1D
100
AcDbEntity
  8
0
100
AcDbLine
 10
166.9317
 20
682.28969
 30
0.0
 11
168.57665
 21
683.23969
 31
0.0
  0
LINE
  5
199
330
1D
100
AcDbEntity
  8
0
100
AcDbLine
 10
165.4317
 20
684.88769
 30
0.0
 11
167.0766
 21
685.83769
 31
0.0
  0
LINE
  5
19A
330
1D
100
AcDbEntity
  8
0
100
AcDbLine
 10
167.0766
 20
685.83769
 30
0.0
 11
168.0296
 21
686.38769
 31
0.0
  0
LINE
  5
19B
330
1D
100
AcDbEntity
  8
0
100
AcDbLine
 10
168.0296
 20
686.38769
 30
0.0
 11
168.37565
 21
686.58769
 31
0.0
  0
LINE
  5
19C
330
1D
100
AcDbEntity
  8
0
100
AcDbLine
 10
167.7667
 20
675.84369
 30
0.0
 11
170.71065
 21
677.54369
 31
0.0
  0
LINE
  5
19D
330
1D
100
AcDbEntity
  8
0
100
AcDbLine
 10
163.6747
 20
697.73069
 30
0.0
 11
168.37565
 21
686.58769
 31
0.0
  0
LINE
  5
19E
330
1D
100
AcDbEntity
  8
0
100
AcDbLine
 10
168.57665
 20
683.23969
 30
0.0
 11
169.52965
 21
683.78969
 31
0.0
  0
LINE
  5
19F
330
1D
100
AcDbEntity
  8
0
100
AcDbLine
 10
168.37565
 20
686.58769
 30
0.0
 11
169.49165
 21
686.65469
 31
0.0
  0
LINE
  5
1A0
330
1D
100
AcDbEntity
  8
0
100
AcDbLine
 10
166.4476
 20
674.86469
 30
0.0
 11
168.9776
 21
676.32569
 31
0.0
  0
LINE
  5
1A1
330
1D
100
AcDbEntity
  8
0
100
AcDbLine
 10
163.5836
 20
673.21069
 30
0.0
 11
166.4476
 21
674.86469
 31
0.0
  0
LINE
  5
1A2
330
1D
100
AcDbEntity
  8
0
100
AcDbLine
 10
160.5287
 20
671.44769
 30
0.0
 11
163.5836
 21
673.21069
 31
0.0
  0
LINE
  5
1A3
330
1D
100
AcDbEntity
  8
0
100
AcDbLine
 10
157.4737
 20
669.68369
 30
0.0
 11
160.5287
 21
671.44769
 31
0.0
  0
LINE
  5
1A4
330
1D
100
AcDbEntity
  8
0
100
AcDbLine
 10
155.468130007547
 20
668.7436111582
 30
0.0
 11
155.541912108999
 21
668.568485451219
 31
0.0
  0
LINE
  5
1A5
330
1D
100
AcDbEntity
  8
0
100
AcDbLine
 10
168.63032206718
 20
676.342693816762
 30
0.0
 11
168.720337817402
 21
676.394705228509
 31
0.0
  0
LINE
  5
1A6
330
1D
100
AcDbEntity
  8
0
100
AcDbLine
 10
168.9776
 20
676.32569
 30
0.0
 11
170.8869
 21
677.42769
 31
0.0
  0
LINE
  5
1A7
330
1D
100
AcDbEntity
  8
0
100
AcDbLine
 10
169.67165
 20
676.94369
 30
0.0
 11
170.45065
 21
677.39369
 31
0.0
  0
LINE
  5
1A8
330
1D
100
AcDbEntity
  8
0
100
AcDbLine
 10
169.52965
 20
683.78969
 30
0.0
 11
169.87565
 21
683.98969
 31
0.0
  0
LINE
  5
1A9
330
1D
100
AcDbEntity
  8
0
100
AcDbLine
 10
168.95265
 20
685.18869
 30
0.0
 11
169.99165
 21
685.78869
 31
0.0
  0
LINE
  5
1AB
330
1D
100
AcDbEntity
  8
0
100
AcDbLine
 10
169.99165
 20
685.78869
 30
0.0
 11
170.42465
 21
686.03869
 31
0.0
  0
LINE
  5
1AD
330
1D
100
AcDbEntity
  8
0
100
AcDbLine
 10
169.49165
 20
686.65469
 30
0.0
 11
170.42465
 21
686.03869
 31
0.0
  0
LINE
  5
1AE
330
1D
100
AcDbEntity
  8
0
100
AcDbLine
 10
170.42465
 20
686.03869
 30
0.0
 11
170.49165
 21
684.92269
 31
0.0
  0
LINE
  5
1AF
330
1D
100
AcDbEntity
  8
0
100
AcDbLine
 10
169.87565
 20
683.98969
 30
0.0
 11
170.87565
 21
682.25769
 31
0.0
  0
LINE
  5
1B0
330
1D
100
AcDbEntity
  8
0
100
AcDbLine
 10
169.87565
 20
683.98969
 30
0.0
 11
170.49165
 21
684.92269
 31
0.0
  0
LINE
  5
1B1
330
1D
100
AcDbEntity
  8
0
100
AcDbLine
 10
170.87565
 20
682.25769
 30
0.0
 11
171.44265
 21
680.27569
 31
0.0
  0
LINE
  5
1B2
330
1D
100
AcDbEntity
  8
0
100
AcDbLine
 10
170.71065
 20
677.54369
 30
0.0
 11
171.32665
 21
678.47669
 31
0.0
  0
LINE
  5
1B3
330
1D
100
AcDbEntity
  8
0
100
AcDbLine
 10
169.844677789696
 20
677.043641868246
 30
0.0
 11
169.938865696423
 21
676.880508413795
 31
0.0
  0
LINE
  5
1B4
330
1D
100
AcDbEntity
  8
0
100
AcDbLine
 10
169.844677789696
 20
677.043641868246
 30
0.0
 11
170.45065
 21
677.39369
 31
0.0
  0
LINE
  5
1B5
330
1D
100
AcDbEntity
  8
0
100
AcDbLine
 10
172.0325
 20
678.08869
 30
0.0
 11
172.4621
 21
678.33669
 31
0.0
  0
LINE
  5
1B6
330
1D
100
AcDbEntity
  8
0
100
AcDbLine
 10
171.32665
 20
678.47669
 30
0.0
 11
171.44265
 21
680.27569
 31
0.0
  0
LINE
  5
1B7
330
1D
100
AcDbEntity
  8
0
100
AcDbLine
 10
172.4621
 20
678.33669
 30
0.0
 11
194.4621
 21
640.23169
 31
0.0
  0
LINE
  5
1B8
330
1D
100
AcDbEntity
  8
0
100
AcDbLine
 10
170.8869
 20
677.42769
 30
0.0
 11
172.0325
 21
678.08869
 31
0.0
  0
LINE
  5
1B9
330
1D
100
AcDbEntity
  8
0
100
AcDbLine
 10
169.938865696423
 20
676.880508413795
 30
0.0
 11
170.8869
 21
677.42769
 31
0.0
  0
LINE
  5
1BA
330
1D
100
AcDbEntity
  8
0
100
AcDbLine
 10
155.354919370358
 20
668.678231929524
 30
0.0
 11
155.429773074728
 21
668.503687191197
 31
0.0
  0
LINE
  5
1BB
330
1D
100
AcDbEntity
  8
0
100
AcDbLine
 10
202.7588
 20
525.32069
 30
0.0
 11
203.0668
 21
4.34921
 31
0.0
  0
LINE
  5
1BC
330
1D
100
AcDbEntity
  8
0
100
AcDbLine
 10
202.7588
 20
525.32069
 30
0.0
 11
203.0668
 21
4.34921
 31
0.0
  0
LINE
  5
1BD
330
1D
100
AcDbEntity
  8
0
100
AcDbLine
 10
186.75882
 20
525.31669
 30
0.0
 11
187.16082
 21
3.41181
 31
0.0
  0
LINE
  5
1BE
330
1D
100
AcDbEntity
  8
0
100
AcDbLine
 10
186.75882
 20
525.31669
 30
0.0
 11
187.16082
 21
3.41181
 31
0.0
  0
LINE
  5
1BF
330
1D
100
AcDbEntity
  8
0
100
AcDbLine
 10
183.944157492883
 20
608.659514812158
 30
0.0
 11
184.609
 21
610.22669
 31
0.0
  0
LINE
  5
1C0
330
1D
100
AcDbEntity
  8
0
100
AcDbLine
 10
187.1092
 20
610.44769
 30
0.0
 11
188.4904
 21
612.27569
 31
0.0
  0
LINE
  5
1C1
330
1D
100
AcDbEntity
  8
0
100
AcDbLine
 10
188.4904
 20
612.27569
 30
0.0
 11
190.423
 21
614.12569
 31
0.0
  0
LINE
  5
1C2
330
1D
100
AcDbEntity
  8
0
100
AcDbLine
 10
184.609
 20
610.22669
 30
0.0
 11
186.3446
 21
613.06369
 31
0.0
  0
LINE
  5
1C3
330
1D
100
AcDbEntity
  8
0
100
AcDbLine
 10
190.423
 20
614.12569
 30
0.0
 11
192.6645
 21
615.78669
 31
0.0
  0
LINE
  5
1C4
330
1D
100
AcDbEntity
  8
0
100
AcDbLine
 10
186.3446
 20
613.06369
 30
0.0
 11
188.7169
 21
615.56869
 31
0.0
  0
LINE
  5
1C5
330
1D
100
AcDbEntity
  8
0
100
AcDbLine
 10
184.218596129788
 20
608.732003407259
 30
0.0
 11
187.1092
 21
610.44769
 31
0.0
  0
LINE
  5
1C6
330
1D
100
AcDbEntity
  8
0
100
AcDbLine
 10
184.95782
 20
556.91769
 30
0.0
 11
186.75882
 21
525.31669
 31
0.0
  0
LINE
  5
1C7
330
1D
100
AcDbEntity
  8
0
100
AcDbLine
 10
200.7588
 20
559.72169
 30
0.0
 11
202.7588
 21
525.32069
 31
0.0
  0
LINE
  5
1C9
330
1D
100
AcDbEntity
  8
0
100
AcDbLine
 10
194.21958088987
 20
598.258444458816
 30
0.0
 11
197.2141
 21
598.69069
 31
0.0
  0
LINE
  5
1CA
330
1D
100
AcDbEntity
  8
0
100
AcDbLine
 10
192.840855190956
 20
605.124228101038
 30
0.0
 11
195.065
 21
606.08569
 31
0.0
  0
LINE
  5
1CB
330
1D
100
AcDbEntity
  8
0
100
AcDbLine
 10
195.065
 20
606.08569
 30
0.0
 11
197.5287
 21
607.36169
 31
0.0
  0
LINE
  5
1CC
330
1D
100
AcDbEntity
  8
0
100
AcDbLine
 10
202.5315
 20
598.93089
 30
0.0
 11
202.7035
 21
598.99969
 31
0.0
  0
LINE
  5
1CD
330
1D
100
AcDbEntity
  8
0
100
AcDbLine
 10
201.9557
 20
610.43369
 30
0.0
 11
203.6737
 21
612.04869
 31
0.0
  0
LINE
  5
1CE
330
1D
100
AcDbEntity
  8
0
100
AcDbLine
 10
199.8657
 20
608.85669
 30
0.0
 11
201.9557
 21
610.43369
 31
0.0
  0
LINE
  5
1CF
330
1D
100
AcDbEntity
  8
0
100
AcDbLine
 10
197.5287
 20
607.36169
 30
0.0
 11
199.8657
 21
608.85669
 31
0.0
  0
LINE
  5
1D0
330
1D
100
AcDbEntity
  8
0
100
AcDbLine
 10
201.5287
 20
600.43369
 30
0.0
 11
205.1954
 21
603.29869
 31
0.0
  0
LINE
  5
1D1
330
1D
100
AcDbEntity
  8
0
100
AcDbLine
 10
201.5287
 20
600.43369
 30
0.0
 11
205.1953
 21
603.29869
 31
0.0
  0
LINE
  5
1D2
330
1D
100
AcDbEntity
  8
0
100
AcDbLine
 10
197.2141
 20
598.69069
 30
0.0
 11
201.5287
 21
600.43369
 31
0.0
  0
LINE
  5
1D3
330
1D
100
AcDbEntity
  8
0
100
AcDbLine
 10
197.0588
 20
584.11969
 30
0.0
 11
200.7588
 21
559.72169
 31
0.0
  0
LINE
  5
1D4
330
1D
100
AcDbEntity
  8
0
100
AcDbLine
 10
191.9588
 20
609.51669
 30
0.0
 11
197.0588
 21
584.11969
 31
0.0
  0
LINE
  5
1D5
330
1D
100
AcDbEntity
  8
0
100
AcDbLine
 10
188.7169
 20
615.56869
 30
0.0
 11
191.5287
 21
617.75369
 31
0.0
  0
LINE
  5
1D8
330
1D
100
AcDbEntity
  8
0
100
AcDbLine
 10
202.497
 20
617.55169
 30
0.0
 11
204.0482
 21
616.94369
 31
0.0
  0
LINE
  5
1D9
330
1D
100
AcDbEntity
  8
0
100
AcDbLine
 10
200.3457
 20
617.81269
 30
0.0
 11
202.497
 21
617.55169
 31
0.0
  0
LINE
  5
1DA
330
1D
100
AcDbEntity
  8
0
100
AcDbLine
 10
197.8192
 20
617.59869
 30
0.0
 11
200.3457
 21
617.81269
 31
0.0
  0
LINE
  5
1DB
330
1D
100
AcDbEntity
  8
0
100
AcDbLine
 10
195.2096
 20
616.92169
 30
0.0
 11
197.8192
 21
617.59869
 31
0.0
  0
LINE
  5
1DC
330
1D
100
AcDbEntity
  8
0
100
AcDbLine
 10
192.6645
 20
615.78669
 30
0.0
 11
195.2096
 21
616.92169
 31
0.0
  0
LINE
  5
1DD
330
1D
100
AcDbEntity
  8
0
100
AcDbLine
 10
201.4827
 20
620.02469
 30
0.0
 11
204.29
 21
619.57169
 31
0.0
  0
LINE
  5
1DE
330
1D
100
AcDbEntity
  8
0
100
AcDbLine
 10
198.0772
 20
620.08069
 30
0.0
 11
201.4827
 21
620.02469
 31
0.0
  0
LINE
  5
1DF
330
1D
100
AcDbEntity
  8
0
100
AcDbLine
 10
194.7886
 20
619.16269
 30
0.0
 11
198.0772
 21
620.08069
 31
0.0
  0
LINE
  5
1E0
330
1D
100
AcDbEntity
  8
0
100
AcDbLine
 10
191.5287
 20
617.75369
 30
0.0
 11
194.7886
 21
619.16269
 31
0.0
  0
LINE
  5
1E1
330
1D
100
AcDbEntity
  8
0
100
AcDbLine
 10
190.687782141421
 20
614.321899295962
 30
0.0
 11
191.9588
 21
609.51669
 31
0.0
  0
LINE
  5
1E2
330
1D
100
AcDbEntity
  8
0
100
AcDbLine
 10
202.5315
 20
601.217255701195
 30
0.0
 11
202.5315
 21
529.23036365
 31
0.0
  0
LINE
  5
1E3
330
1D
100
AcDbEntity
  8
0
100
AcDbLine
 10
190.9776
 20
638.21969
 30
0.0
 11
192.8869
 21
639.32269
 31
0.0
  0
LINE
  5
1E4
330
1D
100
AcDbEntity
  8
0
100
AcDbLine
 10
188.4476
 20
636.75969
 30
0.0
 11
190.9776
 21
638.21969
 31
0.0
  0
LINE
  5
1E6
330
1D
100
AcDbEntity
  8
0
100
AcDbLine
 10
185.5836
 20
635.10569
 30
0.0
 11
188.4476
 21
636.75969
 31
0.0
  0
LINE
  5
1E7
330
1D
100
AcDbEntity
  8
0
100
AcDbLine
 10
194.0325
 20
639.98369
 30
0.0
 11
194.4621
 21
640.23169
 31
0.0
  0
LINE
  5
1E8
330
1D
100
AcDbEntity
  8
0
100
AcDbLine
 10
192.8869
 20
639.32269
 30
0.0
 11
194.0325
 21
639.98369
 31
0.0
  0
LINE
  5
1E9
330
1D
100
AcDbEntity
  8
0
100
AcDbLine
 10
194.4621
 20
640.23169
 30
0.0
 11
207.594
 21
617.48669
 31
0.0
  0
LINE
  5
1EA
330
1D
100
AcDbEntity
  8
0
100
AcDbLine
 10
202.5315
 20
632.92049
 30
0.0
 11
202.7035
 21
632.85169
 31
0.0
  0
LINE
  5
1EB
330
1D
100
AcDbEntity
  8
0
100
AcDbLine
 10
198.775738996211
 20
632.760286854315
 30
0.0
 11
201.5955
 21
631.56569
 31
0.0
  0
LINE
  5
1EC
330
1D
100
AcDbEntity
  8
0
100
AcDbLine
 10
201.5955
 20
631.56569
 30
0.0
 11
205.252
 21
628.68869
 31
0.0
  0
LINE
  5
1ED
330
1D
100
AcDbEntity
  8
0
100
AcDbLine
 10
198.775718255319
 20
632.760322778408
 30
0.0
 11
201.5955
 21
631.56569
 31
0.0
  0
LINE
  5
1EE
330
1D
100
AcDbEntity
  8
0
100
AcDbLine
 10
202.5315
 20
630.829228356352
 30
0.0
 11
202.5315
 21
910.15369
 31
0.0
  0
LINE
  5
1EF
330
1D
100
AcDbEntity
  8
0
100
AcDbLine
 10
202.7035
 20
632.85169
 30
0.0
 11
206.8375
 21
629.73169
 31
0.0
  0
LINE
  5
1F0
330
1D
100
AcDbEntity
  8
0
100
AcDbLine
 10
202.7035
 20
598.99969
 30
0.0
 11
206.8375
 21
602.11969
 31
0.0
  0
LINE
  5
1F1
330
1D
100
AcDbEntity
  8
0
100
AcDbLine
 10
202.5315
 20
630.829228356352
 30
0.0
 11
202.5315
 21
910.15369
 31
0.0
  0
LINE
  5
1F2
330
1D
100
AcDbEntity
  8
0
100
AcDbLine
 10
202.5315
 20
529.23036365
 30
0.0
 11
202.5315
 21
601.217255701195
 31
0.0
  0
LINE
  5
1F3
330
1D
100
AcDbEntity
  8
0
100
AcDbLine
 10
182.5315
 20
660.8960315
 30
0.0
 11
182.5315
 21
911.52569
 31
0.0
  0
LINE
  5
1F4
330
1D
100
AcDbEntity
  8
0
100
AcDbLine
 10
182.5315
 20
660.8960315
 30
0.0
 11
182.5315
 21
911.52569
 31
0.0
  0
LINE
  5
1F5
330
1D
100
AcDbEntity
  8
0
100
AcDbLine
 10
203.037548031956
 20
53.82791482044
 30
0.0
 11
204.5315
 21
56.27949
 31
0.0
  0
LINE
  5
1F6
330
1D
100
AcDbEntity
  8
0
100
AcDbLine
 10
204.5315
 20
56.27949
 30
0.0
 11
207.0315
 21
59.23339
 31
0.0
  0
LINE
  5
1F7
330
1D
100
AcDbEntity
  8
0
100
AcDbLine
 10
205.1953
 20
603.29869
 30
0.0
 11
208.0726
 21
606.95469
 31
0.0
  0
LINE
  5
1F8
330
1D
100
AcDbEntity
  8
0
100
AcDbLine
 10
204.0482
 20
616.94369
 30
0.0
 11
205.0817
 21
615.93269
 31
0.0
  0
LINE
  5
1F9
330
1D
100
AcDbEntity
  8
0
100
AcDbLine
 10
204.29
 20
619.57169
 30
0.0
 11
206.2887
 21
618.75569
 31
0.0
  0
LINE
  5
1FA
330
1D
100
AcDbEntity
  8
0
100
AcDbLine
 10
205.0817
 20
615.93269
 30
0.0
 11
205.3054
 21
614.76569
 31
0.0
  0
LINE
  5
1FB
330
1D
100
AcDbEntity
  8
0
100
AcDbLine
 10
204.8767
 20
613.42969
 30
0.0
 11
205.3054
 21
614.76569
 31
0.0
  0
LINE
  5
1FC
330
1D
100
AcDbEntity
  8
0
100
AcDbLine
 10
203.6737
 20
612.04869
 30
0.0
 11
204.8767
 21
613.42969
 31
0.0
  0
LINE
  5
1FD
330
1D
100
AcDbEntity
  8
0
100
AcDbLine
 10
206.8375
 20
602.11969
 30
0.0
 11
209.9575
 21
606.25369
 31
0.0
  0
LINE
  5
1FE
330
1D
100
AcDbEntity
  8
0
100
AcDbLine
 10
205.252
 20
628.68869
 30
0.0
 11
208.1172
 21
625.02169
 31
0.0
  0
LINE
  5
1FF
330
1D
100
AcDbEntity
  8
0
100
AcDbLine
 10
206.8375
 20
629.73169
 30
0.0
 11
209.9575
 21
625.59769
 31
0.0
  0
LINE
  5
200
330
1D
100
AcDbEntity
  8
0
100
AcDbLine
 10
206.2887
 20
618.75569
 30
0.0
 11
207.594
 21
617.48669
 31
0.0
  0
LINE
  5
201
330
1D
100
AcDbEntity
  8
0
100
AcDbLine
 10
205.8246
 20
612.50469
 30
0.0
 11
207.3658
 21
614.24469
 31
0.0
  0
LINE
  5
202
330
1D
100
AcDbEntity
  8
0
100
AcDbLine
 10
205.778411664572
 20
612.471151477935
 30
0.0
 11
205.8246
 21
612.50469
 31
0.0
  0
LINE
  5
203
330
1D
100
AcDbEntity
  8
0
100
AcDbLine
 10
205.1954
 20
603.29869
 30
0.0
 11
208.0726
 21
606.95469
 31
0.0
  0
LINE
  5
204
330
1D
100
AcDbEntity
  8
0
100
AcDbLine
 10
207.0315
 20
59.23339
 30
0.0
 11
210.0315
 21
61.69489
 31
0.0
  0
LINE
  5
205
330
1D
100
AcDbEntity
  8
0
100
AcDbLine
 10
203.053291941588
 20
27.197629423853
 30
0.0
 11
204.5315
 21
24.77189
 31
0.0
  0
LINE
  5
206
330
1D
100
AcDbEntity
  8
0
100
AcDbLine
 10
204.5315
 20
24.77189
 30
0.0
 11
207.0315
 21
21.81799
 31
0.0
  0
LINE
  5
207
330
1D
100
AcDbEntity
  8
0
100
AcDbLine
 10
210.0315
 20
61.69489
 30
0.0
 11
213.5315
 21
63.66419
 31
0.0
  0
LINE
  5
208
330
1D
100
AcDbEntity
  8
0
100
AcDbLine
 10
207.594
 20
617.48669
 30
0.0
 11
207.9501
 21
615.87769
 31
0.0
  0
LINE
  5
209
330
1D
100
AcDbEntity
  8
0
100
AcDbLine
 10
207.3658
 20
614.24469
 30
0.0
 11
207.9501
 21
615.87769
 31
0.0
  0
LINE
  5
20A
330
1D
100
AcDbEntity
  8
0
100
AcDbLine
 10
211.8295
 20
610.93369
 30
0.0
 11
212.5315
 21
615.92569
 31
0.0
  0
LINE
  5
20B
330
1D
100
AcDbEntity
  8
0
100
AcDbLine
 10
209.9575
 20
606.25369
 30
0.0
 11
211.8295
 21
610.93369
 31
0.0
  0
LINE
  5
20C
330
1D
100
AcDbEntity
  8
0
100
AcDbLine
 10
209.9373
 20
611.35669
 30
0.0
 11
210.5235
 21
616.10169
 31
0.0
  0
LINE
  5
20D
330
1D
100
AcDbEntity
  8
0
100
AcDbLine
 10
211.8295
 20
620.91769
 30
0.0
 11
212.5315
 21
615.92569
 31
0.0
  0
LINE
  5
20E
330
1D
100
AcDbEntity
  8
0
100
AcDbLine
 10
209.9575
 20
625.59769
 30
0.0
 11
211.8295
 21
620.91769
 31
0.0
  0
LINE
  5
20F
330
1D
100
AcDbEntity
  8
0
100
AcDbLine
 10
209.86
 20
620.70669
 30
0.0
 11
210.5235
 21
616.10169
 31
0.0
  0
LINE
  5
210
330
1D
100
AcDbEntity
  8
0
100
AcDbLine
 10
208.1172
 20
625.02169
 30
0.0
 11
209.86
 21
620.70669
 31
0.0
  0
LINE
  5
211
330
1D
100
AcDbEntity
  8
0
100
AcDbLine
 10
209.9374
 20
611.35669
 30
0.0
 11
210.5235
 21
616.10169
 31
0.0
  0
LINE
  5
212
330
1D
100
AcDbEntity
  8
0
100
AcDbLine
 10
208.0726
 20
606.95469
 30
0.0
 11
209.9374
 21
611.35669
 31
0.0
  0
LINE
  5
213
330
1D
100
AcDbEntity
  8
0
100
AcDbLine
 10
208.0726
 20
606.95469
 30
0.0
 11
209.9373
 21
611.35669
 31
0.0
  0
LINE
  5
214
330
1D
100
AcDbEntity
  8
0
100
AcDbLine
 10
213.5315
 20
63.66419
 30
0.0
 11
216.5315
 21
64.64879
 31
0.0
  0
LINE
  5
215
330
1D
100
AcDbEntity
  8
0
100
AcDbLine
 10
207.0315
 20
21.81799
 30
0.0
 11
210.0315
 21
19.35649
 31
0.0
  0
LINE
  5
216
330
1D
100
AcDbEntity
  8
0
100
AcDbLine
 10
210.0315
 20
19.35649
 30
0.0
 11
213.5315
 21
17.38723
 31
0.0
  0
LINE
  5
217
330
1D
100
AcDbEntity
  8
0
100
AcDbLine
 10
216.5315
 20
28.51339
 30
0.0
 11
216.5315
 21
23.49189
 31
0.0
  0
LINE
  5
218
330
1D
100
AcDbEntity
  8
0
100
AcDbLine
 10
216.5315
 20
28.51339
 30
0.0
 11
216.5315
 21
34.32259
 31
0.0
  0
LINE
  5
219
330
1D
100
AcDbEntity
  8
0
100
AcDbLine
 10
216.5315
 20
61.39949
 30
0.0
 11
216.5315
 21
57.55949
 31
0.0
  0
LINE
  5
21A
330
1D
100
AcDbEntity
  8
0
100
AcDbLine
 10
216.5315
 20
61.39949
 30
0.0
 11
216.5315
 21
63.76259
 31
0.0
  0
LINE
  5
21B
330
1D
100
AcDbEntity
  8
0
100
AcDbLine
 10
216.5315
 20
63.76259
 30
0.0
 11
216.5315
 21
61.39949
 31
0.0
  0
LINE
  5
21C
330
1D
100
AcDbEntity
  8
0
100
AcDbLine
 10
216.5315
 20
63.76259
 30
0.0
 11
216.5315
 21
64.64879
 31
0.0
  0
LINE
  5
21D
330
1D
100
AcDbEntity
  8
0
100
AcDbLine
 10
216.5315
 20
57.55949
 30
0.0
 11
216.5315
 21
52.53799
 31
0.0
  0
LINE
  5
21E
330
1D
100
AcDbEntity
  8
0
100
AcDbLine
 10
216.5315
 20
57.55949
 30
0.0
 11
216.5315
 21
61.39949
 31
0.0
  0
LINE
  5
21F
330
1D
100
AcDbEntity
  8
0
100
AcDbLine
 10
216.5315
 20
52.53799
 30
0.0
 11
216.5315
 21
46.72879
 31
0.0
  0
LINE
  5
220
330
1D
100
AcDbEntity
  8
0
100
AcDbLine
 10
216.5315
 20
52.53799
 30
0.0
 11
216.5315
 21
57.55949
 31
0.0
  0
LINE
  5
221
330
1D
100
AcDbEntity
  8
0
100
AcDbLine
 10
216.5315
 20
46.72879
 30
0.0
 11
216.5315
 21
40.52569
 31
0.0
  0
LINE
  5
222
330
1D
100
AcDbEntity
  8
0
100
AcDbLine
 10
216.5315
 20
46.72879
 30
0.0
 11
216.5315
 21
52.53799
 31
0.0
  0
LINE
  5
223
330
1D
100
AcDbEntity
  8
0
100
AcDbLine
 10
216.5315
 20
64.64879
 30
0.0
 11
217.0315
 21
65.63339
 31
0.0
  0
LINE
  5
224
330
1D
100
AcDbEntity
  8
0
100
AcDbLine
 10
216.5315
 20
64.64879
 30
0.0
 11
216.5315
 21
63.76259
 31
0.0
  0
LINE
  5
225
330
1D
100
AcDbEntity
  8
0
100
AcDbLine
 10
216.5315
 20
34.32259
 30
0.0
 11
216.5315
 21
28.51339
 31
0.0
  0
LINE
  5
226
330
1D
100
AcDbEntity
  8
0
100
AcDbLine
 10
216.5315
 20
34.32259
 30
0.0
 11
216.5315
 21
40.52569
 31
0.0
  0
LINE
  5
227
330
1D
100
AcDbEntity
  8
0
100
AcDbLine
 10
216.5315
 20
40.52569
 30
0.0
 11
216.5315
 21
34.32259
 31
0.0
  0
LINE
  5
228
330
1D
100
AcDbEntity
  8
0
100
AcDbLine
 10
216.5315
 20
40.52569
 30
0.0
 11
216.5315
 21
46.72879
 31
0.0
  0
LINE
  5
229
330
1D
100
AcDbEntity
  8
0
100
AcDbLine
 10
216.5315
 20
23.49189
 30
0.0
 11
216.5315
 21
19.65189
 31
0.0
  0
LINE
  5
22A
330
1D
100
AcDbEntity
  8
0
100
AcDbLine
 10
216.5315
 20
23.49189
 30
0.0
 11
216.5315
 21
28.51339
 31
0.0
  0
LINE
  5
22B
330
1D
100
AcDbEntity
  8
0
100
AcDbLine
 10
217.0315
 20
65.63339
 30
0.0
 11
218.0315
 21
66.61799
 31
0.0
  0
LINE
  5
22C
330
1D
100
AcDbEntity
  8
0
100
AcDbLine
 10
216.5315
 20
19.65189
 30
0.0
 11
216.5315
 21
17.28877
 31
0.0
  0
LINE
  5
22D
330
1D
100
AcDbEntity
  8
0
100
AcDbLine
 10
216.5315
 20
19.65189
 30
0.0
 11
216.5315
 21
23.49189
 31
0.0
  0
LINE
  5
22E
330
1D
100
AcDbEntity
  8
0
100
AcDbLine
 10
216.5315
 20
17.28877
 30
0.0
 11
216.5315
 21
16.40261
 31
0.0
  0
LINE
  5
22F
330
1D
100
AcDbEntity
  8
0
100
AcDbLine
 10
216.5315
 20
17.28877
 30
0.0
 11
216.5315
 21
19.65189
 31
0.0
  0
LINE
  5
230
330
1D
100
AcDbEntity
  8
0
100
AcDbLine
 10
213.5315
 20
17.38723
 30
0.0
 11
216.5315
 21
16.40261
 31
0.0
  0
LINE
  5
231
330
1D
100
AcDbEntity
  8
0
100
AcDbLine
 10
216.5315
 20
16.40261
 30
0.0
 11
217.0315
 21
15.418
 31
0.0
  0
LINE
  5
232
330
1D
100
AcDbEntity
  8
0
100
AcDbLine
 10
216.5315
 20
16.40261
 30
0.0
 11
216.5315
 21
17.28877
 31
0.0
  0
LINE
  5
233
330
1D
100
AcDbEntity
  8
0
100
AcDbLine
 10
219.0315
 20
27.33189
 30
0.0
 11
219.0315
 21
21.81799
 31
0.0
  0
LINE
  5
234
330
1D
100
AcDbEntity
  8
0
100
AcDbLine
 10
219.0315
 20
27.33189
 30
0.0
 11
219.0315
 21
33.73189
 31
0.0
  0
LINE
  5
235
330
1D
100
AcDbEntity
  8
0
100
AcDbLine
 10
219.0315
 20
59.23339
 30
0.0
 11
219.0315
 21
53.71949
 31
0.0
  0
LINE
  5
236
330
1D
100
AcDbEntity
  8
0
100
AcDbLine
 10
219.0315
 20
59.23339
 30
0.0
 11
219.0315
 21
63.56569
 31
0.0
  0
LINE
  5
237
330
1D
100
AcDbEntity
  8
0
100
AcDbLine
 10
219.0315
 20
53.71949
 30
0.0
 11
219.0315
 21
47.31949
 31
0.0
  0
LINE
  5
238
330
1D
100
AcDbEntity
  8
0
100
AcDbLine
 10
219.0315
 20
53.71949
 30
0.0
 11
219.0315
 21
59.23339
 31
0.0
  0
LINE
  5
239
330
1D
100
AcDbEntity
  8
0
100
AcDbLine
 10
219.0315
 20
47.31949
 30
0.0
 11
219.0315
 21
40.52569
 31
0.0
  0
LINE
  5
23A
330
1D
100
AcDbEntity
  8
0
100
AcDbLine
 10
219.0315
 20
47.31949
 30
0.0
 11
219.0315
 21
53.71949
 31
0.0
  0
LINE
  5
23B
330
1D
100
AcDbEntity
  8
0
100
AcDbLine
 10
218.0315
 20
66.61799
 30
0.0
 11
219.0315
 21
67.11029
 31
0.0
  0
LINE
  5
23C
330
1D
100
AcDbEntity
  8
0
100
AcDbLine
 10
219.0315
 20
33.73189
 30
0.0
 11
219.0315
 21
27.33189
 31
0.0
  0
LINE
  5
23D
330
1D
100
AcDbEntity
  8
0
100
AcDbLine
 10
219.0315
 20
33.73189
 30
0.0
 11
219.0315
 21
40.52569
 31
0.0
  0
LINE
  5
23E
330
1D
100
AcDbEntity
  8
0
100
AcDbLine
 10
219.0315
 20
40.52569
 30
0.0
 11
219.0315
 21
33.73189
 31
0.0
  0
LINE
  5
23F
330
1D
100
AcDbEntity
  8
0
100
AcDbLine
 10
219.0315
 20
40.52569
 30
0.0
 11
219.0315
 21
47.31949
 31
0.0
  0
LINE
  5
240
330
1D
100
AcDbEntity
  8
0
100
AcDbLine
 10
219.0315
 20
21.81799
 30
0.0
 11
219.0315
 21
17.48569
 31
0.0
  0
LINE
  5
241
330
1D
100
AcDbEntity
  8
0
100
AcDbLine
 10
219.0315
 20
21.81799
 30
0.0
 11
219.0315
 21
27.33189
 31
0.0
  0
LINE
  5
242
330
1D
100
AcDbEntity
  8
0
100
AcDbLine
 10
219.0315
 20
17.48569
 30
0.0
 11
219.0315
 21
14.92569
 31
0.0
  0
LINE
  5
243
330
1D
100
AcDbEntity
  8
0
100
AcDbLine
 10
219.0315
 20
17.48569
 30
0.0
 11
219.0315
 21
21.81799
 31
0.0
  0
LINE
  5
244
330
1D
100
AcDbEntity
  8
0
100
AcDbLine
 10
219.0315
 20
14.92569
 30
0.0
 11
219.0315
 21
13.94107
 31
0.0
  0
LINE
  5
245
330
1D
100
AcDbEntity
  8
0
100
AcDbLine
 10
219.0315
 20
14.92569
 30
0.0
 11
219.0315
 21
17.48569
 31
0.0
  0
LINE
  5
246
330
1D
100
AcDbEntity
  8
0
100
AcDbLine
 10
217.0315
 20
15.418
 30
0.0
 11
218.0315
 21
14.43338
 31
0.0
  0
LINE
  5
247
330
1D
100
AcDbEntity
  8
0
100
AcDbLine
 10
218.0315
 20
14.43338
 30
0.0
 11
219.0315
 21
13.94107
 31
0.0
  0
LINE
  5
248
330
1D
100
AcDbEntity
  8
0
100
AcDbLine
 10
219.0315
 20
63.56569
 30
0.0
 11
219.0315
 21
66.12569
 31
0.0
  0
LINE
  5
249
330
1D
100
AcDbEntity
  8
0
100
AcDbLine
 10
219.0315
 20
66.12569
 30
0.0
 11
219.0315
 21
63.56569
 31
0.0
  0
LINE
  5
24A
330
1D
100
AcDbEntity
  8
0
100
AcDbLine
 10
219.0315
 20
66.12569
 30
0.0
 11
219.0315
 21
67.11029
 31
0.0
  0
LINE
  5
24B
330
1D
100
AcDbEntity
  8
0
100
AcDbLine
 10
219.0315
 20
67.11029
 30
0.0
 11
219.5315
 21
68.09489
 31
0.0
  0
LINE
  5
24C
330
1D
100
AcDbEntity
  8
0
100
AcDbLine
 10
219.0315
 20
67.11029
 30
0.0
 11
219.0315
 21
66.12569
 31
0.0
  0
LINE
  5
24D
330
1D
100
AcDbEntity
  8
0
100
AcDbLine
 10
219.5315
 20
68.09489
 30
0.0
 11
221.0315
 21
69.57189
 31
0.0
  0
LINE
  5
24E
330
1D
100
AcDbEntity
  8
0
100
AcDbLine
 10
221.0315
 20
69.57189
 30
0.0
 11
223.0315
 21
71.04879
 31
0.0
  0
LINE
  5
24F
330
1D
100
AcDbEntity
  8
0
100
AcDbLine
 10
219.0315
 20
13.94107
 30
0.0
 11
219.5315
 21
12.95646
 31
0.0
  0
LINE
  5
250
330
1D
100
AcDbEntity
  8
0
100
AcDbLine
 10
219.0315
 20
13.94107
 30
0.0
 11
219.0315
 21
14.92569
 31
0.0
  0
LINE
  5
251
330
1D
100
AcDbEntity
  8
0
100
AcDbLine
 10
219.5315
 20
12.95646
 30
0.0
 11
221.0315
 21
11.47954
 31
0.0
  0
LINE
  5
252
330
1D
100
AcDbEntity
  8
0
100
AcDbLine
 10
223.0315
 20
71.04879
 30
0.0
 11
225.5315
 21
72.03339
 31
0.0
  0
LINE
  5
253
330
1D
100
AcDbEntity
  8
0
100
AcDbLine
 10
225.5315
 20
72.03339
 30
0.0
 11
229.0315
 21
72.52569
 31
0.0
  0
LINE
  5
254
330
1D
100
AcDbEntity
  8
0
100
AcDbLine
 10
221.0315
 20
11.47954
 30
0.0
 11
223.0315
 21
10.00261
 31
0.0
  0
LINE
  5
255
330
1D
100
AcDbEntity
  8
0
100
AcDbLine
 10
223.0315
 20
10.00261
 30
0.0
 11
225.5315
 21
9.017998
 31
0.0
  0
LINE
  5
256
330
1D
100
AcDbEntity
  8
0
100
AcDbLine
 10
230.0315
 20
8.02569
 30
0.0
 11
230.0315
 21
9.19569
 31
0.0
  0
LINE
  5
257
330
1D
100
AcDbEntity
  8
0
100
AcDbLine
 10
229.0315
 20
8.02569
 30
0.0
 11
229.0315
 21
9.19569
 31
0.0
  0
LINE
  5
258
330
1D
100
AcDbEntity
  8
0
100
AcDbLine
 10
229.0315
 20
8.02569
 30
0.0
 11
230.0315
 21
8.02569
 31
0.0
  0
LINE
  5
259
330
1D
100
AcDbEntity
  8
0
100
AcDbLine
 10
229.0315
 20
8.02569
 30
0.0
 11
229.0315
 21
8.52569
 31
0.0
  0
LINE
  5
25A
330
1D
100
AcDbEntity
  8
0
100
AcDbLine
 10
229.0315
 20
9.19569
 30
0.0
 11
229.0315
 21
12.31569
 31
0.0
  0
LINE
  5
25B
330
1D
100
AcDbEntity
  8
0
100
AcDbLine
 10
229.0315
 20
9.19569
 30
0.0
 11
229.0315
 21
8.02569
 31
0.0
  0
LINE
  5
25C
330
1D
100
AcDbEntity
  8
0
100
AcDbLine
 10
229.0315
 20
12.31569
 30
0.0
 11
229.0315
 21
17.51569
 31
0.0
  0
LINE
  5
25D
330
1D
100
AcDbEntity
  8
0
100
AcDbLine
 10
229.0315
 20
12.31569
 30
0.0
 11
229.0315
 21
9.19569
 31
0.0
  0
LINE
  5
25E
330
1D
100
AcDbEntity
  8
0
100
AcDbLine
 10
229.0315
 20
17.51569
 30
0.0
 11
229.0315
 21
24.40569
 31
0.0
  0
LINE
  5
25F
330
1D
100
AcDbEntity
  8
0
100
AcDbLine
 10
229.0315
 20
17.51569
 30
0.0
 11
229.0315
 21
12.31569
 31
0.0
  0
LINE
  5
260
330
1D
100
AcDbEntity
  8
0
100
AcDbLine
 10
229.0315
 20
24.40569
 30
0.0
 11
229.0315
 21
32.20569
 31
0.0
  0
LINE
  5
261
330
1D
100
AcDbEntity
  8
0
100
AcDbLine
 10
229.0315
 20
24.40569
 30
0.0
 11
229.0315
 21
17.51569
 31
0.0
  0
LINE
  5
262
330
1D
100
AcDbEntity
  8
0
100
AcDbLine
 10
229.0315
 20
17.87954
 30
0.0
 11
229.0315
 21
24.57489
 31
0.0
  0
LINE
  5
263
330
1D
100
AcDbEntity
  8
0
100
AcDbLine
 10
229.0315
 20
32.20569
 30
0.0
 11
229.0315
 21
40.52569
 31
0.0
  0
LINE
  5
264
330
1D
100
AcDbEntity
  8
0
100
AcDbLine
 10
229.0315
 20
32.20569
 30
0.0
 11
229.0315
 21
24.40569
 31
0.0
  0
LINE
  5
265
330
1D
100
AcDbEntity
  8
0
100
AcDbLine
 10
229.0315
 20
56.64569
 30
0.0
 11
229.0315
 21
63.53569
 31
0.0
  0
LINE
  5
266
330
1D
100
AcDbEntity
  8
0
100
AcDbLine
 10
229.0315
 20
56.64569
 30
0.0
 11
229.0315
 21
48.84569
 31
0.0
  0
LINE
  5
267
330
1D
100
AcDbEntity
  8
0
100
AcDbLine
 10
229.0315
 20
48.84569
 30
0.0
 11
229.0315
 21
56.64569
 31
0.0
  0
LINE
  5
268
330
1D
100
AcDbEntity
  8
0
100
AcDbLine
 10
229.0315
 20
48.84569
 30
0.0
 11
229.0315
 21
40.52569
 31
0.0
  0
LINE
  5
269
330
1D
100
AcDbEntity
  8
0
100
AcDbLine
 10
229.0315
 20
68.73569
 30
0.0
 11
229.0315
 21
71.85569
 31
0.0
  0
LINE
  5
26A
330
1D
100
AcDbEntity
  8
0
100
AcDbLine
 10
229.0315
 20
68.73569
 30
0.0
 11
229.0315
 21
63.53569
 31
0.0
  0
LINE
  5
26B
330
1D
100
AcDbEntity
  8
0
100
AcDbLine
 10
229.0315
 20
63.53569
 30
0.0
 11
229.0315
 21
68.73569
 31
0.0
  0
LINE
  5
26C
330
1D
100
AcDbEntity
  8
0
100
AcDbLine
 10
229.0315
 20
63.53569
 30
0.0
 11
229.0315
 21
56.64569
 31
0.0
  0
LINE
  5
26D
330
1D
100
AcDbEntity
  8
0
100
AcDbLine
 10
229.0315
 20
63.17189
 30
0.0
 11
229.0315
 21
68.19339
 31
0.0
  0
LINE
  5
26E
330
1D
100
AcDbEntity
  8
0
100
AcDbLine
 10
229.0315
 20
68.19339
 30
0.0
 11
229.0315
 21
71.34419
 31
0.0
  0
LINE
  5
26F
330
1D
100
AcDbEntity
  8
0
100
AcDbLine
 10
229.0315
 20
71.85569
 30
0.0
 11
229.0315
 21
73.02569
 31
0.0
  0
LINE
  5
270
330
1D
100
AcDbEntity
  8
0
100
AcDbLine
 10
229.0315
 20
71.85569
 30
0.0
 11
229.0315
 21
68.73569
 31
0.0
  0
LINE
  5
271
330
1D
100
AcDbEntity
  8
0
100
AcDbLine
 10
229.0315
 20
72.52569
 30
0.0
 11
229.0315
 21
73.02569
 31
0.0
  0
LINE
  5
272
330
1D
100
AcDbEntity
  8
0
100
AcDbLine
 10
229.0315
 20
73.02569
 30
0.0
 11
229.0315
 21
72.52569
 31
0.0
  0
LINE
  5
273
330
1D
100
AcDbEntity
  8
0
100
AcDbLine
 10
229.0315
 20
73.02569
 30
0.0
 11
230.0315
 21
73.02569
 31
0.0
  0
LINE
  5
274
330
1D
100
AcDbEntity
  8
0
100
AcDbLine
 10
229.0315
 20
73.02569
 30
0.0
 11
229.0315
 21
71.85569
 31
0.0
  0
LINE
  5
275
330
1D
100
AcDbEntity
  8
0
100
AcDbLine
 10
229.0315
 20
71.34419
 30
0.0
 11
229.0315
 21
72.52569
 31
0.0
  0
LINE
  5
276
330
1D
100
AcDbEntity
  8
0
100
AcDbLine
 10
229.0315
 20
56.47649
 30
0.0
 11
229.0315
 21
63.17189
 31
0.0
  0
LINE
  5
277
330
1D
100
AcDbEntity
  8
0
100
AcDbLine
 10
229.0315
 20
48.79649
 30
0.0
 11
229.0315
 21
56.47649
 31
0.0
  0
LINE
  5
278
330
1D
100
AcDbEntity
  8
0
100
AcDbLine
 10
229.0315
 20
40.52569
 30
0.0
 11
229.0315
 21
48.79649
 31
0.0
  0
LINE
  5
279
330
1D
100
AcDbEntity
  8
0
100
AcDbLine
 10
229.0315
 20
40.52569
 30
0.0
 11
229.0315
 21
48.84569
 31
0.0
  0
LINE
  5
27A
330
1D
100
AcDbEntity
  8
0
100
AcDbLine
 10
229.0315
 20
40.52569
 30
0.0
 11
229.0315
 21
32.20569
 31
0.0
  0
LINE
  5
27B
330
1D
100
AcDbEntity
  8
0
100
AcDbLine
 10
229.0315
 20
24.57489
 30
0.0
 11
229.0315
 21
32.25489
 31
0.0
  0
LINE
  5
27C
330
1D
100
AcDbEntity
  8
0
100
AcDbLine
 10
229.0315
 20
32.25489
 30
0.0
 11
229.0315
 21
40.52569
 31
0.0
  0
LINE
  5
27D
330
1D
100
AcDbEntity
  8
0
100
AcDbLine
 10
229.0315
 20
12.858
 30
0.0
 11
229.0315
 21
17.87954
 31
0.0
  0
LINE
  5
27E
330
1D
100
AcDbEntity
  8
0
100
AcDbLine
 10
230.0315
 20
9.19569
 30
0.0
 11
230.0315
 21
12.31569
 31
0.0
  0
LINE
  5
27F
330
1D
100
AcDbEntity
  8
0
100
AcDbLine
 10
230.0315
 20
9.19569
 30
0.0
 11
230.0315
 21
8.02569
 31
0.0
  0
LINE
  5
280
330
1D
100
AcDbEntity
  8
0
100
AcDbLine
 10
230.0315
 20
12.31569
 30
0.0
 11
230.0315
 21
17.51569
 31
0.0
  0
LINE
  5
281
330
1D
100
AcDbEntity
  8
0
100
AcDbLine
 10
230.0315
 20
12.31569
 30
0.0
 11
230.0315
 21
9.19569
 31
0.0
  0
LINE
  5
282
330
1D
100
AcDbEntity
  8
0
100
AcDbLine
 10
230.0315
 20
17.51569
 30
0.0
 11
230.0315
 21
24.40569
 31
0.0
  0
LINE
  5
283
330
1D
100
AcDbEntity
  8
0
100
AcDbLine
 10
230.0315
 20
17.51569
 30
0.0
 11
230.0315
 21
12.31569
 31
0.0
  0
LINE
  5
284
330
1D
100
AcDbEntity
  8
0
100
AcDbLine
 10
230.0315
 20
24.40569
 30
0.0
 11
230.0315
 21
32.20569
 31
0.0
  0
LINE
  5
285
330
1D
100
AcDbEntity
  8
0
100
AcDbLine
 10
230.0315
 20
24.40569
 30
0.0
 11
230.0315
 21
17.51569
 31
0.0
  0
LINE
  5
286
330
1D
100
AcDbEntity
  8
0
100
AcDbLine
 10
230.0315
 20
32.20569
 30
0.0
 11
230.0315
 21
40.52569
 31
0.0
  0
LINE
  5
287
330
1D
100
AcDbEntity
  8
0
100
AcDbLine
 10
230.0315
 20
32.20569
 30
0.0
 11
230.0315
 21
24.40569
 31
0.0
  0
LINE
  5
288
330
1D
100
AcDbEntity
  8
0
100
AcDbLine
 10
230.0315
 20
73.02569
 30
0.0
 11
230.0315
 21
71.85569
 31
0.0
  0
LINE
  5
289
330
1D
100
AcDbEntity
  8
0
100
AcDbLine
 10
230.0315
 20
71.85569
 30
0.0
 11
230.0315
 21
73.02569
 31
0.0
  0
LINE
  5
28A
330
1D
100
AcDbEntity
  8
0
100
AcDbLine
 10
230.0315
 20
71.85569
 30
0.0
 11
230.0315
 21
68.73569
 31
0.0
  0
LINE
  5
28B
330
1D
100
AcDbEntity
  8
0
100
AcDbLine
 10
230.0315
 20
68.73569
 30
0.0
 11
230.0315
 21
71.85569
 31
0.0
  0
LINE
  5
28C
330
1D
100
AcDbEntity
  8
0
100
AcDbLine
 10
230.0315
 20
68.73569
 30
0.0
 11
230.0315
 21
63.53569
 31
0.0
  0
LINE
  5
28D
330
1D
100
AcDbEntity
  8
0
100
AcDbLine
 10
230.0315
 20
63.53569
 30
0.0
 11
230.0315
 21
68.73569
 31
0.0
  0
LINE
  5
28E
330
1D
100
AcDbEntity
  8
0
100
AcDbLine
 10
230.0315
 20
63.53569
 30
0.0
 11
230.0315
 21
56.64569
 31
0.0
  0
LINE
  5
28F
330
1D
100
AcDbEntity
  8
0
100
AcDbLine
 10
230.0315
 20
56.64569
 30
0.0
 11
230.0315
 21
63.53569
 31
0.0
  0
LINE
  5
290
330
1D
100
AcDbEntity
  8
0
100
AcDbLine
 10
230.0315
 20
56.64569
 30
0.0
 11
230.0315
 21
48.84569
 31
0.0
  0
LINE
  5
291
330
1D
100
AcDbEntity
  8
0
100
AcDbLine
 10
230.0315
 20
48.84569
 30
0.0
 11
230.0315
 21
56.64569
 31
0.0
  0
LINE
  5
292
330
1D
100
AcDbEntity
  8
0
100
AcDbLine
 10
230.0315
 20
48.84569
 30
0.0
 11
230.0315
 21
40.52569
 31
0.0
  0
LINE
  5
293
330
1D
100
AcDbEntity
  8
0
100
AcDbLine
 10
230.0315
 20
40.52569
 30
0.0
 11
230.0315
 21
48.84569
 31
0.0
  0
LINE
  5
294
330
1D
100
AcDbEntity
  8
0
100
AcDbLine
 10
230.0315
 20
40.52569
 30
0.0
 11
230.0315
 21
32.20569
 31
0.0
  0
LINE
  5
295
330
1D
100
AcDbEntity
  8
0
100
AcDbLine
 10
229.0315
 20
9.70723
 30
0.0
 11
229.0315
 21
12.858
 31
0.0
  0
LINE
  5
296
330
1D
100
AcDbEntity
  8
0
100
AcDbLine
 10
229.0315
 20
8.52569
 30
0.0
 11
229.0315
 21
9.70723
 31
0.0
  0
LINE
  5
297
330
1D
100
AcDbEntity
  8
0
100
AcDbLine
 10
229.0315
 20
8.52569
 30
0.0
 11
229.0315
 21
8.02569
 31
0.0
  0
LINE
  5
298
330
1D
100
AcDbEntity
  8
0
100
AcDbLine
 10
225.5315
 20
9.017998
 30
0.0
 11
229.0315
 21
8.52569
 31
0.0
  0
LINE
  5
299
330
1D
100
AcDbEntity
  8
0
100
AcDbLine
 10
29.6825
 20
802.81269
 30
0.0
 11
36.2325
 21
791.46769
 31
0.0
  0
LINE
  5
29A
330
1D
100
AcDbEntity
  8
0
100
AcDbLine
 10
29.2495
 20
802.56269
 30
0.0
 11
35.9995
 21
790.87169
 31
0.0
  0
LINE
  5
29B
330
1D
100
AcDbEntity
  8
0
100
AcDbLine
 10
29.3445
 20
817.39769
 30
0.0
 11
35.7445
 21
806.31269
 31
0.0
  0
LINE
  5
29C
330
1D
100
AcDbEntity
  8
0
100
AcDbLine
 10
28.7405
 20
830.44369
 30
0.0
 11
34.6405
 21
820.22469
 31
0.0
  0
LINE
  5
29D
330
1D
100
AcDbEntity
  8
0
100
AcDbLine
 10
26.8255
 20
828.76069
 30
0.0
 11
32.6255
 21
818.71469
 31
0.0
  0
LINE
  5
29E
330
1D
100
AcDbEntity
  8
0
100
AcDbLine
 10
32.6255
 20
818.71469
 30
0.0
 11
38.7755
 21
808.06269
 31
0.0
  0
LINE
  5
29F
330
1D
100
AcDbEntity
  8
0
100
AcDbLine
 10
40.9405
 20
809.31269
 30
0.0
 11
47.2405
 21
798.40069
 31
0.0
  0
LINE
  5
2A0
330
1D
100
AcDbEntity
  8
0
100
AcDbLine
 10
38.7755
 20
808.06269
 30
0.0
 11
44.9255
 21
797.41069
 31
0.0
  0
LINE
  5
2A1
330
1D
100
AcDbEntity
  8
0
100
AcDbLine
 10
36.1775
 20
806.56269
 30
0.0
 11
42.4275
 21
795.73769
 31
0.0
  0
LINE
  5
2A2
330
1D
100
AcDbEntity
  8
0
100
AcDbLine
 10
34.6405
 20
820.22469
 30
0.0
 11
40.9405
 21
809.31269
 31
0.0
  0
LINE
  5
2A3
330
1D
100
AcDbEntity
  8
0
100
AcDbLine
 10
57.6445
 20
821.38169
 30
0.0
 11
58.6945
 21
819.56269
 31
0.0
  0
LINE
  5
2A4
330
1D
100
AcDbEntity
  8
0
100
AcDbLine
 10
55.8945
 20
824.41269
 30
0.0
 11
56.6945
 21
823.02669
 31
0.0
  0
LINE
  5
2A5
330
1D
100
AcDbEntity
  8
0
100
AcDbLine
 10
55.2445
 20
825.53869
 30
0.0
 11
55.8945
 21
824.41269
 31
0.0
  0
LINE
  5
2A6
330
1D
100
AcDbEntity
  8
0
100
AcDbLine
 10
54.8445
 20
826.23069
 30
0.0
 11
55.2445
 21
825.53869
 31
0.0
  0
LINE
  5
2A7
330
1D
100
AcDbEntity
  8
0
100
AcDbLine
 10
54.6945
 20
826.49069
 30
0.0
 11
60.7235
 21
828.98869
 31
0.0
  0
LINE
  5
2A8
330
1D
100
AcDbEntity
  8
0
100
AcDbLine
 10
54.6945
 20
826.49069
 30
0.0
 11
54.8445
 21
826.23069
 31
0.0
  0
LINE
  5
2A9
330
1D
100
AcDbEntity
  8
0
100
AcDbLine
 10
55.3445
 20
825.36469
 30
0.0
 11
56.3445
 21
823.63269
 31
0.0
  0
LINE
  5
2AA
330
1D
100
AcDbEntity
  8
0
100
AcDbLine
 10
56.6945
 20
823.02669
 30
0.0
 11
57.6445
 21
821.38169
 31
0.0
  0
LINE
  5
2AB
330
1D
100
AcDbEntity
  8
0
100
AcDbLine
 10
56.3445
 20
823.63269
 30
0.0
 11
57.4945
 21
821.64069
 31
0.0
  0
LINE
  5
2AC
330
1D
100
AcDbEntity
  8
0
100
AcDbLine
 10
57.4945
 20
821.64069
 30
0.0
 11
58.6945
 21
819.56269
 31
0.0
  0
LINE
  5
2AD
330
1D
100
AcDbEntity
  8
0
100
AcDbLine
 10
54.5945
 20
826.66369
 30
0.0
 11
55.3445
 21
825.36469
 31
0.0
  0
LINE
  5
2AE
330
1D
100
AcDbEntity
  8
0
100
AcDbLine
 10
54.0945
 20
827.52969
 30
0.0
 11
54.5945
 21
826.66369
 31
0.0
  0
LINE
  5
2AF
330
1D
100
AcDbEntity
  8
0
100
AcDbLine
 10
53.9445
 20
827.78969
 30
0.0
 11
54.0945
 21
827.52969
 31
0.0
  0
LINE
  5
2B0
330
1D
100
AcDbEntity
  8
0
100
AcDbLine
 10
48.1805
 20
826.77169
 30
0.0
 11
52.5785
 21
828.15569
 31
0.0
  0
LINE
  5
2B1
330
1D
100
AcDbEntity
  8
0
100
AcDbLine
 10
45.6985
 20
827.07069
 30
0.0
 11
48.1805
 21
826.77169
 31
0.0
  0
LINE
  5
2B2
330
1D
100
AcDbEntity
  8
0
100
AcDbLine
 10
52.5785
 20
828.15569
 30
0.0
 11
53.9445
 21
827.78969
 31
0.0
  0
LINE
  5
2B3
330
1D
100
AcDbEntity
  8
0
100
AcDbLine
 10
43.3995
 20
828.05269
 30
0.0
 11
45.6985
 21
827.07069
 31
0.0
  0
LINE
  5
2B4
330
1D
100
AcDbEntity
  8
0
100
AcDbLine
 10
36.5335
 20
837.94569
 30
0.0
 11
43.3995
 21
828.05269
 31
0.0
  0
LINE
  5
2B5
330
1D
100
AcDbEntity
  8
0
100
AcDbLine
 10
29.9275
 20
817.38769
 30
0.0
 11
36.1775
 21
806.56269
 31
0.0
  0
LINE
  5
2B6
330
1D
100
AcDbEntity
  8
0
100
AcDbLine
 10
35.7445
 20
806.31269
 30
0.0
 11
42.1445
 21
795.22769
 31
0.0
  0
LINE
  5
2B7
330
1D
100
AcDbEntity
  8
0
100
AcDbLine
 10
58.6945
 20
819.56269
 30
0.0
 11
59.8945
 21
817.48469
 31
0.0
  0
LINE
  5
2B8
330
1D
100
AcDbEntity
  8
0
100
AcDbLine
 10
75.4045
 20
809.00369
 30
0.0
 11
75.6535
 21
809.14769
 31
0.0
  0
LINE
  5
2B9
330
1D
100
AcDbEntity
  8
0
100
AcDbLine
 10
75.6535
 20
809.14769
 30
0.0
 11
76.3195
 21
809.53169
 31
0.0
  0
LINE
  5
2BA
330
1D
100
AcDbEntity
  8
0
100
AcDbLine
 10
76.2815
 20
809.21269
 30
0.0
 11
77.3895
 21
809.85269
 31
0.0
  0
LINE
  5
2BB
330
1D
100
AcDbEntity
  8
0
100
AcDbLine
 10
75.6165
 20
808.82869
 30
0.0
 11
76.2815
 21
809.21269
 31
0.0
  0
LINE
  5
2BC
330
1D
100
AcDbEntity
  8
0
100
AcDbLine
 10
75.3665
 20
808.68469
 30
0.0
 11
75.4045
 21
809.00369
 31
0.0
  0
LINE
  5
2BD
330
1D
100
AcDbEntity
  8
0
100
AcDbLine
 10
75.3665
 20
808.68469
 30
0.0
 11
100.988597267735
 21
764.306867933685
 31
0.0
  0
LINE
  5
2BE
330
1D
100
AcDbEntity
  8
0
100
AcDbLine
 10
75.3665
 20
808.68469
 30
0.0
 11
75.6165
 21
808.82869
 31
0.0
  0
LINE
  5
2BF
330
1D
100
AcDbEntity
  8
0
100
AcDbLine
 10
75.1095
 20
809.12969
 30
0.0
 11
77.1325
 21
810.29769
 31
0.0
  0
LINE
  5
2C0
330
1D
100
AcDbEntity
  8
0
100
AcDbLine
 10
76.3195
 20
809.53169
 30
0.0
 11
77.3995
 21
810.15569
 31
0.0
  0
LINE
  5
2C1
330
1D
100
AcDbEntity
  8
0
100
AcDbLine
 10
77.3895
 20
809.85269
 30
0.0
 11
78.8586
 21
810.70069
 31
0.0
  0
LINE
  5
2C2
330
1D
100
AcDbEntity
  8
0
100
AcDbLine
 10
75.1095
 20
809.12969
 30
0.0
 11
75.4045
 21
809.00369
 31
0.0
  0
LINE
  5
2C3
330
1D
100
AcDbEntity
  8
0
100
AcDbLine
 10
62.7945
 20
812.46169
 30
0.0
 11
63.2945
 21
811.59569
 31
0.0
  0
LINE
  5
2C4
330
1D
100
AcDbEntity
  8
0
100
AcDbLine
 10
62.0445
 20
813.76069
 30
0.0
 11
62.7945
 21
812.46169
 31
0.0
  0
LINE
  5
2C5
330
1D
100
AcDbEntity
  8
0
100
AcDbLine
 10
60.7235
 20
828.98869
 30
0.0
 11
67.1945
 21
829.84069
 31
0.0
  0
LINE
  5
2C6
330
1D
100
AcDbEntity
  8
0
100
AcDbLine
 10
61.0445
 20
815.49269
 30
0.0
 11
62.0445
 21
813.76069
 31
0.0
  0
LINE
  5
2C7
330
1D
100
AcDbEntity
  8
0
100
AcDbLine
 10
59.8945
 20
817.48469
 30
0.0
 11
61.0445
 21
815.49269
 31
0.0
  0
LINE
  5
2C8
330
1D
100
AcDbEntity
  8
0
100
AcDbLine
 10
62.694593184238
 20
812.634728604899
 30
0.0
 11
62.7945
 21
812.46169
 31
0.0
  0
LINE
  5
2C9
330
1D
100
AcDbEntity
  8
0
100
AcDbLine
 10
62.694593184238
 20
812.634728604899
 30
0.0
 11
64.8645
 21
813.53369
 31
0.0
  0
LINE
  5
2CA
330
1D
100
AcDbEntity
  8
0
100
AcDbLine
 10
77.3995
 20
810.15569
 30
0.0
 11
78.8133
 21
810.97169
 31
0.0
  0
LINE
  5
2CB
330
1D
100
AcDbEntity
  8
0
100
AcDbLine
 10
77.1325
 20
810.29769
 30
0.0
 11
78.6016
 21
811.14569
 31
0.0
  0
LINE
  5
2CC
330
1D
100
AcDbEntity
  8
0
100
AcDbLine
 10
78.6016
 20
811.14569
 30
0.0
 11
80.2643
 21
812.10569
 31
0.0
  0
LINE
  5
2CD
330
1D
100
AcDbEntity
  8
0
100
AcDbLine
 10
78.8133
 20
810.97169
 30
0.0
 11
80.4206
 21
811.89969
 31
0.0
  0
LINE
  5
2CE
330
1D
100
AcDbEntity
  8
0
100
AcDbLine
 10
78.8586
 20
810.70069
 30
0.0
 11
80.5215
 21
811.66069
 31
0.0
  0
LINE
  5
2CF
330
1D
100
AcDbEntity
  8
0
100
AcDbLine
 10
69.5235
 20
813.53369
 30
0.0
 11
71.6945
 21
812.63469
 31
0.0
  0
LINE
  5
2D0
330
1D
100
AcDbEntity
  8
0
100
AcDbLine
 10
82.295
 20
812.68469
 30
0.0
 11
84.0686
 21
813.70869
 31
0.0
  0
LINE
  5
2D1
330
1D
100
AcDbEntity
  8
0
100
AcDbLine
 10
80.4206
 20
811.89969
 30
0.0
 11
82.1664
 21
812.90769
 31
0.0
  0
LINE
  5
2D2
330
1D
100
AcDbEntity
  8
0
100
AcDbLine
 10
80.5215
 20
811.66069
 30
0.0
 11
82.295
 21
812.68469
 31
0.0
  0
LINE
  5
2D3
330
1D
100
AcDbEntity
  8
0
100
AcDbLine
 10
80.2643
 20
812.10569
 30
0.0
 11
82.0379
 21
813.12969
 31
0.0
  0
LINE
  5
2D4
330
1D
100
AcDbEntity
  8
0
100
AcDbLine
 10
82.0379
 20
813.12969
 30
0.0
 11
83.8116
 21
814.15369
 31
0.0
  0
LINE
  5
2D5
330
1D
100
AcDbEntity
  8
0
100
AcDbLine
 10
84.0686
 20
813.70869
 30
0.0
 11
85.7315
 21
814.66869
 31
0.0
  0
LINE
  5
2D6
330
1D
100
AcDbEntity
  8
0
100
AcDbLine
 10
82.1664
 20
812.90769
 30
0.0
 11
83.9125
 21
813.91569
 31
0.0
  0
LINE
  5
2D7
330
1D
100
AcDbEntity
  8
0
100
AcDbLine
 10
71.6945
 20
812.63469
 30
0.0
 11
73.5585
 21
811.20369
 31
0.0
  0
LINE
  5
2D8
330
1D
100
AcDbEntity
  8
0
100
AcDbLine
 10
73.5585
 20
811.20369
 30
0.0
 11
75.1095
 21
809.12969
 31
0.0
  0
LINE
  5
2D9
330
1D
100
AcDbEntity
  8
0
100
AcDbLine
 10
64.8645
 20
813.53369
 30
0.0
 11
67.1945
 21
813.84069
 31
0.0
  0
LINE
  5
2DA
330
1D
100
AcDbEntity
  8
0
100
AcDbLine
 10
83.9125
 20
813.91569
 30
0.0
 11
85.5198
 21
814.84369
 31
0.0
  0
LINE
  5
2DB
330
1D
100
AcDbEntity
  8
0
100
AcDbLine
 10
83.8116
 20
814.15369
 30
0.0
 11
85.4743
 21
815.11369
 31
0.0
  0
LINE
  5
2DC
330
1D
100
AcDbEntity
  8
0
100
AcDbLine
 10
85.4743
 20
815.11369
 30
0.0
 11
86.9431
 21
815.96169
 31
0.0
  0
LINE
  5
2DD
330
1D
100
AcDbEntity
  8
0
100
AcDbLine
 10
85.5198
 20
814.84369
 30
0.0
 11
86.9331
 21
815.65969
 31
0.0
  0
LINE
  5
2DE
330
1D
100
AcDbEntity
  8
0
100
AcDbLine
 10
85.7315
 20
814.66869
 30
0.0
 11
87.2002
 21
815.51669
 31
0.0
  0
LINE
  5
2DF
330
1D
100
AcDbEntity
  8
0
100
AcDbLine
 10
86.9431
 20
815.96169
 30
0.0
 11
88.0516
 21
816.60169
 31
0.0
  0
LINE
  5
2E0
330
1D
100
AcDbEntity
  8
0
100
AcDbLine
 10
86.9331
 20
815.65969
 30
0.0
 11
88.014
 21
816.28369
 31
0.0
  0
LINE
  5
2E1
330
1D
100
AcDbEntity
  8
0
100
AcDbLine
 10
88.0516
 20
816.60169
 30
0.0
 11
88.7167
 21
816.98569
 31
0.0
  0
LINE
  5
2E2
330
1D
100
AcDbEntity
  8
0
100
AcDbLine
 10
88.6791
 20
816.66769
 30
0.0
 11
88.9284
 21
816.81169
 31
0.0
  0
LINE
  5
2E3
330
1D
100
AcDbEntity
  8
0
100
AcDbLine
 10
88.9739
 20
816.54069
 30
0.0
 11
89.2232
 21
816.68469
 31
0.0
  0
LINE
  5
2E4
330
1D
100
AcDbEntity
  8
0
100
AcDbLine
 10
88.014
 20
816.28369
 30
0.0
 11
88.6791
 21
816.66769
 31
0.0
  0
LINE
  5
2E5
330
1D
100
AcDbEntity
  8
0
100
AcDbLine
 10
88.3088
 20
816.15669
 30
0.0
 11
88.9739
 21
816.54069
 31
0.0
  0
LINE
  5
2E6
330
1D
100
AcDbEntity
  8
0
100
AcDbLine
 10
87.2002
 20
815.51669
 30
0.0
 11
88.3088
 21
816.15669
 31
0.0
  0
LINE
  5
2E7
330
1D
100
AcDbEntity
  8
0
100
AcDbLine
 10
89.2232
 20
816.68469
 30
0.0
 11
114.8446
 21
772.30669
 31
0.0
  0
LINE
  5
2E8
330
1D
100
AcDbEntity
  8
0
100
AcDbLine
 10
88.7167
 20
816.98569
 30
0.0
 11
88.9661
 21
817.12969
 31
0.0
  0
LINE
  5
2E9
330
1D
100
AcDbEntity
  8
0
100
AcDbLine
 10
88.9284
 20
816.81169
 30
0.0
 11
88.9661
 21
817.12969
 31
0.0
  0
LINE
  5
2EA
330
1D
100
AcDbEntity
  8
0
100
AcDbLine
 10
88.9284
 20
816.81169
 30
0.0
 11
89.2232
 21
816.68469
 31
0.0
  0
LINE
  5
2EB
330
1D
100
AcDbEntity
  8
0
100
AcDbLine
 10
84.8717
 20
822.51769
 30
0.0
 11
88.9661
 21
817.12969
 31
0.0
  0
LINE
  5
2EC
330
1D
100
AcDbEntity
  8
0
100
AcDbLine
 10
73.6645
 20
828.98869
 30
0.0
 11
79.6941
 21
826.49069
 31
0.0
  0
LINE
  5
2ED
330
1D
100
AcDbEntity
  8
0
100
AcDbLine
 10
79.6941
 20
826.49069
 30
0.0
 11
84.8717
 21
822.51769
 31
0.0
  0
LINE
  5
2EE
330
1D
100
AcDbEntity
  8
0
100
AcDbLine
 10
67.1945
 20
829.84069
 30
0.0
 11
73.6645
 21
828.98869
 31
0.0
  0
LINE
  5
2EF
330
1D
100
AcDbEntity
  8
0
100
AcDbLine
 10
67.1945
 20
813.84069
 30
0.0
 11
69.5235
 21
813.53369
 31
0.0
  0
LINE
  5
2F0
330
1D
100
AcDbEntity
  8
0
100
AcDbLine
 10
63.2945
 20
811.59569
 30
0.0
 11
63.4445
 21
811.33569
 31
0.0
  0
LINE
  5
2F1
330
1D
100
AcDbEntity
  8
0
100
AcDbLine
 10
63.0785
 20
809.96969
 30
0.0
 11
63.4445
 21
811.33569
 31
0.0
  0
LINE
  5
2F2
330
1D
100
AcDbEntity
  8
0
100
AcDbLine
 10
59.6805
 20
806.85369
 30
0.0
 11
63.0785
 21
809.96969
 31
0.0
  0
LINE
  5
2F3
330
1D
100
AcDbEntity
  8
0
100
AcDbLine
 10
58.6985
 20
804.55469
 30
0.0
 11
59.6805
 21
806.85369
 31
0.0
  0
LINE
  5
2F4
330
1D
100
AcDbEntity
  8
0
100
AcDbLine
 10
58.3995
 20
802.07269
 30
0.0
 11
63.5335
 21
791.17969
 31
0.0
  0
LINE
  5
2F5
330
1D
100
AcDbEntity
  8
0
100
AcDbLine
 10
58.3995
 20
802.07269
 30
0.0
 11
58.6985
 21
804.55469
 31
0.0
  0
LINE
  5
2F6
330
1D
100
AcDbEntity
  8
0
100
AcDbLine
 10
179.5315
 20
911.92569
 30
0.0
 11
179.5315
 21
911.52569
 31
0.0
  0
LINE
  5
2F7
330
1D
100
AcDbEntity
  8
0
100
AcDbLine
 10
179.5315
 20
911.92569
 30
0.0
 11
179.5315
 21
912.82569
 31
0.0
  0
LINE
  5
2F8
330
1D
100
AcDbEntity
  8
0
100
AcDbLine
 10
179.5315
 20
911.52569
 30
0.0
 11
182.5315
 21
911.52569
 31
0.0
  0
LINE
  5
2F9
330
1D
100
AcDbEntity
  8
0
100
AcDbLine
 10
179.5315
 20
911.52569
 30
0.0
 11
179.5315
 21
911.92569
 31
0.0
  0
LINE
  5
2FA
330
1D
100
AcDbEntity
  8
0
100
AcDbLine
 10
178.0315
 20
921.52569
 30
0.0
 11
178.5315
 21
917.02569
 31
0.0
  0
LINE
  5
2FB
330
1D
100
AcDbEntity
  8
0
100
AcDbLine
 10
178.0315
 20
921.52569
 30
0.0
 11
178.5315
 21
926.02569
 31
0.0
  0
LINE
  5
2FC
330
1D
100
AcDbEntity
  8
0
100
AcDbLine
 10
178.5315
 20
917.02569
 30
0.0
 11
179.0315
 21
914.02569
 31
0.0
  0
LINE
  5
2FD
330
1D
100
AcDbEntity
  8
0
100
AcDbLine
 10
179.5315
 20
916.52569
 30
0.0
 11
179.5315
 21
914.42569
 31
0.0
  0
LINE
  5
2FE
330
1D
100
AcDbEntity
  8
0
100
AcDbLine
 10
179.5315
 20
916.52569
 30
0.0
 11
179.5315
 21
918.92569
 31
0.0
  0
LINE
  5
2FF
330
1D
100
AcDbEntity
  8
0
100
AcDbLine
 10
179.5315
 20
918.92569
 30
0.0
 11
179.5315
 21
916.52569
 31
0.0
  0
LINE
  5
300
330
1D
100
AcDbEntity
  8
0
100
AcDbLine
 10
179.5315
 20
918.92569
 30
0.0
 11
179.5315
 21
921.52569
 31
0.0
  0
LINE
  5
301
330
1D
100
AcDbEntity
  8
0
100
AcDbLine
 10
179.5315
 20
921.52569
 30
0.0
 11
179.5315
 21
918.92569
 31
0.0
  0
LINE
  5
302
330
1D
100
AcDbEntity
  8
0
100
AcDbLine
 10
179.5315
 20
921.52569
 30
0.0
 11
179.5315
 21
924.12569
 31
0.0
  0
LINE
  5
303
330
1D
100
AcDbEntity
  8
0
100
AcDbLine
 10
179.5315
 20
914.42569
 30
0.0
 11
179.5315
 21
912.82569
 31
0.0
  0
LINE
  5
304
330
1D
100
AcDbEntity
  8
0
100
AcDbLine
 10
179.5315
 20
914.42569
 30
0.0
 11
179.5315
 21
916.52569
 31
0.0
  0
LINE
  5
305
330
1D
100
AcDbEntity
  8
0
100
AcDbLine
 10
179.5315
 20
912.82569
 30
0.0
 11
179.5315
 21
911.92569
 31
0.0
  0
LINE
  5
306
330
1D
100
AcDbEntity
  8
0
100
AcDbLine
 10
179.5315
 20
912.82569
 30
0.0
 11
179.5315
 21
914.42569
 31
0.0
  0
LINE
  5
307
330
1D
100
AcDbEntity
  8
0
100
AcDbLine
 10
179.0315
 20
914.02569
 30
0.0
 11
179.5315
 21
911.52569
 31
0.0
  0
LINE
  5
308
330
1D
100
AcDbEntity
  8
0
100
AcDbLine
 10
178.5315
 20
926.02569
 30
0.0
 11
179.0315
 21
929.02569
 31
0.0
  0
LINE
  5
309
330
1D
100
AcDbEntity
  8
0
100
AcDbLine
 10
179.0315
 20
929.02569
 30
0.0
 11
179.5315
 21
931.52569
 31
0.0
  0
LINE
  5
30A
330
1D
100
AcDbEntity
  8
0
100
AcDbLine
 10
179.5315
 20
930.22569
 30
0.0
 11
179.5315
 21
928.62569
 31
0.0
  0
LINE
  5
30B
330
1D
100
AcDbEntity
  8
0
100
AcDbLine
 10
179.5315
 20
930.22569
 30
0.0
 11
179.5315
 21
931.12569
 31
0.0
  0
LINE
  5
30C
330
1D
100
AcDbEntity
  8
0
100
AcDbLine
 10
179.5315
 20
931.12569
 30
0.0
 11
179.5315
 21
930.22569
 31
0.0
  0
LINE
  5
30D
330
1D
100
AcDbEntity
  8
0
100
AcDbLine
 10
179.5315
 20
931.12569
 30
0.0
 11
179.5315
 21
931.52569
 31
0.0
  0
LINE
  5
30E
330
1D
100
AcDbEntity
  8
0
100
AcDbLine
 10
179.5315
 20
931.52569
 30
0.0
 11
179.5315
 21
931.12569
 31
0.0
  0
LINE
  5
30F
330
1D
100
AcDbEntity
  8
0
100
AcDbLine
 10
179.5315
 20
931.52569
 30
0.0
 11
182.651119471577
 21
931.52569
 31
0.0
  0
LINE
  5
310
330
1D
100
AcDbEntity
  8
0
100
AcDbLine
 10
179.5315
 20
928.62569
 30
0.0
 11
179.5315
 21
926.52569
 31
0.0
  0
LINE
  5
311
330
1D
100
AcDbEntity
  8
0
100
AcDbLine
 10
179.5315
 20
928.62569
 30
0.0
 11
179.5315
 21
930.22569
 31
0.0
  0
LINE
  5
312
330
1D
100
AcDbEntity
  8
0
100
AcDbLine
 10
179.5315
 20
926.52569
 30
0.0
 11
179.5315
 21
924.12569
 31
0.0
  0
LINE
  5
313
330
1D
100
AcDbEntity
  8
0
100
AcDbLine
 10
179.5315
 20
926.52569
 30
0.0
 11
179.5315
 21
928.62569
 31
0.0
  0
LINE
  5
314
330
1D
100
AcDbEntity
  8
0
100
AcDbLine
 10
179.5315
 20
924.12569
 30
0.0
 11
179.5315
 21
921.52569
 31
0.0
  0
LINE
  5
315
330
1D
100
AcDbEntity
  8
0
100
AcDbLine
 10
179.5315
 20
924.12569
 30
0.0
 11
179.5315
 21
926.52569
 31
0.0
  0
LINE
  5
31A
330
1D
100
AcDbEntity
  8
0
100
AcDbLine
 10
229.0315
 20
889.02569
 30
0.0
 11
229.0315
 21
890.19569
 31
0.0
  0
LINE
  5
31B
330
1D
100
AcDbEntity
  8
0
100
AcDbLine
 10
229.0315
 20
889.02569
 30
0.0
 11
230.0315
 21
889.02569
 31
0.0
  0
LINE
  5
31C
330
1D
100
AcDbEntity
  8
0
100
AcDbLine
 10
229.0315
 20
889.02569
 30
0.0
 11
229.0315
 21
889.52569
 31
0.0
  0
LINE
  5
31D
330
1D
100
AcDbEntity
  8
0
100
AcDbLine
 10
230.0315
 20
889.02569
 30
0.0
 11
230.0315
 21
890.19569
 31
0.0
  0
LINE
  5
31E
330
1D
100
AcDbEntity
  8
0
100
AcDbLine
 10
229.0315
 20
889.52569
 30
0.0
 11
229.0315
 21
890.70769
 31
0.0
  0
LINE
  5
31F
330
1D
100
AcDbEntity
  8
0
100
AcDbLine
 10
229.0315
 20
889.52569
 30
0.0
 11
229.0315
 21
889.02569
 31
0.0
  0
LINE
  5
320
330
1D
100
AcDbEntity
  8
0
100
AcDbLine
 10
216.5315
 20
898.28869
 30
0.0
 11
216.5315
 21
897.40269
 31
0.0
  0
LINE
  5
321
330
1D
100
AcDbEntity
  8
0
100
AcDbLine
 10
216.5315
 20
898.28869
 30
0.0
 11
216.5315
 21
900.65169
 31
0.0
  0
LINE
  5
322
330
1D
100
AcDbEntity
  8
0
100
AcDbLine
 10
202.52677924674
 20
909.972957715735
 30
0.0
 11
203.0315
 21
908.23369
 31
0.0
  0
LINE
  5
323
330
1D
100
AcDbEntity
  8
0
100
AcDbLine
 10
203.0315
 20
908.23369
 30
0.0
 11
204.5315
 21
905.77169
 31
0.0
  0
LINE
  5
324
330
1D
100
AcDbEntity
  8
0
100
AcDbLine
 10
204.5315
 20
905.77169
 30
0.0
 11
207.0315
 21
902.81769
 31
0.0
  0
LINE
  5
325
330
1D
100
AcDbEntity
  8
0
100
AcDbLine
 10
207.0315
 20
902.81769
 30
0.0
 11
210.0315
 21
900.35669
 31
0.0
  0
LINE
  5
326
330
1D
100
AcDbEntity
  8
0
100
AcDbLine
 10
216.5315
 20
909.51369
 30
0.0
 11
216.5315
 21
904.49169
 31
0.0
  0
LINE
  5
327
330
1D
100
AcDbEntity
  8
0
100
AcDbLine
 10
216.5315
 20
909.51369
 30
0.0
 11
216.5315
 21
915.32269
 31
0.0
  0
LINE
  5
328
330
1D
100
AcDbEntity
  8
0
100
AcDbLine
 10
216.5315
 20
904.49169
 30
0.0
 11
216.5315
 21
900.65169
 31
0.0
  0
LINE
  5
329
330
1D
100
AcDbEntity
  8
0
100
AcDbLine
 10
216.5315
 20
904.49169
 30
0.0
 11
216.5315
 21
909.51369
 31
0.0
  0
LINE
  5
32A
330
1D
100
AcDbEntity
  8
0
100
AcDbLine
 10
216.5315
 20
900.65169
 30
0.0
 11
216.5315
 21
898.28869
 31
0.0
  0
LINE
  5
32B
330
1D
100
AcDbEntity
  8
0
100
AcDbLine
 10
216.5315
 20
900.65169
 30
0.0
 11
216.5315
 21
904.49169
 31
0.0
  0
LINE
  5
32C
330
1D
100
AcDbEntity
  8
0
100
AcDbLine
 10
210.0315
 20
900.35669
 30
0.0
 11
213.5315
 21
898.38769
 31
0.0
  0
LINE
  5
32D
330
1D
100
AcDbEntity
  8
0
100
AcDbLine
 10
213.5315
 20
898.38769
 30
0.0
 11
216.5315
 21
897.40269
 31
0.0
  0
LINE
  5
32E
330
1D
100
AcDbEntity
  8
0
100
AcDbLine
 10
216.5315
 20
897.40269
 30
0.0
 11
217.0315
 21
896.41769
 31
0.0
  0
LINE
  5
32F
330
1D
100
AcDbEntity
  8
0
100
AcDbLine
 10
216.5315
 20
897.40269
 30
0.0
 11
216.5315
 21
898.28869
 31
0.0
  0
LINE
  5
330
330
1D
100
AcDbEntity
  8
0
100
AcDbLine
 10
217.0315
 20
896.41769
 30
0.0
 11
218.0315
 21
895.43369
 31
0.0
  0
LINE
  5
331
330
1D
100
AcDbEntity
  8
0
100
AcDbLine
 10
219.0315
 20
908.33169
 30
0.0
 11
219.0315
 21
902.81769
 31
0.0
  0
LINE
  5
332
330
1D
100
AcDbEntity
  8
0
100
AcDbLine
 10
219.0315
 20
908.33169
 30
0.0
 11
219.0315
 21
914.73169
 31
0.0
  0
LINE
  5
333
330
1D
100
AcDbEntity
  8
0
100
AcDbLine
 10
219.0315
 20
902.81769
 30
0.0
 11
219.0315
 21
898.48569
 31
0.0
  0
LINE
  5
334
330
1D
100
AcDbEntity
  8
0
100
AcDbLine
 10
219.0315
 20
902.81769
 30
0.0
 11
219.0315
 21
908.33169
 31
0.0
  0
LINE
  5
335
330
1D
100
AcDbEntity
  8
0
100
AcDbLine
 10
219.0315
 20
898.48569
 30
0.0
 11
219.0315
 21
895.92569
 31
0.0
  0
LINE
  5
336
330
1D
100
AcDbEntity
  8
0
100
AcDbLine
 10
219.0315
 20
898.48569
 30
0.0
 11
219.0315
 21
902.81769
 31
0.0
  0
LINE
  5
337
330
1D
100
AcDbEntity
  8
0
100
AcDbLine
 10
219.0315
 20
895.92569
 30
0.0
 11
219.0315
 21
894.94069
 31
0.0
  0
LINE
  5
338
330
1D
100
AcDbEntity
  8
0
100
AcDbLine
 10
219.0315
 20
895.92569
 30
0.0
 11
219.0315
 21
898.48569
 31
0.0
  0
LINE
  5
339
330
1D
100
AcDbEntity
  8
0
100
AcDbLine
 10
218.0315
 20
895.43369
 30
0.0
 11
219.0315
 21
894.94069
 31
0.0
  0
LINE
  5
33A
330
1D
100
AcDbEntity
  8
0
100
AcDbLine
 10
219.0315
 20
894.94069
 30
0.0
 11
219.5315
 21
893.95669
 31
0.0
  0
LINE
  5
33B
330
1D
100
AcDbEntity
  8
0
100
AcDbLine
 10
219.0315
 20
894.94069
 30
0.0
 11
219.0315
 21
895.92569
 31
0.0
  0
LINE
  5
33C
330
1D
100
AcDbEntity
  8
0
100
AcDbLine
 10
219.5315
 20
893.95669
 30
0.0
 11
221.0315
 21
892.47969
 31
0.0
  0
LINE
  5
33D
330
1D
100
AcDbEntity
  8
0
100
AcDbLine
 10
221.0315
 20
892.47969
 30
0.0
 11
223.0315
 21
891.00269
 31
0.0
  0
LINE
  5
33E
330
1D
100
AcDbEntity
  8
0
100
AcDbLine
 10
230.0315
 20
890.19569
 30
0.0
 11
230.0315
 21
893.31569
 31
0.0
  0
LINE
  5
33F
330
1D
100
AcDbEntity
  8
0
100
AcDbLine
 10
230.0315
 20
890.19569
 30
0.0
 11
230.0315
 21
889.02569
 31
0.0
  0
LINE
  5
340
330
1D
100
AcDbEntity
  8
0
100
AcDbLine
 10
229.0315
 20
890.19569
 30
0.0
 11
229.0315
 21
893.31569
 31
0.0
  0
LINE
  5
341
330
1D
100
AcDbEntity
  8
0
100
AcDbLine
 10
229.0315
 20
890.19569
 30
0.0
 11
229.0315
 21
889.02569
 31
0.0
  0
LINE
  5
342
330
1D
100
AcDbEntity
  8
0
100
AcDbLine
 10
229.0315
 20
893.31569
 30
0.0
 11
229.0315
 21
898.51569
 31
0.0
  0
LINE
  5
343
330
1D
100
AcDbEntity
  8
0
100
AcDbLine
 10
229.0315
 20
893.31569
 30
0.0
 11
229.0315
 21
890.19569
 31
0.0
  0
LINE
  5
344
330
1D
100
AcDbEntity
  8
0
100
AcDbLine
 10
229.0315
 20
898.51569
 30
0.0
 11
229.0315
 21
905.40569
 31
0.0
  0
LINE
  5
345
330
1D
100
AcDbEntity
  8
0
100
AcDbLine
 10
229.0315
 20
898.51569
 30
0.0
 11
229.0315
 21
893.31569
 31
0.0
  0
LINE
  5
346
330
1D
100
AcDbEntity
  8
0
100
AcDbLine
 10
229.0315
 20
905.40569
 30
0.0
 11
229.0315
 21
913.20569
 31
0.0
  0
LINE
  5
347
330
1D
100
AcDbEntity
  8
0
100
AcDbLine
 10
229.0315
 20
905.40569
 30
0.0
 11
229.0315
 21
898.51569
 31
0.0
  0
LINE
  5
348
330
1D
100
AcDbEntity
  8
0
100
AcDbLine
 10
229.0315
 20
898.87969
 30
0.0
 11
229.0315
 21
905.57469
 31
0.0
  0
LINE
  5
349
330
1D
100
AcDbEntity
  8
0
100
AcDbLine
 10
229.0315
 20
905.57469
 30
0.0
 11
229.0315
 21
913.25469
 31
0.0
  0
LINE
  5
34A
330
1D
100
AcDbEntity
  8
0
100
AcDbLine
 10
230.0315
 20
893.31569
 30
0.0
 11
230.0315
 21
898.51569
 31
0.0
  0
LINE
  5
34B
330
1D
100
AcDbEntity
  8
0
100
AcDbLine
 10
230.0315
 20
893.31569
 30
0.0
 11
230.0315
 21
890.19569
 31
0.0
  0
LINE
  5
34C
330
1D
100
AcDbEntity
  8
0
100
AcDbLine
 10
230.0315
 20
898.51569
 30
0.0
 11
230.0315
 21
905.40569
 31
0.0
  0
LINE
  5
34D
330
1D
100
AcDbEntity
  8
0
100
AcDbLine
 10
230.0315
 20
898.51569
 30
0.0
 11
230.0315
 21
893.31569
 31
0.0
  0
LINE
  5
34E
330
1D
100
AcDbEntity
  8
0
100
AcDbLine
 10
230.0315
 20
905.40569
 30
0.0
 11
230.0315
 21
913.20569
 31
0.0
  0
LINE
  5
34F
330
1D
100
AcDbEntity
  8
0
100
AcDbLine
 10
230.0315
 20
905.40569
 30
0.0
 11
230.0315
 21
898.51569
 31
0.0
  0
LINE
  5
350
330
1D
100
AcDbEntity
  8
0
100
AcDbLine
 10
229.0315
 20
893.85769
 30
0.0
 11
229.0315
 21
898.87969
 31
0.0
  0
LINE
  5
351
330
1D
100
AcDbEntity
  8
0
100
AcDbLine
 10
229.0315
 20
890.70769
 30
0.0
 11
229.0315
 21
893.85769
 31
0.0
  0
LINE
  5
352
330
1D
100
AcDbEntity
  8
0
100
AcDbLine
 10
223.0315
 20
891.00269
 30
0.0
 11
225.5315
 21
890.01769
 31
0.0
  0
LINE
  5
353
330
1D
100
AcDbEntity
  8
0
100
AcDbLine
 10
225.5315
 20
890.01769
 30
0.0
 11
229.0315
 21
889.52569
 31
0.0
  0
LINE
  5
35A
330
1D
100
AcDbEntity
  8
0
100
AcDbLine
 10
182.606014396313
 20
931.477063073864
 30
0.0
 11
183.19004
 21
932.10669
 31
0.0
  0
LINE
  5
35D
330
1D
100
AcDbEntity
  8
0
100
AcDbLine
 10
230.0315
 20
913.20569
 30
0.0
 11
230.0315
 21
921.52569
 31
0.0
  0
LINE
  5
35E
330
1D
100
AcDbEntity
  8
0
100
AcDbLine
 10
230.0315
 20
913.20569
 30
0.0
 11
230.0315
 21
905.40569
 31
0.0
  0
LINE
  5
35F
330
1D
100
AcDbEntity
  8
0
100
AcDbLine
 10
229.0315
 20
913.20569
 30
0.0
 11
229.0315
 21
921.52569
 31
0.0
  0
LINE
  5
360
330
1D
100
AcDbEntity
  8
0
100
AcDbLine
 10
229.0315
 20
913.20569
 30
0.0
 11
229.0315
 21
905.40569
 31
0.0
  0
LINE
  5
361
330
1D
100
AcDbEntity
  8
0
100
AcDbLine
 10
219.0315
 20
914.73169
 30
0.0
 11
219.0315
 21
908.33169
 31
0.0
  0
LINE
  5
362
330
1D
100
AcDbEntity
  8
0
100
AcDbLine
 10
219.0315
 20
914.73169
 30
0.0
 11
219.0315
 21
921.52569
 31
0.0
  0
LINE
  5
363
330
1D
100
AcDbEntity
  8
0
100
AcDbLine
 10
229.0315
 20
913.25469
 30
0.0
 11
229.0315
 21
921.52569
 31
0.0
  0
LINE
  5
369
330
1D
100
AcDbEntity
  8
0
100
AcDbLine
 10
183.19004
 20
932.10669
 30
0.0
 11
185.95083
 21
934.06069
 31
0.0
  0
LINE
  5
36A
330
1D
100
AcDbEntity
  8
0
100
AcDbLine
 10
199.0646
 20
934.06069
 30
0.0
 11
201.8253
 21
932.10669
 31
0.0
  0
LINE
  5
36B
330
1D
100
AcDbEntity
  8
0
100
AcDbLine
 10
195.9587
 20
935.19969
 30
0.0
 11
199.0646
 21
934.06069
 31
0.0
  0
LINE
  5
36C
330
1D
100
AcDbEntity
  8
0
100
AcDbLine
 10
185.95083
 20
934.06069
 30
0.0
 11
189.0567
 21
935.19969
 31
0.0
  0
LINE
  5
36D
330
1D
100
AcDbEntity
  8
0
100
AcDbLine
 10
192.5077
 20
935.52569
 30
0.0
 11
195.9587
 21
935.19969
 31
0.0
  0
LINE
  5
36E
330
1D
100
AcDbEntity
  8
0
100
AcDbLine
 10
189.0567
 20
935.19969
 30
0.0
 11
192.5077
 21
935.52569
 31
0.0
  0
LINE
  5
36F
330
1D
100
AcDbEntity
  8
0
100
AcDbLine
 10
216.5315
 20
915.32269
 30
0.0
 11
216.5315
 21
909.51369
 31
0.0
  0
LINE
  5
370
330
1D
100
AcDbEntity
  8
0
100
AcDbLine
 10
216.5315
 20
915.32269
 30
0.0
 11
216.5315
 21
921.52569
 31
0.0
  0
LINE
  5
374
330
1D
100
AcDbEntity
  8
0
100
AcDbLine
 10
230.0315
 20
921.52569
 30
0.0
 11
230.0315
 21
929.84569
 31
0.0
  0
LINE
  5
375
330
1D
100
AcDbEntity
  8
0
100
AcDbLine
 10
230.0315
 20
921.52569
 30
0.0
 11
230.0315
 21
913.20569
 31
0.0
  0
LINE
  5
376
330
1D
100
AcDbEntity
  8
0
100
AcDbLine
 10
229.0315
 20
921.52569
 30
0.0
 11
229.0315
 21
929.79669
 31
0.0
  0
LINE
  5
377
330
1D
100
AcDbEntity
  8
0
100
AcDbLine
 10
229.0315
 20
921.52569
 30
0.0
 11
229.0315
 21
929.84569
 31
0.0
  0
LINE
  5
378
330
1D
100
AcDbEntity
  8
0
100
AcDbLine
 10
229.0315
 20
921.52569
 30
0.0
 11
229.0315
 21
913.20569
 31
0.0
  0
LINE
  5
379
330
1D
100
AcDbEntity
  8
0
100
AcDbLine
 10
216.5315
 20
921.52569
 30
0.0
 11
216.5315
 21
915.32269
 31
0.0
  0
LINE
  5
37A
330
1D
100
AcDbEntity
  8
0
100
AcDbLine
 10
216.5315
 20
921.52569
 30
0.0
 11
216.5315
 21
927.72869
 31
0.0
  0
LINE
  5
37B
330
1D
100
AcDbEntity
  8
0
100
AcDbLine
 10
216.5315
 20
927.72869
 30
0.0
 11
216.5315
 21
921.52569
 31
0.0
  0
LINE
  5
37C
330
1D
100
AcDbEntity
  8
0
100
AcDbLine
 10
216.5315
 20
927.72869
 30
0.0
 11
216.5315
 21
933.53769
 31
0.0
  0
LINE
  5
37D
330
1D
100
AcDbEntity
  8
0
100
AcDbLine
 10
219.0315
 20
928.31969
 30
0.0
 11
219.0315
 21
921.52569
 31
0.0
  0
LINE
  5
37E
330
1D
100
AcDbEntity
  8
0
100
AcDbLine
 10
219.0315
 20
928.31969
 30
0.0
 11
219.0315
 21
934.71969
 31
0.0
  0
LINE
  5
37F
330
1D
100
AcDbEntity
  8
0
100
AcDbLine
 10
230.0315
 20
929.84569
 30
0.0
 11
230.0315
 21
937.64569
 31
0.0
  0
LINE
  5
380
330
1D
100
AcDbEntity
  8
0
100
AcDbLine
 10
230.0315
 20
929.84569
 30
0.0
 11
230.0315
 21
921.52569
 31
0.0
  0
LINE
  5
381
330
1D
100
AcDbEntity
  8
0
100
AcDbLine
 10
229.0315
 20
929.84569
 30
0.0
 11
229.0315
 21
937.64569
 31
0.0
  0
LINE
  5
382
330
1D
100
AcDbEntity
  8
0
100
AcDbLine
 10
229.0315
 20
929.84569
 30
0.0
 11
229.0315
 21
921.52569
 31
0.0
  0
LINE
  5
383
330
1D
100
AcDbEntity
  8
0
100
AcDbLine
 10
229.0315
 20
929.79669
 30
0.0
 11
229.0315
 21
937.47669
 31
0.0
  0
LINE
  5
384
330
1D
100
AcDbEntity
  8
0
100
AcDbLine
 10
202.14484914499
 20
931.762291153634
 30
0.0
 11
203.0315
 21
934.81769
 31
0.0
  0
LINE
  5
385
330
1D
100
AcDbEntity
  8
0
100
AcDbLine
 10
219.0315
 20
921.52569
 30
0.0
 11
219.0315
 21
914.73169
 31
0.0
  0
LINE
  5
386
330
1D
100
AcDbEntity
  8
0
100
AcDbLine
 10
219.0315
 20
921.52569
 30
0.0
 11
219.0315
 21
928.31969
 31
0.0
  0
LINE
  5
389
330
1D
100
AcDbEntity
  8
0
100
AcDbLine
 10
203.0315
 20
934.81769
 30
0.0
 11
204.5315
 21
937.27969
 31
0.0
  0
LINE
  5
38A
330
1D
100
AcDbEntity
  8
0
100
AcDbLine
 10
204.5315
 20
937.27969
 30
0.0
 11
207.0315
 21
940.23369
 31
0.0
  0
LINE
  5
38B
330
1D
100
AcDbEntity
  8
0
100
AcDbLine
 10
207.0315
 20
940.23369
 30
0.0
 11
210.0315
 21
942.69469
 31
0.0
  0
LINE
  5
38C
330
1D
100
AcDbEntity
  8
0
100
AcDbLine
 10
210.0315
 20
942.69469
 30
0.0
 11
213.5315
 21
944.66369
 31
0.0
  0
LINE
  5
38D
330
1D
100
AcDbEntity
  8
0
100
AcDbLine
 10
216.5315
 20
942.39969
 30
0.0
 11
216.5315
 21
938.55969
 31
0.0
  0
LINE
  5
38E
330
1D
100
AcDbEntity
  8
0
100
AcDbLine
 10
216.5315
 20
942.39969
 30
0.0
 11
216.5315
 21
944.76269
 31
0.0
  0
LINE
  5
38F
330
1D
100
AcDbEntity
  8
0
100
AcDbLine
 10
216.5315
 20
944.76269
 30
0.0
 11
216.5315
 21
942.39969
 31
0.0
  0
LINE
  5
390
330
1D
100
AcDbEntity
  8
0
100
AcDbLine
 10
216.5315
 20
944.76269
 30
0.0
 11
216.5315
 21
945.64869
 31
0.0
  0
LINE
  5
391
330
1D
100
AcDbEntity
  8
0
100
AcDbLine
 10
216.5315
 20
938.55969
 30
0.0
 11
216.5315
 21
933.53769
 31
0.0
  0
LINE
  5
392
330
1D
100
AcDbEntity
  8
0
100
AcDbLine
 10
216.5315
 20
938.55969
 30
0.0
 11
216.5315
 21
942.39969
 31
0.0
  0
LINE
  5
393
330
1D
100
AcDbEntity
  8
0
100
AcDbLine
 10
216.5315
 20
933.53769
 30
0.0
 11
216.5315
 21
927.72869
 31
0.0
  0
LINE
  5
394
330
1D
100
AcDbEntity
  8
0
100
AcDbLine
 10
216.5315
 20
933.53769
 30
0.0
 11
216.5315
 21
938.55969
 31
0.0
  0
LINE
  5
395
330
1D
100
AcDbEntity
  8
0
100
AcDbLine
 10
213.5315
 20
944.66369
 30
0.0
 11
216.5315
 21
945.64869
 31
0.0
  0
LINE
  5
396
330
1D
100
AcDbEntity
  8
0
100
AcDbLine
 10
216.5315
 20
945.64869
 30
0.0
 11
217.0315
 21
946.63369
 31
0.0
  0
LINE
  5
397
330
1D
100
AcDbEntity
  8
0
100
AcDbLine
 10
216.5315
 20
945.64869
 30
0.0
 11
216.5315
 21
944.76269
 31
0.0
  0
LINE
  5
398
330
1D
100
AcDbEntity
  8
0
100
AcDbLine
 10
219.0315
 20
944.56569
 30
0.0
 11
219.0315
 21
940.23369
 31
0.0
  0
LINE
  5
399
330
1D
100
AcDbEntity
  8
0
100
AcDbLine
 10
219.0315
 20
944.56569
 30
0.0
 11
219.0315
 21
947.12569
 31
0.0
  0
LINE
  5
39A
330
1D
100
AcDbEntity
  8
0
100
AcDbLine
 10
219.0315
 20
947.12569
 30
0.0
 11
219.0315
 21
944.56569
 31
0.0
  0
LINE
  5
39B
330
1D
100
AcDbEntity
  8
0
100
AcDbLine
 10
219.0315
 20
947.12569
 30
0.0
 11
219.0315
 21
948.11069
 31
0.0
  0
LINE
  5
39C
330
1D
100
AcDbEntity
  8
0
100
AcDbLine
 10
219.0315
 20
940.23369
 30
0.0
 11
219.0315
 21
934.71969
 31
0.0
  0
LINE
  5
39D
330
1D
100
AcDbEntity
  8
0
100
AcDbLine
 10
219.0315
 20
940.23369
 30
0.0
 11
219.0315
 21
944.56569
 31
0.0
  0
LINE
  5
39E
330
1D
100
AcDbEntity
  8
0
100
AcDbLine
 10
219.0315
 20
934.71969
 30
0.0
 11
219.0315
 21
928.31969
 31
0.0
  0
LINE
  5
39F
330
1D
100
AcDbEntity
  8
0
100
AcDbLine
 10
219.0315
 20
934.71969
 30
0.0
 11
219.0315
 21
940.23369
 31
0.0
  0
LINE
  5
3A0
330
1D
100
AcDbEntity
  8
0
100
AcDbLine
 10
217.0315
 20
946.63369
 30
0.0
 11
218.0315
 21
947.61769
 31
0.0
  0
LINE
  5
3A1
330
1D
100
AcDbEntity
  8
0
100
AcDbLine
 10
218.0315
 20
947.61769
 30
0.0
 11
219.0315
 21
948.11069
 31
0.0
  0
LINE
  5
3A2
330
1D
100
AcDbEntity
  8
0
100
AcDbLine
 10
219.0315
 20
948.11069
 30
0.0
 11
219.5315
 21
949.09469
 31
0.0
  0
LINE
  5
3A3
330
1D
100
AcDbEntity
  8
0
100
AcDbLine
 10
219.0315
 20
948.11069
 30
0.0
 11
219.0315
 21
947.12569
 31
0.0
  0
LINE
  5
3A4
330
1D
100
AcDbEntity
  8
0
100
AcDbLine
 10
219.5315
 20
949.09469
 30
0.0
 11
221.0315
 21
950.57169
 31
0.0
  0
LINE
  5
3A5
330
1D
100
AcDbEntity
  8
0
100
AcDbLine
 10
221.0315
 20
950.57169
 30
0.0
 11
223.0315
 21
952.04869
 31
0.0
  0
LINE
  5
3A6
330
1D
100
AcDbEntity
  8
0
100
AcDbLine
 10
223.0315
 20
952.04869
 30
0.0
 11
225.5315
 21
953.03369
 31
0.0
  0
LINE
  5
3A7
330
1D
100
AcDbEntity
  8
0
100
AcDbLine
 10
229.0315
 20
944.53569
 30
0.0
 11
229.0315
 21
949.73569
 31
0.0
  0
LINE
  5
3A8
330
1D
100
AcDbEntity
  8
0
100
AcDbLine
 10
229.0315
 20
944.53569
 30
0.0
 11
229.0315
 21
937.64569
 31
0.0
  0
LINE
  5
3A9
330
1D
100
AcDbEntity
  8
0
100
AcDbLine
 10
229.0315
 20
937.64569
 30
0.0
 11
229.0315
 21
944.53569
 31
0.0
  0
LINE
  5
3AA
330
1D
100
AcDbEntity
  8
0
100
AcDbLine
 10
229.0315
 20
937.64569
 30
0.0
 11
229.0315
 21
929.84569
 31
0.0
  0
LINE
  5
3AB
330
1D
100
AcDbEntity
  8
0
100
AcDbLine
 10
229.0315
 20
944.17169
 30
0.0
 11
229.0315
 21
949.19369
 31
0.0
  0
LINE
  5
3AC
330
1D
100
AcDbEntity
  8
0
100
AcDbLine
 10
229.0315
 20
952.85569
 30
0.0
 11
229.0315
 21
954.02569
 31
0.0
  0
LINE
  5
3AD
330
1D
100
AcDbEntity
  8
0
100
AcDbLine
 10
229.0315
 20
952.85569
 30
0.0
 11
229.0315
 21
949.73569
 31
0.0
  0
LINE
  5
3AE
330
1D
100
AcDbEntity
  8
0
100
AcDbLine
 10
229.0315
 20
949.73569
 30
0.0
 11
229.0315
 21
952.85569
 31
0.0
  0
LINE
  5
3AF
330
1D
100
AcDbEntity
  8
0
100
AcDbLine
 10
229.0315
 20
949.73569
 30
0.0
 11
229.0315
 21
944.53569
 31
0.0
  0
LINE
  5
3B0
330
1D
100
AcDbEntity
  8
0
100
AcDbLine
 10
229.0315
 20
953.52569
 30
0.0
 11
229.0315
 21
954.02569
 31
0.0
  0
LINE
  5
3B1
330
1D
100
AcDbEntity
  8
0
100
AcDbLine
 10
229.0315
 20
954.02569
 30
0.0
 11
229.0315
 21
953.52569
 31
0.0
  0
LINE
  5
3B2
330
1D
100
AcDbEntity
  8
0
100
AcDbLine
 10
229.0315
 20
954.02569
 30
0.0
 11
230.0315
 21
954.02569
 31
0.0
  0
LINE
  5
3B3
330
1D
100
AcDbEntity
  8
0
100
AcDbLine
 10
229.0315
 20
954.02569
 30
0.0
 11
229.0315
 21
952.85569
 31
0.0
  0
LINE
  5
3B4
330
1D
100
AcDbEntity
  8
0
100
AcDbLine
 10
229.0315
 20
949.19369
 30
0.0
 11
229.0315
 21
952.34369
 31
0.0
  0
LINE
  5
3B5
330
1D
100
AcDbEntity
  8
0
100
AcDbLine
 10
230.0315
 20
954.02569
 30
0.0
 11
230.0315
 21
952.85569
 31
0.0
  0
LINE
  5
3B6
330
1D
100
AcDbEntity
  8
0
100
AcDbLine
 10
230.0315
 20
952.85569
 30
0.0
 11
230.0315
 21
954.02569
 31
0.0
  0
LINE
  5
3B7
330
1D
100
AcDbEntity
  8
0
100
AcDbLine
 10
230.0315
 20
952.85569
 30
0.0
 11
230.0315
 21
949.73569
 31
0.0
  0
LINE
  5
3B8
330
1D
100
AcDbEntity
  8
0
100
AcDbLine
 10
230.0315
 20
949.73569
 30
0.0
 11
230.0315
 21
952.85569
 31
0.0
  0
LINE
  5
3B9
330
1D
100
AcDbEntity
  8
0
100
AcDbLine
 10
230.0315
 20
949.73569
 30
0.0
 11
230.0315
 21
944.53569
 31
0.0
  0
LINE
  5
3BA
330
1D
100
AcDbEntity
  8
0
100
AcDbLine
 10
230.0315
 20
944.53569
 30
0.0
 11
230.0315
 21
949.73569
 31
0.0
  0
LINE
  5
3BB
330
1D
100
AcDbEntity
  8
0
100
AcDbLine
 10
230.0315
 20
944.53569
 30
0.0
 11
230.0315
 21
937.64569
 31
0.0
  0
LINE
  5
3BC
330
1D
100
AcDbEntity
  8
0
100
AcDbLine
 10
230.0315
 20
937.64569
 30
0.0
 11
230.0315
 21
944.53569
 31
0.0
  0
LINE
  5
3BD
330
1D
100
AcDbEntity
  8
0
100
AcDbLine
 10
230.0315
 20
937.64569
 30
0.0
 11
230.0315
 21
929.84569
 31
0.0
  0
LINE
  5
3BE
330
1D
100
AcDbEntity
  8
0
100
AcDbLine
 10
229.0315
 20
952.34369
 30
0.0
 11
229.0315
 21
953.52569
 31
0.0
  0
LINE
  5
3BF
330
1D
100
AcDbEntity
  8
0
100
AcDbLine
 10
229.0315
 20
937.47669
 30
0.0
 11
229.0315
 21
944.17169
 31
0.0
  0
LINE
  5
3C0
330
1D
100
AcDbEntity
  8
0
100
AcDbLine
 10
225.5315
 20
953.03369
 30
0.0
 11
229.0315
 21
953.52569
 31
0.0
  0
LINE
  5
3C1
330
1D
100
AcDbEntity
  8
0
100
AcDbLine
 10
201.8253
 20
932.10669
 30
0.0
 11
202.14484914499
 21
931.762291153634
 31
0.0
  0
ENDSEC
  0
SECTION
  2
OBJECTS
  0
DICTIONARY
  5
C
330
0
100
AcDbDictionary
281
     1
  3
ACAD_GROUP
350
D
  3
ACAD_LAYOUT
350
1A
  3
ACAD_MLEADERSTYLE
350
3F7
  3
ACAD_MLINESTYLE
350
17
  3
ACAD_PLOTSETTINGS
350
19
  3
ACAD_PLOTSTYLENAME
350
E
  3
ACAD_SCALELIST
350
3D3
  3
AcDbVariableDictionary
350
3F5
  3
DWGPROPS
350
3FA
  0
DICTIONARY
  5
D
102
{ACAD_REACTORS
330
C
102
}
330
C
100
AcDbDictionary
281
     1
  0
DICTIONARY
  5
1A
102
{ACAD_REACTORS
330
C
102
}
330
C
100
AcDbDictionary
281
     1
  3
Layout1
350
1C
  3
Model
350
1E
  0
DICTIONARY
  5
3F7
102
{ACAD_REACTORS
330
C
102
}
330
C
100
AcDbDictionary
281
     1
  0
DICTIONARY
  5
17
102
{ACAD_REACTORS
330
C
102
}
330
C
100
AcDbDictionary
281
     1
  3
Standard
350
18
  0
DICTIONARY
  5
19
102
{ACAD_REACTORS
330
C
102
}
330
C
100
AcDbDictionary
281
     1
  0
ACDBDICTIONARYWDFLT
  5
E
102
{ACAD_REACTORS
330
C
102
}
330
C
100
AcDbDictionary
281
     1
  3
Normal
350
F
100
AcDbDictionaryWithDefault
340
F
  0
DICTIONARY
  5
3D3
102
{ACAD_REACTORS
330
C
102
}
330
C
100
AcDbDictionary
281
     1
  3
A0
350
3D4
  3
A1
350
3D5
  3
A2
350
3D6
  3
A3
350
3D7
  3
A4
350
3D8
  3
A5
350
3D9
  3
A6
350
3DA
  3
A7
350
3DB
  3
A8
350
3DC
  3
A9
350
3DD
  3
B0
350
3DE
  3
B1
350
3DF
  3
B2
350
3E0
  3
B3
350
3E1
  3
B4
350
3E2
  3
B5
350
3E3
  3
B6
350
3E4
  3
B7
350
3E5
  3
B8
350
3E6
  3
B9
350
3E7
  3
C0
350
3E8
  3
C1
350
3E9
  3
C2
350
3EA
  3
C3
350
3EB
  3
C4
350
3EC
  3
C5
350
3ED
  3
C6
350
3EE
  3
C7
350
3EF
  3
C8
350
3F0
  3
C9
350
3F1
  3
D0
350
3F2
  3
D1
350
3F3
  3
D2
350
3F4
  0
DICTIONARY
  5
3F5
102
{ACAD_REACTORS
330
C
102
}
330
C
100
AcDbDictionary
281
     1
  3
CANNOSCALE
350
3F8
  0
XRECORD
  5
3FA
102
{ACAD_REACTORS
330
C
102
}
330
C
100
AcDbXrecord
280
     1
  1
DWGPROPS COOKIE
  2

  3

  4

  6

  7

  8
MARTIN
  9

300
=
301
=
302
=
303
=
304
=
305
=
306
=
307
=
308
=
309
=
 40
0.0
 41
2455872.514641922
 42
2455872.515937315
  1

 90
        0
  0
LAYOUT
  5
1C
102
{ACAD_REACTORS
330
1A
102
}
330
1A
100
AcDbPlotSettings
  1

  2
none_device
  4

  6

 40
0.0
 41
0.0
 42
0.0
 43
0.0
 44
0.0
 45
0.0
 46
0.0
 47
0.0
 48
0.0
 49
0.0
140
0.0
141
0.0
142
1.0
143
1.0
 70
   688
 72
     0
 73
     0
 74
     5
  7

 75
    16
147
1.0
148
0.0
149
0.0
100
AcDbLayout
  1
Layout1
 70
     1
 71
     1
 10
0.0
 20
0.0
 11
12.0
 21
9.0
 12
0.0
 22
0.0
 32
0.0
 14
1.000000000000E+20
 24
1.000000000000E+20
 34
1.000000000000E+20
 15
-1.000000000000E+20
 25
-1.000000000000E+20
 35
-1.000000000000E+20
146
0.0
 13
0.0
 23
0.0
 33
0.0
 16
1.0
 26
0.0
 36
0.0
 17
0.0
 27
1.0
 37
0.0
 76
     0
330
1B
  0
LAYOUT
  5
1E
102
{ACAD_REACTORS
330
1A
102
}
330
1A
100
AcDbPlotSettings
  1

  2
none_device
  4

  6

 40
0.0
 41
0.0
 42
0.0
 43
0.0
 44
0.0
 45
0.0
 46
0.0
 47
0.0
 48
0.0
 49
0.0
140
0.0
141
0.0
142
1.0
143
1.0
 70
  1712
 72
     0
 73
     0
 74
     0
  7

 75
     0
147
1.0
148
0.0
149
0.0
100
AcDbLayout
  1
Model
 70
     1
 71
     0
 10
0.0
 20
0.0
 11
12.0
 21
9.0
 12
0.0
 22
0.0
 32
0.0
 14
-0.0315
 24
-0.02569
 34
0.0
 15
230.0315
 25
954.02569
 35
0.0
146
0.0
 13
0.0
 23
0.0
 33
0.0
 16
1.0
 26
0.0
 36
0.0
 17
0.0
 27
1.0
 37
0.0
 76
     0
330
1D
331
3CE
  0
MLINESTYLE
  5
18
102
{ACAD_REACTORS
330
17
102
}
330
17
100
AcDbMlineStyle
  2
Standard
 70
     0
  3

 62
   256
 51
90.0
 52
90.0
 71
     2
 49
0.5
 62
   256
  6
BYLAYER
 49
-0.5
 62
   256
  6
BYLAYER
  0
ACDBPLACEHOLDER
  5
F
102
{ACAD_REACTORS
330
E
102
}
330
E
  0
SCALE
  5
3D4
102
{ACAD_REACTORS
330
3D3
102
}
330
3D3
100
AcDbScale
 70
     0
300
1:1
140
1.0
141
1.0
290
     1
  0
SCALE
  5
3D5
102
{ACAD_REACTORS
330
3D3
102
}
330
3D3
100
AcDbScale
 70
     0
300
1:2
140
1.0
141
2.0
290
     0
  0
SCALE
  5
3D6
102
{ACAD_REACTORS
330
3D3
102
}
330
3D3
100
AcDbScale
 70
     0
300
1:4
140
1.0
141
4.0
290
     0
  0
SCALE
  5
3D7
102
{ACAD_REACTORS
330
3D3
102
}
330
3D3
100
AcDbScale
 70
     0
300
1:5
140
1.0
141
5.0
290
     0
  0
SCALE
  5
3D8
102
{ACAD_REACTORS
330
3D3
102
}
330
3D3
100
AcDbScale
 70
     0
300
1:8
140
1.0
141
8.0
290
     0
  0
SCALE
  5
3D9
102
{ACAD_REACTORS
330
3D3
102
}
330
3D3
100
AcDbScale
 70
     0
300
1:10
140
1.0
141
10.0
290
     0
  0
SCALE
  5
3DA
102
{ACAD_REACTORS
330
3D3
102
}
330
3D3
100
AcDbScale
 70
     0
300
1:16
140
1.0
141
16.0
290
     0
  0
SCALE
  5
3DB
102
{ACAD_REACTORS
330
3D3
102
}
330
3D3
100
AcDbScale
 70
     0
300
1:20
140
1.0
141
20.0
290
     0
  0
SCALE
  5
3DC
102
{ACAD_REACTORS
330
3D3
102
}
330
3D3
100
AcDbScale
 70
     0
300
1:30
140
1.0
141
30.0
290
     0
  0
SCALE
  5
3DD
102
{ACAD_REACTORS
330
3D3
102
}
330
3D3
100
AcDbScale
 70
     0
300
1:40
140
1.0
141
40.0
290
     0
  0
SCALE
  5
3DE
102
{ACAD_REACTORS
330
3D3
102
}
330
3D3
100
AcDbScale
 70
     0
300
1:50
140
1.0
141
50.0
290
     0
  0
SCALE
  5
3DF
102
{ACAD_REACTORS
330
3D3
102
}
330
3D3
100
AcDbScale
 70
     0
300
1:100
140
1.0
141
100.0
290
     0
  0
SCALE
  5
3E0
102
{ACAD_REACTORS
330
3D3
102
}
330
3D3
100
AcDbScale
 70
     0
300
2:1
140
2.0
141
1.0
290
     0
  0
SCALE
  5
3E1
102
{ACAD_REACTORS
330
3D3
102
}
330
3D3
100
AcDbScale
 70
     0
300
4:1
140
4.0
141
1.0
290
     0
  0
SCALE
  5
3E2
102
{ACAD_REACTORS
330
3D3
102
}
330
3D3
100
AcDbScale
 70
     0
300
8:1
140
8.0
141
1.0
290
     0
  0
SCALE
  5
3E3
102
{ACAD_REACTORS
330
3D3
102
}
330
3D3
100
AcDbScale
 70
     0
300
10:1
140
10.0
141
1.0
290
     0
  0
SCALE
  5
3E4
102
{ACAD_REACTORS
330
3D3
102
}
330
3D3
100
AcDbScale
 70
     0
300
100:1
140
100.0
141
1.0
290
     0
  0
SCALE
  5
3E5
102
{ACAD_REACTORS
330
3D3
102
}
330
3D3
100
AcDbScale
 70
     0
300
1/128" = 1'-0"
140
0.0078125
141
12.0
290
     0
  0
SCALE
  5
3E6
102
{ACAD_REACTORS
330
3D3
102
}
330
3D3
100
AcDbScale
 70
     0
300
1/64" = 1'-0"
140
0.015625
141
12.0
290
     0
  0
SCALE
  5
3E7
102
{ACAD_REACTORS
330
3D3
102
}
330
3D3
100
AcDbScale
 70
     0
300
1/32" = 1'-0"
140
0.03125
141
12.0
290
     0
  0
SCALE
  5
3E8
102
{ACAD_REACTORS
330
3D3
102
}
330
3D3
100
AcDbScale
 70
     0
300
1/16" = 1'-0"
140
0.0625
141
12.0
290
     0
  0
SCALE
  5
3E9
102
{ACAD_REACTORS
330
3D3
102
}
330
3D3
100
AcDbScale
 70
     0
300
3/32" = 1'-0"
140
0.09375
141
12.0
290
     0
  0
SCALE
  5
3EA
102
{ACAD_REACTORS
330
3D3
102
}
330
3D3
100
AcDbScale
 70
     0
300
1/8" = 1'-0"
140
0.125
141
12.0
290
     0
  0
SCALE
  5
3EB
102
{ACAD_REACTORS
330
3D3
102
}
330
3D3
100
AcDbScale
 70
     0
300
3/16" = 1'-0"
140
0.1875
141
12.0
290
     0
  0
SCALE
  5
3EC
102
{ACAD_REACTORS
330
3D3
102
}
330
3D3
100
AcDbScale
 70
     0
300
1/4" = 1'-0"
140
0.25
141
12.0
290
     0
  0
SCALE
  5
3ED
102
{ACAD_REACTORS
330
3D3
102
}
330
3D3
100
AcDbScale
 70
     0
300
3/8" = 1'-0"
140
0.375
141
12.0
290
     0
  0
SCALE
  5
3EE
102
{ACAD_REACTORS
330
3D3
102
}
330
3D3
100
AcDbScale
 70
     0
300
1/2" = 1'-0"
140
0.5
141
12.0
290
     0
  0
SCALE
  5
3EF
102
{ACAD_REACTORS
330
3D3
102
}
330
3D3
100
AcDbScale
 70
     0
300
3/4" = 1'-0"
140
0.75
141
12.0
290
     0
  0
SCALE
  5
3F0
102
{ACAD_REACTORS
330
3D3
102
}
330
3D3
100
AcDbScale
 70
     0
300
1" = 1'-0"
140
1.0
141
12.0
290
     0
  0
SCALE
  5
3F1
102
{ACAD_REACTORS
330
3D3
102
}
330
3D3
100
AcDbScale
 70
     0
300
1-1/2" = 1'-0"
140
1.5
141
12.0
290
     0
  0
SCALE
  5
3F2
102
{ACAD_REACTORS
330
3D3
102
}
330
3D3
100
AcDbScale
 70
     0
300
3" = 1'-0"
140
3.0
141
12.0
290
     0
  0
SCALE
  5
3F3
102
{ACAD_REACTORS
330
3D3
102
}
330
3D3
100
AcDbScale
 70
     0
300
6" = 1'-0"
140
6.0
141
12.0
290
     0
  0
SCALE
  5
3F4
102
{ACAD_REACTORS
330
3D3
102
}
330
3D3
100
AcDbScale
 70
     0
300
1'-0" = 1'-0"
140
12.0
141
12.0
290
     0
  0
DICTIONARYVAR
  5
3F8
102
{ACAD_REACTORS
330
3F5
102
}
330
3F5
100
DictionaryVariables
280
     0
  1
1:1
  0
ENDSEC
  0
SECTION
  2
THUMBNAILIMAGE
 90
    16364
310
28000000B40000005500000001000800000000000000000000000000000000000000000000000000FFFFFF000000FF0000FFFF0000FF0000FFFF0000FF000000FF00FF000000000080808000C0C0C0000000FF007F7FFF000000A5005252A50000007F003F3F7F0000004C0026264C000000260013132600003FFF007F9FFF
310
000029A5005267A500001F7F003F4F7F0000134C00262F4C000009260013172600007FFF007FBFFF000052A500527CA500003F7F003F5F7F0000264C0026394C0000132600131C260000BFFF007FDFFF00007CA5005291A500005F7F003F6F7F0000394C0026424C00001C26001321260000FFFF007FFFFF0000A5A50052A5
310
A500007F7F003F7F7F00004C4C00264C4C00002626001326260000FFBF007FFFDF0000A57C0052A59100007F5F003F7F6F00004C3900264C420000261C001326210000FF7F007FFFBF0000A5520052A57C00007F3F003F7F5F00004C2600264C39000026130013261C0000FF3F007FFF9F0000A5290052A56700007F1F003F
310
7F4F00004C1300264C2F00002609001326170000FF00007FFF7F0000A5000052A55200007F00003F7F3F00004C0000264C260000260000132613003FFF00009FFF7F0029A5000067A552001F7F00004F7F3F00134C00002F4C260009260000172613007FFF0000BFFF7F0052A500007CA552003F7F00005F7F3F00264C0000
310
394C2600132600001C261300BFFF0000DFFF7F007CA5000091A552005F7F00006F7F3F00394C0000424C26001C26000021261300FFFF0000FFFF7F00A5A50000A5A552007F7F00007F7F3F004C4C00004C4C26002626000026261300FFBF0000FFDF7F00A57C0000A59152007F5F00007F6F3F004C3900004C422600261C00
310
0026211300FF7F0000FFBF7F00A5520000A57C52007F3F00007F5F3F004C2600004C39260026130000261C1300FF3F0000FF9F7F00A5290000A56752007F1F00007F4F3F004C1300004C2F26002609000026171300FF000000FF7F7F00A5000000A55252007F0000007F3F3F004C0000004C2626002600000026131300FF00
310
3F00FF7F9F00A5002900A55267007F001F007F3F4F004C0013004C262F002600090026131700FF007F00FF7FBF00A5005200A5527C007F003F007F3F5F004C0026004C2639002600130026131C00FF00BF00FF7FDF00A5007C00A55291007F005F007F3F6F004C0039004C26420026001C0026132100FF00FF00FF7FFF00A5
310
00A500A552A5007F007F007F3F7F004C004C004C264C002600260026132600BF00FF00DF7FFF007C00A5009152A5005F007F006F3F7F0039004C0042264C001C002600211326007F00FF00BF7FFF005200A5007C52A5003F007F005F3F7F0026004C0039264C00130026001C1326003F00FF009F7FFF002900A5006752A500
310
1F007F004F3F7F0013004C002F264C000900260017132600000000002D2D2D005B5B5B0089898900B7B7B700B3B3B30000000000000000000000000000000000000000000000000000000000000000000000000000000000000000000000000000000000000000000000000000000000000000000000000000000000000000
310
00000000000000000000000000000000000000000000000000000000000000000000000000000000000000000000000000000000000000000000000000000000000000000000000000000000000000000000000000000000000000000000000000000000000000000000000000000000000000000000000000000000000000
310
00000000000000000000000000000000000000000000000000000000000000000000000000000000000000000000000000000000000000000000000000000000000000000000000000000000000000000000000000000000000000000000000000000000000000000000000000000000000000000000000000000000000000
310
00000000000000000000000000000000000000000000000000000000000000000000000000000000000000000000000000000000000000000000000000000000000000000000000000000000000000000000000000000000000000000000000000000000000000000000000000000000000000000000000000000000000000
310
00000000000000000000000000000000000000000000000000000000000000000000000000000000000000000000000000000000000000000000000000000000000000000000000000000000000000000000000000000000000000000000000000000000000000000000000000000000000000000000000000000000000000
310
00000000000000000000000000000000000000000000000000000000000000000000000000000000000000000000000000070700070000000000000000000000000000000000000000000000000000000000000000000000000000000000000000000000000000000000000000000000000000000000000000000000000000
310
00000000000000000000000000000000000000000000000000000000000000000000000000000000000000000000000000000000000000000000000000000000000000000000000000000000000000000000000000000000000000000000000000000000000007070707000000000000000000000000000000000000000000
310
00000000000000000000000000000000000000000000000000000000000000000000000000000000000000000000000000000000000000000000000000000000000000000000000000000000000000000000000000000000000000000000000000000000000000000000000000000000000000000000000000000000000000
310
00000000000000000000000000000000000000000000000000000007070707070000000000000000000000000000000000000000000000000000000000000000000000000000000000000000000000000000000000000000000000000000000000000000000000000000000000000000000000000000000000000000000000
310
00000000000000000000000000000000000000000000000000000000000000000000000000000000000000000000000000000000000000000000000000000000000000000000000000000000000000000707070707000000000000000000000000000000000000000000000000000000000000000000000000000000000000
310
00000000000000000000000000000000000000000000000000000000000000000000000000000000000000000000000000000000000000000000000000000000000000000000000000000000000000000000000000000000000000000000000000000000000000000000000000000000000000000000000000000000000000
310
00000000000007070707070000000000000000000000000000000000000000000000000000000000000000000000000000000000000000000000000000000000000000000000000000000000000000000000000000000000000000000000000000000000000000000000000000000000000000000000000000000000000000
310
00000000000000000000000000000000000000000000000000000000000000000000000000000000000000000000000000000000000000000000000707070707000000000000000000000000000000000000000000000000000000000000000000000000000000000000000000000000000000000000000000000000000000
310
00000000000000000000000000000000000000000000000000000000000000000000000000000000000000000000000000000000000000000000000000000000000000000000000000000000000000000000000000000000000000000000000000000000000000000000000000000000070707000700000000000000000000
310
00000000000000000000000000000000000000000000000000000000000000000000000000000000000000000000000000000000000000000000000000000000000000000000000000000000000000000000000000000000000000000000000000000000000000000000000000000000000000000000000000000000000000
310
00000000000000000000000000000000000000000000000000000000000000000000000000000707070000000000000000000000000000000000000000000000000000000000000000000000000000000000000000000000000000000000000000000000000000000000000000000000000000000000000000000000000000
310
00000000000000000000000000000000000000000000000000000000000000000000000000000000000000000000000000000000000000000000000000000000000000000000000000000000000000000000000000000000000000070707000000000000000000000000000000000000000000000000000000000000000000
310
00000000000000000000000000000000000000000000000000000000000000000000000000000000000000000000000000000000000000000000000000000000000000000000000000000000000000000000000000000000000000000000000000000000000000000000000000000000000000000000000000000000000000
310
00000000000000000000000000000000000707070000000000000000000000000000000000000000000000000000000000000000000000000000000000000000000000000000000000000000000000000000000000000000000000000000000000000000000000000000000000000000000000000000000000000000000000
310
00000000000000000000000000000000000000000000000000000000000000000000000000000000000000000000000000000000000000000000000000000000000000000000070707000000000000000000000000000000000000000000000000000000000000000000000000000000000000000000000000000000000000
310
00000000000000000000000000000000000000000000000000000000000000000000000000000000000000000000000000000000000000000000000000000000000000000000000000000000000000000000000000000000000000000000000000000000000000000000000000000000000000000000000000000007070700
310
00000000000000000000000000000000000000000000000000000000000000000000000000000000000000000000000000000000000000000000000000000000000000000000000000000000000000000000000000000000000000000000000000000000000000000000000000000000000000000000000000000000000000
310
00000000000000000000000000000000000000000000000000000000000000000000000000000000000000000000000000070707000000000000000000000000000000000000000000000000000000000000000000000000000000000000000000000000000000000000000000000000000000000000000000000000000000
310
00000000000000000000000000000000000000000000000000000000000000000000000000000000000000000000000000000000000000000000000000000000000000000000000000000000000000000000000000000000000000000000000000000000000007070700000000000000000000000000000000000000000000
310
00000000000000000000000000000000000000000000000000000000000000000000000000000000000000000000000000000000000000000000000000000000000000000000000000000000000000000000000000000000000000000000000000000000000000000000000000000000000000000000000000000000000000
310
00000000000000000000000000000000000000000000000000000000070707000000000000000000000000000000000000000000000000000000000000000000000000000000000000000000000000000000000000000000000000000000000000000000000000000000000000000000000000000000000000000000000000
310
00000000000000000000000000000000000000000000000000000000000000000000000000000000000000000000000000000000000000000000000000000000000000000000000000000000000000000007070700000000000000000000000000000000000000000000000000000000000000000000000000000000000000
310
00000000000000000000000000000000000000000000000000000000000000000000000000000000000000000000000000000000000000000000000000000000000000000000000000000000000000000000000000000000000000000000000000000000000000000000000000000000000000000000000000000000000000
310
00000000000000070707000000000000000000000000000000000000000000000000000000000000000000000000000000000000000000000000000000000000000000000000000000000000000000000000000000000000000000000000000000000000000000000000000000000000000000000000000000000000000000
310
00000000000000000000000000000000000000000000000000000000000000000000000000000000000000000000000000000000000000000000000007070700000000000000000000000000000000000000000000000000000000000000000000000000000000000000000000000000000000000000000000000000000000
310
00000000000000000000000000000000000000000000000000000000000000000000000000000000000000000000000000000000000000000000000000000000000000000000000000000000000000000000000000000000000000000000000000000000000000000000000000000000000707070000000000000000000000
310
00000000000000000000000000000000000000000000000000000000000000000000000000000000000000000000000000000000000000000000000000000000000000000000000000000000000000000000000000000000000000000000000000000000000000000000000000000000000000000000000000000000000000
310
00000000000000000000000000000000000000000000000000000000000000000000000000000007070700000000000000000000000000000000000000000000000000000000000000000000000000000000000000000000000000000000000000000000000000000000000000000000000000000000000000000000000000
310
00000000000000000000000000000000000000000000000000000000000000000000000000000000000000000000000000000000000000000000000000000000000000000000000000000000000000000000000000000000000000000707070000000000000000000000000000000000000000000000000000000000000000
310
00000000000000000000000000000000000000000000000000000000000000000000000000000000000000000000000000000000000000000000000000000000000000000000000000000000000000000000000000000000000000000000000000000000000000000000000000000000000000000000000000000000000000
310
00000000000000000000000000000000000007070700000000000000000000000000000000000000000000000000000000000000000000000000000000000000000000000000000000000000000000000000000000000000000000000000000000000000000000000000000000000000000000000000000000000000000000
310
00000000000000000000000000000000000000000000000000000000000000000000000000000000000000000000000000000000000000000000000000000000000000000000000707070000000000000000000000000000000000000000000000000000000000000000000000000000000000000000000000000000000000
310
00000000000000000000000000000000000000000000000000000000000000000000000000000000000000000000000000000000000000000000000000000000000000000000000000000000000000000000000000000000000000000000000000000000000000000000000000000000000000000000000000000000070707
310
00000000000000000000000000000000000000000000000000000000000000000000000000000000000000000000000000000000000000000000000000000000000000000000000000000000000000000000000000000000000000000000000000000000000000000000000000000000000000000000000000000000000000
310
00000000000000000000000000000000000000000000000000000000000000000000000000000000000000000000000000000707070000000000000000000000000000000000000000000000000000000000000000000000000000000000000000000000000000000000000000000000000000000000000000000000000000
310
00000000000000000000000000000000000000000000000000000000000000000000000000000000000000000000000000000000000000000000000000000000000000000000000000000000000000000000000000000000000000000000000000000000000000070707000000000000000000000000000000000000000000
310
00000000000000000000000000000000000000000000000000000000000000000000000000000000000000000000000000000000000000000000000000000000000000000000000000000000000000000000000000000000000000000000000000000000000000000000000000000000000000000000000000000000000000
310
00000000000000000000000000000000000000000000000000000000000707070000000000000000000000000000000000000000000000000000000000000000000000000000000000000000000000000000000000000000000000000000000000000000000000000000000000000000000000000000000000000000000000
310
00000000000000000000000000000000000000000000000000000000000000000000000000000000000000000000000000000000000000000000000000000000000000000000000000000000000000000000070707000000000000000000000000000000000000000000000000000000000000000000000000000000000000
310
00000000000000000000000000000000000000000000000000000000000000000000000000000000000000000000000000000000000000000000000000000000000000000000000000000000000000000000000000000000000000000000000000000000000000000000000000000000000000000000000000000000000000
310
00000000000000000707070000000000000000000000000000000000000000000000000000000000000000000000000000000000000000000000000000000000000000000000000000000000000000000000000000000000000000000000000000000000000000000000000000000000000000000000000000000000000000
310
00000000000000000000000000000000000000000000000000000000000000000000000000000000000000000000000000000000000000000000000000070707000000000000000000000000000000000000000000000000000000000000000000000000000000000000000000000000000000000000000000000000000000
310
00000000000000000000000000000000000000000000000000000000000000000000000000000000000000000000000000000000000000000000000000000000000000000000000000000000000000000000000000000000000000000000000000000000000000000000000000000000000007070700000000000000000000
310
00000000000000000000000000000000000000000000000000000000000000000000000000000000000000000000000000000000000000000000000000000000000000000000000000000000000000000000000000000000000000000000000000000000000000000000000000000000000000000000000000000000000000
310
00000000000000000000000000000000000000000000000000000000000000000000000000000000070707000000000000000000000000000000000000000000000000000000000000000000000000000000000000000000000000000000000000000000000000000000000000000000000000000000000000000000000000
310
00000000000000000000000000000000000000000000000000000000000000000000000000000000000000000000000000000000000000000000000000000000000000000000000000000000000000000000000000000000000000000007070700000000000000000000000000000000000000000000000000000000000000
310
00000000000000000000000000000000000000000000000000000000000000000000000000000000000000000000000000000000000000000000000000000000000000000000000000000000000000000000000000000000000000000000000000000000000000000000000000000000000000000000000000000000000000
310
00000000000000000000000000000000000000070707000000000000000000000000000000000000000000000000000000000000000000000000000000000000000000000000000000000000000000000000000000000000000000000000000000000000000000000000000000000000000000000000000000000000000000
310
00000000000000000000000000000000000000000000000000000000000000000000000000000000000000000000000000000000000000000000000000000000000000000000000007070700000000000000000000000000000000000000000000000000000000000000000000000000000000000000000000000000000000
310
00000000000000000000000000000000000000000000000000000000000000000000000000000000000000000000000000000000000000000000000000000000000000000000000000000000000000000000000000000000000000000000000000000000000000000000000000000000000000000000000000000000000707
310
07000000000000000000000000000000000000000000000000000000000000000000000000000000000000000000000000000000000000000000000000000000000000000000000000000000000000000000000000000000000000000000000000000000000000000000000000000000000000000000000000000000000000
310
00000000000000000000000000000000000000000000000000000000000000000000000000000000000000000000000000000007070700000000000000000000000000000000000000000000000000000000000000000000000000000000000000000000000000000000000000000000000000000000000000000000000000
310
00000000000000000000000000000000000000000000000000000000000000000000000000000000000000000000000000000000000000000000000000000000000000000000000000000000000000000000000000000000000000000000000000000000000000000707070000000000000000000000000000000000000000
310
00000000000000000000000000000000000000000000000000000000000000000000000000000000000000000000000000000000000000000000000000000000000000000000000000000000000000000000000000000000000000000000000000000000000000000000000000000000000000000000000000000000000000
310
00000000000000000000000000000000000000000000000000000000000007070700000000000000000000000000000000000000000000000000000000000000000000000000000000000000000000000000000000000000000000000000000000000000000000000000000000000000000000000000000000000000000000
310
00000000000000000000000000000000000000000000000000000000000000000000000000000000000000000000000000000000000000000000000000000000000000000000000000000000000000000000000707070000000000000000000000000000000000000000000000000000000000000000000000000000000000
310
00000000000000000000000000000000000000000000000000000000000000000000000000000000000000000000000000000000000000000000000000000000000000000000000000000000000000000000000000000000000000000000000000000000000000000000000000000000000000000000000000000000000000
310
00000000000000000007070700000000000000000000000000000000000000000000000000000000000000000000000000000000000000000000000000000000000000000000000000000000000000000000000000000000000000000000000000000000000000000000000000000000000000000000000000000000000000
310
00000000000000000000000000000000000000000000000000000000000000000000000000000000000000000000000000000000000000000000000000000707070000000000000000000000000000000000000000000000000000000000000000000000000000000000000000000000000000000000000000000000000000
310
00000000000000000000000000000000000000000000000000000000000000000000000000000000000000000000000000000000000000000000000000000000000000000000000000000000000000000000000000000000000000000000000000000000000000000000000000000000000000070707000000000000000000
310
00000000000000000000000000000000000000000000000000000000000000000000000000000000000000000000000000000000000000000000000000000000000000000000000000000000000000000000000000000000000000000000000000000000000000000000000000000000000000000000000000000000000000
310
00000000000000000000000000000000000000000000000000000000000000000000000000000000000707070000000000000000000000000000000000000000000000000000000000000000000000000000000000000000000000000000000000000000000000000000000000000000000000000000000000000000000000
310
00000000000000000000000000000000000000000000000000000000000000000000000000000000000000000000000000000000000000000000000000000000000000000000000000000000000000000000000000000000000000000000070707000000000000000000000000000000000000000000000000000000000000
310
00000000000000000000000000000000000000000000000000000000000000000000000000000000000000000000000000000000000000000000000000000000000000000000000000000000000000000000000000000000000000000000000000000000000000000000000000000000000000000000000000000000000000
310
00000000000000000000000000000000000000000707070000000000000000000000000000000000000000000000000000000000000000000000000000000000000000000000000000000000000000000000000000000000000000000000000000000000000000000000000000000000000000000000000000000000000000
310
00000000000000000000000000000000000000000000000000000000000000000000000000000000000000000000000000000000000000000000000000000000000000000000000000070007000000000000000000000000000000000000000000000000000000000000000000000000000000000000000000000000000000
310
00000000000000000000000000000000000000000000000000000000000000000000000000000000000000000000000000000000000000000000000000000000000000000000000000000000000000000000000000000000000000000000000000000000000000000000000000000000000000000000000000000000000007
310
00070000000000000000000000000000000000000000000000000000000000000000000000000000000000000000000000000000000000000000000000000000000000000000000000000000000000000000000000000000000000000000000000000000000000000000000000000000000000000000000000000000000000
310
00000000000000000000000000000000000000000000000000000000000000000000000000000000000000000000000000000000070707000000000000000000000000000000000000000000000000000000000000000000000000000000000000000000000000000000000000000000000000000000000000000000000000
310
00000000000000000000000000000000000000000000000000000000000000000000000000000000000000000000000000000000000000000000000000000000000000000000000000000000000000000000000000000000000000000000000000000000000000000007070707000000000000000000000000000000000000
310
00000000000000000000000000000000000000000000000000000000000000000000000000000000000000000000000000000000000000000000000000000000000000000000000000000000000000000000000000000000000000000000000000000000000000000000000000000000000000000000000000000000000000
310
00000000000000000000000000000000000000000000000000000000000000070707070000000000000000000000000000000000000000000000000000000000000000000000000000000000000000000000000000000000000000000000000000000000000000000000000000000000000000000000000000000000000000
310
00000000000000000000000000000000000000000000000000000000000000000000000000000000000000000000000000000000000000000000000000000000000000000000000000000000000000000000000707070707000000000000000000000000000000000000000000000000000000000000000000000000000000
310
00000000000000000000000000000000000000000000000000000000000000000000000000000000000000000000000000000000000000000000000000000000000000000000000000000000000000000000000000000000000000000000000000000000000000000000000000000000000000000000000000000000000000
310
00000000000000000007000707000000000000000000000000000000000000000000000000000000000000000000000000000000000000000000000000000000000000000000000000000000000000000000000000000000000000000000000000000000000000000000000000000000000000000000000000000000000000
310
00000000000000000000000000000000000000000000000000000000000000000000000000000000000000000000000000000000000000000000000000070707070700000000000000000000000000000000000000000000000000000000000000000000000000000000000000000000000000000000000000000000000000
310
00000000000000000000000000000000000000000000000000000000000000000000000000000000000000000000000000000000000000000000000000000000000000000000000000000000000000000000000000000000000000000000000000000000000000000000000000000000000007070700070000000000000000
310
00000000000000000000000000000000000000000000000000000000000000000000000000000000000000000000000000000000000000000000000000000000000000000000000000000000000000000000000000000000000000000000000000000000000000000000000000000000000000000000000000000000000000
310
00000000000000000000000000000000000000000000000000000000000000000000000000000007070707000700000000000000000000000000000000000000000000000000000000000000000000000000000000000000000000000000000000000000000000000000000000000000000000000000000000000000000000
310
00000000000000000000000000000000000000000000000000000000000000000000000000000000000000000000000000000000000000000000000000000000000000000000000000000000000000000000000000000000000000070000070700070000000000000000000000000000000000000000000000000000000000
310
00000000000000000000000000000000000000000000000000000000000000000000000000000000000000000000000000000000000000000000000000000000000000000000000000000000000000000000000000000000000000000000000000000000000000000000000000000000000000000000000000000000000000
310
00000000000000000000000000000000000700070007000700000000000000000000000000000000000000000000000000000000000000000000000000000000000000000000000000000000000000000000000000000000000000000000000000000000000000000000000000000000000000000000000000000000000000
310
00000000000000000000000000000000000000000000000000000000000000000000000000000000000000000000000000000000000000000000000000000000000000000000070007000700070000000000000000000000000000000000000000000000000000000000000000000000000000000000000000000000000000
310
00000000000000000000000000000000000000000000000000000000000000000000000000000000000000000000000000000000000000000000000000000000000000000000000000000000000000000000000000000000000000000000000000000000000000000000000000000000000000000000000000000700000700
310
07000700000000000000000000000000000000000000000000000000000000000000000000000000000000000000000000000000000000000000000000000000000000000000000000000000000000000000000000000000000000000000000000000000000000000000000000000000000000000000000000000000000000
310
00000000000000000000000000000000000000000000000000000000000000000000000000000000000000000000000700000700000700070000000000000000000000000000000000000000000000000000000000000000000000000000000000000000000000000000000000000000000000000000000000000000000000
310
00000000000000000000000000000000000000000000000000000000000000000000000000000000000000000000000000000000000000000000000000000000000000000000000000000000000000000000000000000000000000000000000007000000070707000000070007000000000000000000000000000000000000
310
00000000000000000000000000000000000000000000000000000000000000000000000000000000000000000000000000000000000000000000000000000000000000000000000000000000000000000000000000000000000000000000000000000000000000000000000000000000000000000000000000000000000000
310
00000000000000000000000000000000000000000007070700000707070000000700070000000000000000000000000000000000000000000000000000000000000000000000000000000000000000000000000000000000000000000000000000000000000000000000000000000000000000000000000000000000000000
310
00000000000000000000000000000000000000000000000000000000000000000000000000000000000000000000000000000000000000000000000000000000000000000000000000000707070007000700000000070007000000000000000000000000000000000000000000000000000000000000000000000000000000
310
00000000000000000000000000000000000000000000000000000000000000000000000000000000000000000000000000000000000000000000000000000000000000000000000000000000000000000000000000000000000000000000000000000000000000000000000000000000000000000000000000000000000007
310
07070700070700000000000700070000000000000000000000000000000000000000000000000000000000000000000000000000000000000000000000000000000000000000000000000000000000000000000000000000000000000000000000000000000000000000000000000000000000000000000000000000000000
310
00000000000000000000000000000000000000000000000000000000000000000000000000000000000000000000000000000000070707000700070000000000070007000000000000000000000000000000000000000000000000000000000000000000000000000000000000000000000000000000000000000000000000
310
00000000000000000000000000000000000000000000000000000000000000000000000000000000000000000000000000000000000000000000000000000000000000000000000000000000000000000000000000000000000000000000000000000000000000000707070707070700000000000007000700000000000000
310
00000000000000000000000000000000000000000000000000000000000000000000000000000000000000000000000000000000000000000000000000000000000000000000000000000000000000000000000000000000000000000000000000000000000000000000000000000000000000000000000000000000000000
310
00000000000000000000000000000000000000000000000000000000000707070707070707000000000000070007000000000000000000000000000000000000000000000000000000000000000000000000000000000000000000000000000000000000000000000000000000000000000000000000000000000000000000
310
00000000000000000000000000000000000000000000000000000000000000000000000000000000000000000000000000000000000000000000000000000000000000000000000000000000000000000000070707070000000000000000000007000700000000000000000000000000000000000000000000000000000000
310
00000000000000000000000000000000000000000000000000000000000000000000000000000000000000000000000000000000000000000000000000000000000000000000000000000000000000000000000000000000000000000000000000000000000000000000000000000000000000000000000000000000000000
310
00000000000000000707070000000000000000000000070007000000000000000000000000000000000000000000000000000000000000000000000000000000000000000000000000000000000000000000000000000000000000000000000000000000000000000000000000000000000000000000000000000000000000
310
00000000000000000000000000000000000000000000000000000000000000000000000000000000000000000000000000000000000000000000000000000000000000000000000000000007000700000000000000000000000000000000000000000000000000000000000000000000000000000000000000000000000000
310
00000000000000000000000000000000000000000000000000000000000000000000000000000000000000000000000000000000000000000000000000000000000000000000000000000000000000000000000000000000000000000000000000000000000000000000000000000000000000000000000000000000000000
310
00070007000000000000000000000000000000000000000000000000000000000000000000000000000000000000000000000000000000000000000000000000000000000000000000000000000000000000000000000000000000000000000000000000000000000000000000000000000000000000000000000000000000
310
00000000000000000000000000000000000000000000000000000000000000000000000000000000000000000000000000000000000007000700070000000000000000000000000000000000000000000000000000000000000000000000000000000000000000000000000000000000000000000000000000000000000000
310
00000000000000000000000000000000000000000000000000000000000000000000000000000000000000000000000000000000000000000000000000000000000000000000000000000000000000000000000000000000000000000000000000000000000000000000000700070707000000000000000000000000000000
310
00000000000000000000000000000000000000000000000000000000000000000000000000000000000000000000000000000000000000000000000000000000000000000000000000000000000000000000000000000000000000000000000000000000000000000000000000000000000000000000000000000000000000
310
00000000000000000000000000000000000000000000000000000000000000000007000707070000000000000000000000000000000000000000000000000000000000000000000000000000000000000000000000000000000000000000000000000000000000000000000000000000000000000000000000000000000000
310
00000000000000000000000000000000000000000000000000000000000000000000000000000000000000000000000000000000000000000000000000000000000000000000000000000000000000000000000000000700000707000000000000000000000000000000000000000000000000000000000000000000000000
310
00000000000000000000000000000000000000000000000000000000000000000000000000000000000000000000000000000000000000000000000000000000000000000000000000000000000000000000000000000000000000000000000000000000000000000000000000000000000000000000000000000000000000
310
00000000000000000000000007070707070000000000000000000000000000000000000000000000000000000000000000000000000000000000000000000000000000000000000000000000000000000000000000000000000000000000000000000000000000000000000000000000000000000000000000000000000000
310
00000000000000000000000000000000000000000000000000000000000000000000000000000000000000000000000000000000000000000000000000000000000000000707000000000000000000000000000000000000000000000000000000000000000000000000000000000000000000000000000000000000000000
310
00000000000000000000000000000000000000000000000000000000000000000000000000000000000000000000000000000000000000000000000000000000000000000000000000000000000000000000000000000000000000000000000000000000000000000000000000000000000000000000000000000000000000
310
00000000000000000000000000000000000000000000000000000000000000000000000000000000000000000000000000000000000000000000000000000000000000000000000000000000000000000000000000000000000000000000000000000000000000000000000000000000000000000000000000000000000000
310
00000000000000000000000000000000000000000000000000000000000000000000000000000000000000000000000000000000000000000000000000000000000000000000000000000000000000000000000000000000000000000000000000000000000000000000000000000000000000000000000000000000000000
310
00000000000000000000000000000000000000000000000000000000000000000000000000000000000000000000000000000000000000000000000000000000000000000000000000000000000000000000000000000000000000000000000000000000000000000000000000000000000000000000000000000000000000
310
00000000000000000000000000000000000000000000000000000000000000000000000000000000000000000000000000000000000000000000000000000000000000000000000000000000000000000000000000000000000000000000000000000000000000000000000000000000000000000000000000000000000000
310
000000000000000000000000000000000000000000000000000000000000000000000000000000000000000000000000000000000000000000000000000000000000000000000000000000000000000000000000000000000000000000000000000000000000000000000000
  0
ENDSEC
  0
EOF
