999
Erzeugt mit innoplus bad 
0
SECTION
2
HEADER
9
$ACADVER
1
AC1009
9
$DWGCODEPAGE
3
ISO8859-1
0
ENDSEC
0
SECTION
2
TABLES
0
TABLE
2
LAYER
70
1
0
LAYER
2
0
70
0
62
7
6
CONTINUOUS
0
ENDTAB
0
ENDSEC
0
SECTION
2
ENTITIES
0
LINE
8
0
6
CONTINUOUS
10
0.105144
20
-0.047257
30
0.0
11
0.105992
21
-0.047072
31
0.0
0
LINE
8
0
6
CONTINUOUS
10
0.105987
20
-0.047050
30
0.0
11
0.105987
21
-0.045948
31
0.0
0
LINE
8
0
6
CONTINUOUS
10
0.105987
20
0.002958
30
0.0
11
0.105141
21
0.002762
31
0.0
0
LINE
8
0
6
CONTINUOUS
10
0.105987
20
0.002017
30
0.0
11
0.105987
21
0.002958
31
0.0
0
LINE
8
0
6
CONTINUOUS
10
0.106000
20
0.001962
30
0.0
11
0.106000
21
0.002902
31
0.0
0
LINE
8
0
6
CONTINUOUS
10
0.070572
20
-0.054812
30
0.0
11
0.070458
21
-0.054837
31
0.0
0
LINE
8
0
6
CONTINUOUS
10
0.058745
20
-0.007991
30
0.0
11
0.060428
21
-0.007598
31
0.0
0
LINE
8
0
6
CONTINUOUS
10
0.057309
20
-0.008328
30
0.0
11
0.058745
21
-0.007991
31
0.0
0
LINE
8
0
6
CONTINUOUS
10
0.060428
20
-0.007598
30
0.0
11
0.062214
21
-0.007183
31
0.0
0
LINE
8
0
6
CONTINUOUS
10
0.064035
20
-0.006761
30
0.0
11
0.065856
21
-0.006339
31
0.0
0
LINE
8
0
6
CONTINUOUS
10
0.062214
20
-0.007183
30
0.0
11
0.064035
21
-0.006761
31
0.0
0
LINE
8
0
6
CONTINUOUS
10
0.065856
20
-0.006339
30
0.0
11
0.067676
21
-0.005917
31
0.0
0
LINE
8
0
6
CONTINUOUS
10
0.090074
20
-0.050556
30
0.0
11
0.105144
21
-0.047257
31
0.0
0
LINE
8
0
6
CONTINUOUS
10
0.075057
20
-0.053827
30
0.0
11
0.076682
21
-0.053471
31
0.0
0
LINE
8
0
6
CONTINUOUS
10
0.076682
20
-0.053471
30
0.0
11
0.078339
21
-0.053108
31
0.0
0
LINE
8
0
6
CONTINUOUS
10
0.075577
20
-0.053708
30
0.0
11
0.073907
21
-0.054074
31
0.0
0
LINE
8
0
6
CONTINUOUS
10
0.073469
20
-0.054175
30
0.0
11
0.075057
21
-0.053827
31
0.0
0
LINE
8
0
6
CONTINUOUS
10
0.073907
20
-0.054074
30
0.0
11
0.072294
21
-0.054428
31
0.0
0
LINE
8
0
6
CONTINUOUS
10
0.081591
20
-0.052397
30
0.0
11
0.084016
21
-0.051868
31
0.0
0
LINE
8
0
6
CONTINUOUS
10
0.077286
20
-0.053333
30
0.0
11
0.075577
21
-0.053708
31
0.0
0
LINE
8
0
6
CONTINUOUS
10
0.072294
20
-0.054428
30
0.0
11
0.070791
21
-0.054759
31
0.0
0
LINE
8
0
6
CONTINUOUS
10
0.089534
20
-0.050675
30
0.0
11
0.090074
21
-0.050556
31
0.0
0
LINE
8
0
6
CONTINUOUS
10
0.089092
20
-0.050767
30
0.0
11
0.089534
21
-0.050675
31
0.0
0
LINE
8
0
6
CONTINUOUS
10
0.084016
20
-0.051868
30
0.0
11
0.086142
21
-0.051405
31
0.0
0
LINE
8
0
6
CONTINUOUS
10
0.079979
20
-0.052749
30
0.0
11
0.081591
21
-0.052397
31
0.0
0
LINE
8
0
6
CONTINUOUS
10
0.071968
20
-0.054505
30
0.0
11
0.073469
21
-0.054175
31
0.0
0
LINE
8
0
6
CONTINUOUS
10
0.088003
20
-0.051001
30
0.0
11
0.089092
21
-0.050767
31
0.0
0
LINE
8
0
6
CONTINUOUS
10
0.078339
20
-0.053108
30
0.0
11
0.079979
21
-0.052749
31
0.0
0
LINE
8
0
6
CONTINUOUS
10
0.086142
20
-0.051405
30
0.0
11
0.088003
21
-0.051001
31
0.0
0
LINE
8
0
6
CONTINUOUS
10
0.079019
20
-0.052954
30
0.0
11
0.077286
21
-0.053333
31
0.0
0
LINE
8
0
6
CONTINUOUS
10
0.080753
20
-0.052574
30
0.0
11
0.079019
21
-0.052954
31
0.0
0
LINE
8
0
6
CONTINUOUS
10
0.055990
20
-0.008639
30
0.0
11
0.056244
21
-0.009512
31
0.0
0
LINE
8
0
6
CONTINUOUS
10
0.056244
20
-0.009512
30
0.0
11
0.069186
21
-0.054025
31
0.0
0
LINE
8
0
6
CONTINUOUS
10
0.069186
20
-0.054025
30
0.0
11
0.069483
21
-0.055047
31
0.0
0
LINE
8
0
6
CONTINUOUS
10
0.070769
20
-0.054769
30
0.0
11
0.070572
21
-0.054812
31
0.0
0
LINE
8
0
6
CONTINUOUS
10
0.070458
20
-0.054837
30
0.0
11
0.069609
21
-0.055020
31
0.0
0
LINE
8
0
6
CONTINUOUS
10
0.070769
20
-0.054769
30
0.0
11
0.071968
21
-0.054505
31
0.0
0
LINE
8
0
6
CONTINUOUS
10
0.056176
20
-0.008595
30
0.0
11
0.057309
21
-0.008328
31
0.0
0
LINE
8
0
6
CONTINUOUS
10
0.069667
20
-0.055006
30
0.0
11
0.069483
21
-0.055047
31
0.0
0
LINE
8
0
6
CONTINUOUS
10
0.070791
20
-0.054759
30
0.0
11
0.069667
21
-0.055006
31
0.0
0
LINE
8
0
6
CONTINUOUS
10
0.055990
20
-0.008639
30
0.0
11
0.056176
21
-0.008595
31
0.0
0
LINE
8
0
6
CONTINUOUS
10
0.105140
20
-0.047235
30
0.0
11
0.080753
21
-0.052574
31
0.0
0
LINE
8
0
6
CONTINUOUS
10
0.105987
20
0.002017
30
0.0
11
0.105987
21
-0.045948
31
0.0
0
LINE
8
0
6
CONTINUOUS
10
0.105987
20
-0.047050
30
0.0
11
0.105140
21
-0.047235
31
0.0
0
LINE
8
0
6
CONTINUOUS
10
0.067676
20
-0.005917
30
0.0
11
0.105141
21
0.002762
31
0.0
0
LINE
8
0
6
CONTINUOUS
10
0.077008
20
-0.123005
30
0.0
11
0.078785
21
-0.123009
31
0.0
0
LINE
8
0
6
CONTINUOUS
10
0.078785
20
-0.123009
30
0.0
11
0.081270
21
-0.123012
31
0.0
0
LINE
8
0
6
CONTINUOUS
10
0.089986
20
-0.123007
30
0.0
11
0.091807
21
-0.123002
31
0.0
0
LINE
8
0
6
CONTINUOUS
10
0.067941
20
-0.049741
30
0.0
11
0.071734
21
-0.069708
31
0.0
0
LINE
8
0
6
CONTINUOUS
10
0.091807
20
-0.123002
30
0.0
11
0.092434
21
-0.123003
31
0.0
0
LINE
8
0
6
CONTINUOUS
10
0.086734
20
-0.064203
30
0.0
11
0.084247
21
-0.051817
31
0.0
0
LINE
8
0
6
CONTINUOUS
10
0.090434
20
-0.088602
30
0.0
11
0.086734
21
-0.064203
31
0.0
0
LINE
8
0
6
CONTINUOUS
10
0.074633
20
-0.091406
30
0.0
11
0.071734
21
-0.069708
31
0.0
0
LINE
8
0
6
CONTINUOUS
10
0.076434
20
-0.123007
30
0.0
11
0.077008
21
-0.123005
31
0.0
0
LINE
8
0
6
CONTINUOUS
10
0.074633
20
-0.091406
30
0.0
11
0.076434
21
-0.123007
31
0.0
0
LINE
8
0
6
CONTINUOUS
10
0.081270
20
-0.123012
30
0.0
11
0.084366
21
-0.123005
31
0.0
0
LINE
8
0
6
CONTINUOUS
10
0.084366
20
-0.123005
30
0.0
11
0.087470
21
-0.123000
31
0.0
0
LINE
8
0
6
CONTINUOUS
10
0.087470
20
-0.123000
30
0.0
11
0.089986
21
-0.123007
31
0.0
0
LINE
8
0
6
CONTINUOUS
10
0.090434
20
-0.088602
30
0.0
11
0.092434
21
-0.123003
31
0.0
0
LINE
8
0
6
CONTINUOUS
10
0.064146
20
-0.037190
30
0.0
11
0.055185
21
-0.010600
31
0.0
0
LINE
8
0
6
CONTINUOUS
10
0.054865
20
-0.009652
30
0.0
11
0.055185
21
-0.010600
31
0.0
0
LINE
8
0
6
CONTINUOUS
10
0.064146
20
-0.037190
30
0.0
11
0.064465
21
-0.038138
31
0.0
0
LINE
8
0
6
CONTINUOUS
10
0.064465
20
-0.038138
30
0.0
11
0.064560
21
-0.038113
31
0.0
0
LINE
8
0
6
CONTINUOUS
10
0.077008
20
-0.123005
30
0.0
11
0.078785
21
-0.123009
31
0.0
0
LINE
8
0
6
CONTINUOUS
10
0.078785
20
-0.123009
30
0.0
11
0.081270
21
-0.123012
31
0.0
0
LINE
8
0
6
CONTINUOUS
10
0.089986
20
-0.123007
30
0.0
11
0.091807
21
-0.123002
31
0.0
0
LINE
8
0
6
CONTINUOUS
10
0.067941
20
-0.049741
30
0.0
11
0.071734
21
-0.069708
31
0.0
0
LINE
8
0
6
CONTINUOUS
10
0.091807
20
-0.123002
30
0.0
11
0.092434
21
-0.123003
31
0.0
0
LINE
8
0
6
CONTINUOUS
10
0.086734
20
-0.064203
30
0.0
11
0.084247
21
-0.051817
31
0.0
0
LINE
8
0
6
CONTINUOUS
10
0.090434
20
-0.088602
30
0.0
11
0.086734
21
-0.064203
31
0.0
0
LINE
8
0
6
CONTINUOUS
10
0.074633
20
-0.091406
30
0.0
11
0.071734
21
-0.069708
31
0.0
0
LINE
8
0
6
CONTINUOUS
10
0.076434
20
-0.123007
30
0.0
11
0.077008
21
-0.123005
31
0.0
0
LINE
8
0
6
CONTINUOUS
10
0.074633
20
-0.091406
30
0.0
11
0.076434
21
-0.123007
31
0.0
0
LINE
8
0
6
CONTINUOUS
10
0.081270
20
-0.123012
30
0.0
11
0.084366
21
-0.123005
31
0.0
0
LINE
8
0
6
CONTINUOUS
10
0.084366
20
-0.123005
30
0.0
11
0.087470
21
-0.123000
31
0.0
0
LINE
8
0
6
CONTINUOUS
10
0.087470
20
-0.123000
30
0.0
11
0.089986
21
-0.123007
31
0.0
0
LINE
8
0
6
CONTINUOUS
10
0.090434
20
-0.088602
30
0.0
11
0.092434
21
-0.123003
31
0.0
0
LINE
8
0
6
CONTINUOUS
10
0.064146
20
-0.037190
30
0.0
11
0.055185
21
-0.010600
31
0.0
0
LINE
8
0
6
CONTINUOUS
10
0.054865
20
-0.009652
30
0.0
11
0.055185
21
-0.010600
31
0.0
0
LINE
8
0
6
CONTINUOUS
10
0.064146
20
-0.037190
30
0.0
11
0.064465
21
-0.038138
31
0.0
0
LINE
8
0
6
CONTINUOUS
10
0.064465
20
-0.038138
30
0.0
11
0.064560
21
-0.038113
31
0.0
0
LINE
8
0
6
CONTINUOUS
10
0.023367
20
0.113355
30
0.0
11
0.024143
21
0.110602
31
0.0
0
LINE
8
0
6
CONTINUOUS
10
0.024631
20
0.108871
30
0.0
11
0.024143
21
0.110602
31
0.0
0
LINE
8
0
6
CONTINUOUS
10
0.023022
20
0.111186
30
0.0
11
0.023483
21
0.109551
31
0.0
0
LINE
8
0
6
CONTINUOUS
10
0.039209
20
0.148659
30
0.0
11
0.037697
21
0.150655
31
0.0
0
LINE
8
0
6
CONTINUOUS
10
0.024797
20
0.108281
30
0.0
11
0.029027
21
0.109086
31
0.0
0
LINE
8
0
6
CONTINUOUS
10
0.024631
20
0.108871
30
0.0
11
0.024797
21
0.108281
31
0.0
0
LINE
8
0
6
CONTINUOUS
10
0.075044
20
-0.003271
30
0.0
11
0.075325
21
-0.003192
31
0.0
0
LINE
8
0
6
CONTINUOUS
10
0.019914
20
0.125606
30
0.0
11
0.018650
21
0.130090
31
0.0
0
LINE
8
0
6
CONTINUOUS
10
0.017834
20
0.129591
30
0.0
11
0.019028
21
0.125356
31
0.0
0
LINE
8
0
6
CONTINUOUS
10
0.048701
20
0.117336
30
0.0
11
0.050126
21
0.112280
31
0.0
0
LINE
8
0
6
CONTINUOUS
10
0.050126
20
0.112280
30
0.0
11
0.048700
21
0.117340
31
0.0
0
LINE
8
0
6
CONTINUOUS
10
0.024143
20
0.110602
30
0.0
11
0.023367
21
0.113355
31
0.0
0
LINE
8
0
6
CONTINUOUS
10
0.022289
20
0.113786
30
0.0
11
0.023022
21
0.111186
31
0.0
0
LINE
8
0
6
CONTINUOUS
10
0.021334
20
0.117175
30
0.0
11
0.022289
21
0.113786
31
0.0
0
LINE
8
0
6
CONTINUOUS
10
0.023367
20
0.113355
30
0.0
11
0.022356
21
0.116943
31
0.0
0
LINE
8
0
6
CONTINUOUS
10
0.036825
20
0.150445
30
0.0
11
0.037367
21
0.148521
31
0.0
0
LINE
8
0
6
CONTINUOUS
10
0.024797
20
0.108281
30
0.0
11
0.024631
21
0.108871
31
0.0
0
LINE
8
0
6
CONTINUOUS
10
0.023640
20
0.108994
30
0.0
11
0.024797
21
0.108281
31
0.0
0
LINE
8
0
6
CONTINUOUS
10
0.023483
20
0.109551
30
0.0
11
0.023640
21
0.108994
31
0.0
0
LINE
8
0
6
CONTINUOUS
10
0.014572
20
0.141161
30
0.0
11
0.015033
21
0.139526
31
0.0
0
LINE
8
0
6
CONTINUOUS
10
0.015685
20
0.140609
30
0.0
11
0.015196
21
0.142341
31
0.0
0
LINE
8
0
6
CONTINUOUS
10
0.037367
20
0.148521
30
0.0
11
0.038229
21
0.145462
31
0.0
0
LINE
8
0
6
CONTINUOUS
10
0.014415
20
0.141718
30
0.0
11
0.014572
21
0.141161
31
0.0
0
LINE
8
0
6
CONTINUOUS
10
0.015030
20
0.142931
30
0.0
11
0.014415
21
0.141718
31
0.0
0
LINE
8
0
6
CONTINUOUS
10
0.015196
20
0.142341
30
0.0
11
0.015030
21
0.142931
31
0.0
0
LINE
8
0
6
CONTINUOUS
10
0.040662
20
0.136832
30
0.0
11
0.039353
21
0.141475
31
0.0
0
LINE
8
0
6
CONTINUOUS
10
0.017472
20
0.134268
30
0.0
11
0.018650
21
0.130090
31
0.0
0
LINE
8
0
6
CONTINUOUS
10
0.038229
20
0.145462
30
0.0
11
0.039353
21
0.141475
31
0.0
0
LINE
8
0
6
CONTINUOUS
10
0.020221
20
0.121121
30
0.0
11
0.021334
21
0.117175
31
0.0
0
LINE
8
0
6
CONTINUOUS
10
0.022356
20
0.116943
30
0.0
11
0.021178
21
0.121121
31
0.0
0
LINE
8
0
6
CONTINUOUS
10
0.044779
20
0.122225
30
0.0
11
0.045903
21
0.118239
31
0.0
0
LINE
8
0
6
CONTINUOUS
10
0.042066
20
0.131850
30
0.0
11
0.043471
21
0.126868
31
0.0
0
LINE
8
0
6
CONTINUOUS
10
0.040662
20
0.136832
30
0.0
11
0.042066
21
0.131850
31
0.0
0
LINE
8
0
6
CONTINUOUS
10
0.043471
20
0.126868
30
0.0
11
0.044779
21
0.122225
31
0.0
0
LINE
8
0
6
CONTINUOUS
10
0.039353
20
0.141475
30
0.0
11
0.040662
21
0.136832
31
0.0
0
LINE
8
0
6
CONTINUOUS
10
0.018650
20
0.130090
30
0.0
11
0.017472
21
0.134268
31
0.0
0
LINE
8
0
6
CONTINUOUS
10
0.016721
20
0.133537
30
0.0
11
0.017834
21
0.129591
31
0.0
0
LINE
8
0
6
CONTINUOUS
10
0.063100
20
0.059515
30
0.0
11
0.056745
21
0.086230
31
0.0
0
LINE
8
0
6
CONTINUOUS
10
0.014572
20
0.141161
30
0.0
11
0.014415
21
0.141718
31
0.0
0
LINE
8
0
6
CONTINUOUS
10
0.015033
20
0.139526
30
0.0
11
0.014572
21
0.141161
31
0.0
0
LINE
8
0
6
CONTINUOUS
10
0.029746
20
0.106535
30
0.0
11
0.035058
21
0.085629
31
0.0
0
LINE
8
0
6
CONTINUOUS
10
0.044725
20
0.132600
30
0.0
11
0.042845
21
0.139268
31
0.0
0
LINE
8
0
6
CONTINUOUS
10
0.047199
20
0.123312
30
0.0
11
0.046604
21
0.125931
31
0.0
0
LINE
8
0
6
CONTINUOUS
10
0.046604
20
0.125931
30
0.0
11
0.046259
21
0.127155
31
0.0
0
LINE
8
0
6
CONTINUOUS
10
0.042845
20
0.139268
30
0.0
11
0.042628
21
0.140037
31
0.0
0
LINE
8
0
6
CONTINUOUS
10
0.037697
20
0.150655
30
0.0
11
0.037048
21
0.151055
31
0.0
0
LINE
8
0
6
CONTINUOUS
10
0.036640
20
0.151100
30
0.0
11
0.036825
21
0.150445
31
0.0
0
LINE
8
0
6
CONTINUOUS
10
0.037048
20
0.151055
30
0.0
11
0.036640
21
0.151100
31
0.0
0
LINE
8
0
6
CONTINUOUS
10
0.047199
20
0.123312
30
0.0
11
0.046520
21
0.126139
31
0.0
0
LINE
8
0
6
CONTINUOUS
10
0.044725
20
0.132600
30
0.0
11
0.045286
21
0.130606
31
0.0
0
LINE
8
0
6
CONTINUOUS
10
0.046259
20
0.127155
30
0.0
11
0.044725
21
0.132600
31
0.0
0
LINE
8
0
6
CONTINUOUS
10
0.019028
20
0.125356
30
0.0
11
0.020221
21
0.121121
31
0.0
0
LINE
8
0
6
CONTINUOUS
10
0.021178
20
0.121121
30
0.0
11
0.019914
21
0.125606
31
0.0
0
LINE
8
0
6
CONTINUOUS
10
0.015033
20
0.139526
30
0.0
11
0.015766
21
0.136926
31
0.0
0
LINE
8
0
6
CONTINUOUS
10
0.016460
20
0.137856
30
0.0
11
0.015685
21
0.140609
31
0.0
0
LINE
8
0
6
CONTINUOUS
10
0.046520
20
0.126139
30
0.0
11
0.046259
21
0.127155
31
0.0
0
LINE
8
0
6
CONTINUOUS
10
0.044163
20
0.134593
30
0.0
11
0.043639
21
0.136449
31
0.0
0
LINE
8
0
6
CONTINUOUS
10
0.044725
20
0.132600
30
0.0
11
0.044163
21
0.134593
31
0.0
0
LINE
8
0
6
CONTINUOUS
10
0.045286
20
0.130606
30
0.0
11
0.044725
21
0.132600
31
0.0
0
LINE
8
0
6
CONTINUOUS
10
0.040817
20
0.145298
30
0.0
11
0.039209
21
0.148659
31
0.0
0
LINE
8
0
6
CONTINUOUS
10
0.042554
20
0.140299
30
0.0
11
0.042129
21
0.141719
31
0.0
0
LINE
8
0
6
CONTINUOUS
10
0.042628
20
0.140037
30
0.0
11
0.042554
21
0.140299
31
0.0
0
LINE
8
0
6
CONTINUOUS
10
0.050126
20
0.112280
30
0.0
11
0.048700
21
0.117340
31
0.0
0
LINE
8
0
6
CONTINUOUS
10
0.056745
20
0.086230
30
0.0
11
0.050126
21
0.112280
31
0.0
0
LINE
8
0
6
CONTINUOUS
10
0.044231
20
0.046694
30
0.0
11
0.048937
21
0.024658
31
0.0
0
LINE
8
0
6
CONTINUOUS
10
0.075348
20
-0.003185
30
0.0
11
0.069317
21
0.030403
31
0.0
0
LINE
8
0
6
CONTINUOUS
10
0.042129
20
0.141719
30
0.0
11
0.040817
21
0.145298
31
0.0
0
LINE
8
0
6
CONTINUOUS
10
0.069317
20
0.030403
30
0.0
11
0.063100
21
0.059515
31
0.0
0
LINE
8
0
6
CONTINUOUS
10
0.073553
20
-0.003691
30
0.0
11
0.074432
21
-0.003443
31
0.0
0
LINE
8
0
6
CONTINUOUS
10
0.074432
20
-0.003443
30
0.0
11
0.075044
21
-0.003271
31
0.0
0
LINE
8
0
6
CONTINUOUS
10
0.039353
20
0.141475
30
0.0
11
0.038229
21
0.145462
31
0.0
0
LINE
8
0
6
CONTINUOUS
10
0.016460
20
0.137856
30
0.0
11
0.017472
21
0.134268
31
0.0
0
LINE
8
0
6
CONTINUOUS
10
0.044779
20
0.122225
30
0.0
11
0.043471
21
0.126868
31
0.0
0
LINE
8
0
6
CONTINUOUS
10
0.021178
20
0.121121
30
0.0
11
0.022356
21
0.116943
31
0.0
0
LINE
8
0
6
CONTINUOUS
10
0.022356
20
0.116943
30
0.0
11
0.023367
21
0.113355
31
0.0
0
LINE
8
0
6
CONTINUOUS
10
0.045903
20
0.118239
30
0.0
11
0.044779
21
0.122225
31
0.0
0
LINE
8
0
6
CONTINUOUS
10
0.024143
20
0.110602
30
0.0
11
0.024631
21
0.108871
31
0.0
0
LINE
8
0
6
CONTINUOUS
10
0.059475
20
-0.007659
30
0.0
11
0.061770
21
-0.007013
31
0.0
0
LINE
8
0
6
CONTINUOUS
10
0.023022
20
0.111186
30
0.0
11
0.022289
21
0.113786
31
0.0
0
LINE
8
0
6
CONTINUOUS
10
0.022289
20
0.113786
30
0.0
11
0.021334
21
0.117175
31
0.0
0
LINE
8
0
6
CONTINUOUS
10
0.017834
20
0.129591
30
0.0
11
0.016721
21
0.133537
31
0.0
0
LINE
8
0
6
CONTINUOUS
10
0.037367
20
0.148521
30
0.0
11
0.036825
21
0.150445
31
0.0
0
LINE
8
0
6
CONTINUOUS
10
0.015196
20
0.142341
30
0.0
11
0.015685
21
0.140609
31
0.0
0
LINE
8
0
6
CONTINUOUS
10
0.043471
20
0.126868
30
0.0
11
0.042066
21
0.131850
31
0.0
0
LINE
8
0
6
CONTINUOUS
10
0.019914
20
0.125606
30
0.0
11
0.021178
21
0.121121
31
0.0
0
LINE
8
0
6
CONTINUOUS
10
0.036825
20
0.150445
30
0.0
11
0.036640
21
0.151100
31
0.0
0
LINE
8
0
6
CONTINUOUS
10
0.015030
20
0.142931
30
0.0
11
0.015196
21
0.142341
31
0.0
0
LINE
8
0
6
CONTINUOUS
10
0.036640
20
0.151100
30
0.0
11
0.015030
21
0.142931
31
0.0
0
LINE
8
0
6
CONTINUOUS
10
0.064715
20
-0.006182
30
0.0
11
0.072690
21
-0.003934
31
0.0
0
LINE
8
0
6
CONTINUOUS
10
0.061770
20
-0.007013
30
0.0
11
0.064715
21
-0.006182
31
0.0
0
LINE
8
0
6
CONTINUOUS
10
0.073056
20
-0.003831
30
0.0
11
0.073553
21
-0.003691
31
0.0
0
LINE
8
0
6
CONTINUOUS
10
0.072690
20
-0.003934
30
0.0
11
0.073056
21
-0.003831
31
0.0
0
LINE
8
0
6
CONTINUOUS
10
0.042066
20
0.131850
30
0.0
11
0.040662
21
0.136832
31
0.0
0
LINE
8
0
6
CONTINUOUS
10
0.018650
20
0.130090
30
0.0
11
0.019914
21
0.125606
31
0.0
0
LINE
8
0
6
CONTINUOUS
10
0.038229
20
0.145462
30
0.0
11
0.037367
21
0.148521
31
0.0
0
LINE
8
0
6
CONTINUOUS
10
0.015685
20
0.140609
30
0.0
11
0.016460
21
0.137856
31
0.0
0
LINE
8
0
6
CONTINUOUS
10
0.055343
20
-0.008824
30
0.0
11
0.056458
21
-0.008510
31
0.0
0
LINE
8
0
6
CONTINUOUS
10
0.057892
20
-0.008106
30
0.0
11
0.059475
21
-0.007659
31
0.0
0
LINE
8
0
6
CONTINUOUS
10
0.056458
20
-0.008510
30
0.0
11
0.057892
21
-0.008106
31
0.0
0
LINE
8
0
6
CONTINUOUS
10
0.054968
20
-0.008930
30
0.0
11
0.055343
21
-0.008824
31
0.0
0
LINE
8
0
6
CONTINUOUS
10
0.048937
20
0.024658
30
0.0
11
0.054968
21
-0.008930
31
0.0
0
LINE
8
0
6
CONTINUOUS
10
0.017472
20
0.134268
30
0.0
11
0.016460
21
0.137856
31
0.0
0
LINE
8
0
6
CONTINUOUS
10
0.015766
20
0.136926
30
0.0
11
0.016721
21
0.133537
31
0.0
0
LINE
8
0
6
CONTINUOUS
10
0.056458
20
-0.008510
30
0.0
11
0.055343
21
-0.008824
31
0.0
0
LINE
8
0
6
CONTINUOUS
10
0.057892
20
-0.008106
30
0.0
11
0.056458
21
-0.008510
31
0.0
0
LINE
8
0
6
CONTINUOUS
10
0.075325
20
-0.003192
30
0.0
11
0.075044
21
-0.003271
31
0.0
0
LINE
8
0
6
CONTINUOUS
10
0.075044
20
-0.003271
30
0.0
11
0.074432
21
-0.003443
31
0.0
0
LINE
8
0
6
CONTINUOUS
10
0.064715
20
-0.006182
30
0.0
11
0.061770
21
-0.007013
31
0.0
0
LINE
8
0
6
CONTINUOUS
10
0.061770
20
-0.007013
30
0.0
11
0.059475
21
-0.007659
31
0.0
0
LINE
8
0
6
CONTINUOUS
10
0.072690
20
-0.003934
30
0.0
11
0.064715
21
-0.006182
31
0.0
0
LINE
8
0
6
CONTINUOUS
10
0.073553
20
-0.003691
30
0.0
11
0.073056
21
-0.003831
31
0.0
0
LINE
8
0
6
CONTINUOUS
10
0.073056
20
-0.003831
30
0.0
11
0.072690
21
-0.003934
31
0.0
0
LINE
8
0
6
CONTINUOUS
10
0.059475
20
-0.007659
30
0.0
11
0.057892
21
-0.008106
31
0.0
0
LINE
8
0
6
CONTINUOUS
10
0.054968
20
-0.008930
30
0.0
11
0.055754
21
-0.009414
31
0.0
0
LINE
8
0
6
CONTINUOUS
10
0.055343
20
-0.008824
30
0.0
11
0.054968
21
-0.008930
31
0.0
0
LINE
8
0
6
CONTINUOUS
10
0.074432
20
-0.003443
30
0.0
11
0.073553
21
-0.003691
31
0.0
0
LINE
8
0
6
CONTINUOUS
10
0.074799
20
-0.004267
30
0.0
11
0.075348
21
-0.003185
31
0.0
0
LINE
8
0
6
CONTINUOUS
10
0.029027
20
0.109086
30
0.0
11
0.029746
21
0.106535
31
0.0
0
LINE
8
0
6
CONTINUOUS
10
0.015738
20
0.128543
30
0.0
11
0.016181
21
0.128668
31
0.0
0
LINE
8
0
6
CONTINUOUS
10
0.015661
20
0.128815
30
0.0
11
0.016104
21
0.128940
31
0.0
0
LINE
8
0
6
CONTINUOUS
10
0.015738
20
0.128543
30
0.0
11
0.015661
21
0.128815
31
0.0
0
LINE
8
0
6
CONTINUOUS
10
0.016181
20
0.128668
30
0.0
11
0.015738
21
0.128543
31
0.0
0
LINE
8
0
6
CONTINUOUS
10
0.016104
20
0.128940
30
0.0
11
0.015661
21
0.128815
31
0.0
0
LINE
8
0
6
CONTINUOUS
10
0.015661
20
0.128815
30
0.0
11
0.015738
21
0.128543
31
0.0
0
LINE
8
0
6
CONTINUOUS
10
0.019020
20
0.118598
30
0.0
11
0.018577
21
0.118473
31
0.0
0
LINE
8
0
6
CONTINUOUS
10
0.019224
20
0.117872
30
0.0
11
0.018781
21
0.117747
31
0.0
0
LINE
8
0
6
CONTINUOUS
10
0.018577
20
0.118473
30
0.0
11
0.019020
21
0.118598
31
0.0
0
LINE
8
0
6
CONTINUOUS
10
0.018781
20
0.117747
30
0.0
11
0.018577
21
0.118473
31
0.0
0
LINE
8
0
6
CONTINUOUS
10
0.019352
20
0.117419
30
0.0
11
0.018909
21
0.117294
31
0.0
0
LINE
8
0
6
CONTINUOUS
10
0.018781
20
0.117747
30
0.0
11
0.019224
21
0.117872
31
0.0
0
LINE
8
0
6
CONTINUOUS
10
0.018909
20
0.117294
30
0.0
11
0.018781
21
0.117747
31
0.0
0
LINE
8
0
6
CONTINUOUS
10
0.018909
20
0.117294
30
0.0
11
0.019352
21
0.117419
31
0.0
0
LINE
8
0
6
CONTINUOUS
10
0.018781
20
0.117747
30
0.0
11
0.018577
21
0.118473
31
0.0
0
LINE
8
0
6
CONTINUOUS
10
0.018781
20
0.117747
30
0.0
11
0.018909
21
0.117294
31
0.0
0
LINE
8
0
6
CONTINUOUS
10
0.016475
20
0.125929
30
0.0
11
0.016918
21
0.126054
31
0.0
0
LINE
8
0
6
CONTINUOUS
10
0.016270
20
0.126656
30
0.0
11
0.016713
21
0.126781
31
0.0
0
LINE
8
0
6
CONTINUOUS
10
0.016475
20
0.125929
30
0.0
11
0.016270
21
0.126656
31
0.0
0
LINE
8
0
6
CONTINUOUS
10
0.016918
20
0.126054
30
0.0
11
0.016475
21
0.125929
31
0.0
0
LINE
8
0
6
CONTINUOUS
10
0.016146
20
0.127096
30
0.0
11
0.016589
21
0.127221
31
0.0
0
LINE
8
0
6
CONTINUOUS
10
0.016270
20
0.126656
30
0.0
11
0.016146
21
0.127096
31
0.0
0
LINE
8
0
6
CONTINUOUS
10
0.016713
20
0.126781
30
0.0
11
0.016270
21
0.126656
31
0.0
0
LINE
8
0
6
CONTINUOUS
10
0.016589
20
0.127221
30
0.0
11
0.016146
21
0.127096
31
0.0
0
LINE
8
0
6
CONTINUOUS
10
0.016270
20
0.126656
30
0.0
11
0.016475
21
0.125929
31
0.0
0
LINE
8
0
6
CONTINUOUS
10
0.016146
20
0.127096
30
0.0
11
0.016270
21
0.126656
31
0.0
0
LINE
8
0
6
CONTINUOUS
10
0.015580
20
0.129105
30
0.0
11
0.016023
21
0.129230
31
0.0
0
LINE
8
0
6
CONTINUOUS
10
0.015555
20
0.129192
30
0.0
11
0.015998
21
0.129317
31
0.0
0
LINE
8
0
6
CONTINUOUS
10
0.015580
20
0.129105
30
0.0
11
0.015555
21
0.129192
31
0.0
0
LINE
8
0
6
CONTINUOUS
10
0.016023
20
0.129230
30
0.0
11
0.015580
21
0.129105
31
0.0
0
LINE
8
0
6
CONTINUOUS
10
0.015390
20
0.129779
30
0.0
11
0.015833
21
0.129904
31
0.0
0
LINE
8
0
6
CONTINUOUS
10
0.015555
20
0.129192
30
0.0
11
0.015390
21
0.129779
31
0.0
0
LINE
8
0
6
CONTINUOUS
10
0.015998
20
0.129317
30
0.0
11
0.015555
21
0.129192
31
0.0
0
LINE
8
0
6
CONTINUOUS
10
0.015184
20
0.130506
30
0.0
11
0.015628
21
0.130631
31
0.0
0
LINE
8
0
6
CONTINUOUS
10
0.015390
20
0.129779
30
0.0
11
0.015184
21
0.130506
31
0.0
0
LINE
8
0
6
CONTINUOUS
10
0.015833
20
0.129904
30
0.0
11
0.015390
21
0.129779
31
0.0
0
LINE
8
0
6
CONTINUOUS
10
0.015061
20
0.130946
30
0.0
11
0.015504
21
0.131071
31
0.0
0
LINE
8
0
6
CONTINUOUS
10
0.015184
20
0.130506
30
0.0
11
0.015061
21
0.130946
31
0.0
0
LINE
8
0
6
CONTINUOUS
10
0.015628
20
0.130631
30
0.0
11
0.015184
21
0.130506
31
0.0
0
LINE
8
0
6
CONTINUOUS
10
0.015504
20
0.131071
30
0.0
11
0.015061
21
0.130946
31
0.0
0
LINE
8
0
6
CONTINUOUS
10
0.015555
20
0.129192
30
0.0
11
0.015580
21
0.129105
31
0.0
0
LINE
8
0
6
CONTINUOUS
10
0.015390
20
0.129779
30
0.0
11
0.015555
21
0.129192
31
0.0
0
LINE
8
0
6
CONTINUOUS
10
0.015184
20
0.130506
30
0.0
11
0.015390
21
0.129779
31
0.0
0
LINE
8
0
6
CONTINUOUS
10
0.015061
20
0.130946
30
0.0
11
0.015184
21
0.130506
31
0.0
0
LINE
8
0
6
CONTINUOUS
10
0.017527
20
0.123894
30
0.0
11
0.017084
21
0.123769
31
0.0
0
LINE
8
0
6
CONTINUOUS
10
0.016541
20
0.125694
30
0.0
11
0.016984
21
0.125819
31
0.0
0
LINE
8
0
6
CONTINUOUS
10
0.016622
20
0.125405
30
0.0
11
0.017065
21
0.125530
31
0.0
0
LINE
8
0
6
CONTINUOUS
10
0.016541
20
0.125694
30
0.0
11
0.016622
21
0.125405
31
0.0
0
LINE
8
0
6
CONTINUOUS
10
0.016984
20
0.125819
30
0.0
11
0.016541
21
0.125694
31
0.0
0
LINE
8
0
6
CONTINUOUS
10
0.016812
20
0.124731
30
0.0
11
0.017255
21
0.124856
31
0.0
0
LINE
8
0
6
CONTINUOUS
10
0.016622
20
0.125405
30
0.0
11
0.016812
21
0.124731
31
0.0
0
LINE
8
0
6
CONTINUOUS
10
0.017065
20
0.125530
30
0.0
11
0.016622
21
0.125405
31
0.0
0
LINE
8
0
6
CONTINUOUS
10
0.017002
20
0.124058
30
0.0
11
0.017445
21
0.124183
31
0.0
0
LINE
8
0
6
CONTINUOUS
10
0.016812
20
0.124731
30
0.0
11
0.017002
21
0.124058
31
0.0
0
LINE
8
0
6
CONTINUOUS
10
0.017255
20
0.124856
30
0.0
11
0.016812
21
0.124731
31
0.0
0
LINE
8
0
6
CONTINUOUS
10
0.017084
20
0.123769
30
0.0
11
0.017527
21
0.123894
31
0.0
0
LINE
8
0
6
CONTINUOUS
10
0.017002
20
0.124058
30
0.0
11
0.017084
21
0.123769
31
0.0
0
LINE
8
0
6
CONTINUOUS
10
0.017445
20
0.124183
30
0.0
11
0.017002
21
0.124058
31
0.0
0
LINE
8
0
6
CONTINUOUS
10
0.016622
20
0.125405
30
0.0
11
0.016541
21
0.125694
31
0.0
0
LINE
8
0
6
CONTINUOUS
10
0.016812
20
0.124731
30
0.0
11
0.016622
21
0.125405
31
0.0
0
LINE
8
0
6
CONTINUOUS
10
0.017002
20
0.124058
30
0.0
11
0.016812
21
0.124731
31
0.0
0
LINE
8
0
6
CONTINUOUS
10
0.017084
20
0.123769
30
0.0
11
0.017002
21
0.124058
31
0.0
0
LINE
8
0
6
CONTINUOUS
10
0.018045
20
0.120358
30
0.0
11
0.018488
21
0.120483
31
0.0
0
LINE
8
0
6
CONTINUOUS
10
0.018070
20
0.120271
30
0.0
11
0.018513
21
0.120396
31
0.0
0
LINE
8
0
6
CONTINUOUS
10
0.018045
20
0.120358
30
0.0
11
0.018070
21
0.120271
31
0.0
0
LINE
8
0
6
CONTINUOUS
10
0.018488
20
0.120483
30
0.0
11
0.018045
21
0.120358
31
0.0
0
LINE
8
0
6
CONTINUOUS
10
0.018235
20
0.119684
30
0.0
11
0.018678
21
0.119809
31
0.0
0
LINE
8
0
6
CONTINUOUS
10
0.018070
20
0.120271
30
0.0
11
0.018235
21
0.119684
31
0.0
0
LINE
8
0
6
CONTINUOUS
10
0.018513
20
0.120396
30
0.0
11
0.018070
21
0.120271
31
0.0
0
LINE
8
0
6
CONTINUOUS
10
0.018440
20
0.118957
30
0.0
11
0.018883
21
0.119082
31
0.0
0
LINE
8
0
6
CONTINUOUS
10
0.018235
20
0.119684
30
0.0
11
0.018440
21
0.118957
31
0.0
0
LINE
8
0
6
CONTINUOUS
10
0.018678
20
0.119809
30
0.0
11
0.018235
21
0.119684
31
0.0
0
LINE
8
0
6
CONTINUOUS
10
0.018564
20
0.118517
30
0.0
11
0.019007
21
0.118642
31
0.0
0
LINE
8
0
6
CONTINUOUS
10
0.018440
20
0.118957
30
0.0
11
0.018564
21
0.118517
31
0.0
0
LINE
8
0
6
CONTINUOUS
10
0.018883
20
0.119082
30
0.0
11
0.018440
21
0.118957
31
0.0
0
LINE
8
0
6
CONTINUOUS
10
0.019007
20
0.118642
30
0.0
11
0.018564
21
0.118517
31
0.0
0
LINE
8
0
6
CONTINUOUS
10
0.018070
20
0.120271
30
0.0
11
0.018045
21
0.120358
31
0.0
0
LINE
8
0
6
CONTINUOUS
10
0.018235
20
0.119684
30
0.0
11
0.018070
21
0.120271
31
0.0
0
LINE
8
0
6
CONTINUOUS
10
0.018440
20
0.118957
30
0.0
11
0.018235
21
0.119684
31
0.0
0
LINE
8
0
6
CONTINUOUS
10
0.018564
20
0.118517
30
0.0
11
0.018440
21
0.118957
31
0.0
0
LINE
8
0
6
CONTINUOUS
10
0.018009
20
0.122183
30
0.0
11
0.017566
21
0.122058
31
0.0
0
LINE
8
0
6
CONTINUOUS
10
0.017170
20
0.123464
30
0.0
11
0.017613
21
0.123589
31
0.0
0
LINE
8
0
6
CONTINUOUS
10
0.017042
20
0.123917
30
0.0
11
0.017170
21
0.123464
31
0.0
0
LINE
8
0
6
CONTINUOUS
10
0.017374
20
0.122739
30
0.0
11
0.017817
21
0.122864
31
0.0
0
LINE
8
0
6
CONTINUOUS
10
0.017170
20
0.123464
30
0.0
11
0.017374
21
0.122739
31
0.0
0
LINE
8
0
6
CONTINUOUS
10
0.017613
20
0.123589
30
0.0
11
0.017170
21
0.123464
31
0.0
0
LINE
8
0
6
CONTINUOUS
10
0.017536
20
0.122162
30
0.0
11
0.017980
21
0.122287
31
0.0
0
LINE
8
0
6
CONTINUOUS
10
0.017374
20
0.122739
30
0.0
11
0.017536
21
0.122162
31
0.0
0
LINE
8
0
6
CONTINUOUS
10
0.017817
20
0.122864
30
0.0
11
0.017374
21
0.122739
31
0.0
0
LINE
8
0
6
CONTINUOUS
10
0.017566
20
0.122058
30
0.0
11
0.018009
21
0.122183
31
0.0
0
LINE
8
0
6
CONTINUOUS
10
0.017536
20
0.122162
30
0.0
11
0.017566
21
0.122058
31
0.0
0
LINE
8
0
6
CONTINUOUS
10
0.017980
20
0.122287
30
0.0
11
0.017536
21
0.122162
31
0.0
0
LINE
8
0
6
CONTINUOUS
10
0.017170
20
0.123464
30
0.0
11
0.017042
21
0.123917
31
0.0
0
LINE
8
0
6
CONTINUOUS
10
0.017374
20
0.122739
30
0.0
11
0.017170
21
0.123464
31
0.0
0
LINE
8
0
6
CONTINUOUS
10
0.017536
20
0.122162
30
0.0
11
0.017374
21
0.122739
31
0.0
0
LINE
8
0
6
CONTINUOUS
10
0.017566
20
0.122058
30
0.0
11
0.017536
21
0.122162
31
0.0
0
LINE
8
0
6
CONTINUOUS
10
0.014487
20
0.132980
30
0.0
11
0.014930
21
0.133105
31
0.0
0
LINE
8
0
6
CONTINUOUS
10
0.014363
20
0.133419
30
0.0
11
0.014806
21
0.133544
31
0.0
0
LINE
8
0
6
CONTINUOUS
10
0.014487
20
0.132980
30
0.0
11
0.014363
21
0.133419
31
0.0
0
LINE
8
0
6
CONTINUOUS
10
0.014930
20
0.133105
30
0.0
11
0.014487
21
0.132980
31
0.0
0
LINE
8
0
6
CONTINUOUS
10
0.014158
20
0.134147
30
0.0
11
0.014601
21
0.134272
31
0.0
0
LINE
8
0
6
CONTINUOUS
10
0.014363
20
0.133419
30
0.0
11
0.014158
21
0.134147
31
0.0
0
LINE
8
0
6
CONTINUOUS
10
0.014806
20
0.133544
30
0.0
11
0.014363
21
0.133419
31
0.0
0
LINE
8
0
6
CONTINUOUS
10
0.013993
20
0.134734
30
0.0
11
0.014436
21
0.134859
31
0.0
0
LINE
8
0
6
CONTINUOUS
10
0.014158
20
0.134147
30
0.0
11
0.013993
21
0.134734
31
0.0
0
LINE
8
0
6
CONTINUOUS
10
0.014601
20
0.134272
30
0.0
11
0.014158
21
0.134147
31
0.0
0
LINE
8
0
6
CONTINUOUS
10
0.013968
20
0.134821
30
0.0
11
0.014411
21
0.134946
31
0.0
0
LINE
8
0
6
CONTINUOUS
10
0.013993
20
0.134734
30
0.0
11
0.013968
21
0.134821
31
0.0
0
LINE
8
0
6
CONTINUOUS
10
0.014436
20
0.134859
30
0.0
11
0.013993
21
0.134734
31
0.0
0
LINE
8
0
6
CONTINUOUS
10
0.014411
20
0.134946
30
0.0
11
0.013968
21
0.134821
31
0.0
0
LINE
8
0
6
CONTINUOUS
10
0.014363
20
0.133419
30
0.0
11
0.014487
21
0.132980
31
0.0
0
LINE
8
0
6
CONTINUOUS
10
0.014158
20
0.134147
30
0.0
11
0.014363
21
0.133419
31
0.0
0
LINE
8
0
6
CONTINUOUS
10
0.013993
20
0.134734
30
0.0
11
0.014158
21
0.134147
31
0.0
0
LINE
8
0
6
CONTINUOUS
10
0.013968
20
0.134821
30
0.0
11
0.013993
21
0.134734
31
0.0
0
LINE
8
0
6
CONTINUOUS
10
0.019138
20
0.116483
30
0.0
11
0.019580
21
0.116608
31
0.0
0
LINE
8
0
6
CONTINUOUS
10
0.019261
20
0.116044
30
0.0
11
0.019704
21
0.116169
31
0.0
0
LINE
8
0
6
CONTINUOUS
10
0.019138
20
0.116483
30
0.0
11
0.019261
21
0.116044
31
0.0
0
LINE
8
0
6
CONTINUOUS
10
0.019581
20
0.116608
30
0.0
11
0.019138
21
0.116483
31
0.0
0
LINE
8
0
6
CONTINUOUS
10
0.019466
20
0.115316
30
0.0
11
0.019909
21
0.115441
31
0.0
0
LINE
8
0
6
CONTINUOUS
10
0.019261
20
0.116044
30
0.0
11
0.019466
21
0.115316
31
0.0
0
LINE
8
0
6
CONTINUOUS
10
0.019704
20
0.116169
30
0.0
11
0.019261
21
0.116044
31
0.0
0
LINE
8
0
6
CONTINUOUS
10
0.019632
20
0.114729
30
0.0
11
0.020075
21
0.114854
31
0.0
0
LINE
8
0
6
CONTINUOUS
10
0.019466
20
0.115316
30
0.0
11
0.019632
21
0.114729
31
0.0
0
LINE
8
0
6
CONTINUOUS
10
0.019910
20
0.115441
30
0.0
11
0.019466
21
0.115316
31
0.0
0
LINE
8
0
6
CONTINUOUS
10
0.019656
20
0.114642
30
0.0
11
0.020099
21
0.114767
31
0.0
0
LINE
8
0
6
CONTINUOUS
10
0.019632
20
0.114729
30
0.0
11
0.019656
21
0.114642
31
0.0
0
LINE
8
0
6
CONTINUOUS
10
0.020075
20
0.114854
30
0.0
11
0.019632
21
0.114729
31
0.0
0
LINE
8
0
6
CONTINUOUS
10
0.020100
20
0.114767
30
0.0
11
0.019656
21
0.114642
31
0.0
0
LINE
8
0
6
CONTINUOUS
10
0.019261
20
0.116044
30
0.0
11
0.019138
21
0.116483
31
0.0
0
LINE
8
0
6
CONTINUOUS
10
0.019466
20
0.115316
30
0.0
11
0.019261
21
0.116044
31
0.0
0
LINE
8
0
6
CONTINUOUS
10
0.019632
20
0.114729
30
0.0
11
0.019466
21
0.115316
31
0.0
0
LINE
8
0
6
CONTINUOUS
10
0.019656
20
0.114642
30
0.0
11
0.019632
21
0.114729
31
0.0
0
LINE
8
0
6
CONTINUOUS
10
0.020240
20
0.114269
30
0.0
11
0.019797
21
0.114144
31
0.0
0
LINE
8
0
6
CONTINUOUS
10
0.019797
20
0.114144
30
0.0
11
0.019607
21
0.114818
31
0.0
0
LINE
8
0
6
CONTINUOUS
10
0.020430
20
0.113595
30
0.0
11
0.019987
21
0.113470
31
0.0
0
LINE
8
0
6
CONTINUOUS
10
0.019797
20
0.114144
30
0.0
11
0.020240
21
0.114269
31
0.0
0
LINE
8
0
6
CONTINUOUS
10
0.019987
20
0.113470
30
0.0
11
0.019797
21
0.114144
31
0.0
0
LINE
8
0
6
CONTINUOUS
10
0.020511
20
0.113307
30
0.0
11
0.020068
21
0.113182
31
0.0
0
LINE
8
0
6
CONTINUOUS
10
0.019987
20
0.113470
30
0.0
11
0.020430
21
0.113595
31
0.0
0
LINE
8
0
6
CONTINUOUS
10
0.020068
20
0.113182
30
0.0
11
0.019987
21
0.113470
31
0.0
0
LINE
8
0
6
CONTINUOUS
10
0.020068
20
0.113182
30
0.0
11
0.020511
21
0.113307
31
0.0
0
LINE
8
0
6
CONTINUOUS
10
0.019607
20
0.114818
30
0.0
11
0.019797
21
0.114144
31
0.0
0
LINE
8
0
6
CONTINUOUS
10
0.019987
20
0.113470
30
0.0
11
0.019797
21
0.114144
31
0.0
0
LINE
8
0
6
CONTINUOUS
10
0.019987
20
0.113470
30
0.0
11
0.020068
21
0.113182
31
0.0
0
LINE
8
0
6
CONTINUOUS
10
0.014271
20
0.135444
30
0.0
11
0.013828
21
0.135319
31
0.0
0
LINE
8
0
6
CONTINUOUS
10
0.013828
20
0.135319
30
0.0
11
0.014018
21
0.134645
31
0.0
0
LINE
8
0
6
CONTINUOUS
10
0.014081
20
0.136118
30
0.0
11
0.013638
21
0.135993
31
0.0
0
LINE
8
0
6
CONTINUOUS
10
0.013828
20
0.135319
30
0.0
11
0.014271
21
0.135444
31
0.0
0
LINE
8
0
6
CONTINUOUS
10
0.013638
20
0.135993
30
0.0
11
0.013828
21
0.135319
31
0.0
0
LINE
8
0
6
CONTINUOUS
10
0.014000
20
0.136406
30
0.0
11
0.013557
21
0.136281
31
0.0
0
LINE
8
0
6
CONTINUOUS
10
0.013638
20
0.135993
30
0.0
11
0.014081
21
0.136118
31
0.0
0
LINE
8
0
6
CONTINUOUS
10
0.013557
20
0.136281
30
0.0
11
0.013638
21
0.135993
31
0.0
0
LINE
8
0
6
CONTINUOUS
10
0.013557
20
0.136281
30
0.0
11
0.014000
21
0.136406
31
0.0
0
LINE
8
0
6
CONTINUOUS
10
0.014018
20
0.134645
30
0.0
11
0.013828
21
0.135319
31
0.0
0
LINE
8
0
6
CONTINUOUS
10
0.013638
20
0.135993
30
0.0
11
0.013828
21
0.135319
31
0.0
0
LINE
8
0
6
CONTINUOUS
10
0.013638
20
0.135993
30
0.0
11
0.013557
21
0.136281
31
0.0
0
LINE
8
0
6
CONTINUOUS
10
0.015491
20
0.131115
30
0.0
11
0.015048
21
0.130990
31
0.0
0
LINE
8
0
6
CONTINUOUS
10
0.014716
20
0.132169
30
0.0
11
0.015159
21
0.132294
31
0.0
0
LINE
8
0
6
CONTINUOUS
10
0.014844
20
0.131716
30
0.0
11
0.015287
21
0.131841
31
0.0
0
LINE
8
0
6
CONTINUOUS
10
0.014716
20
0.132169
30
0.0
11
0.014844
21
0.131716
31
0.0
0
LINE
8
0
6
CONTINUOUS
10
0.015159
20
0.132294
30
0.0
11
0.014716
21
0.132169
31
0.0
0
LINE
8
0
6
CONTINUOUS
10
0.015048
20
0.130990
30
0.0
11
0.015491
21
0.131115
31
0.0
0
LINE
8
0
6
CONTINUOUS
10
0.014844
20
0.131716
30
0.0
11
0.015048
21
0.130990
31
0.0
0
LINE
8
0
6
CONTINUOUS
10
0.015287
20
0.131841
30
0.0
11
0.014844
21
0.131716
31
0.0
0
LINE
8
0
6
CONTINUOUS
10
0.014844
20
0.131716
30
0.0
11
0.014716
21
0.132169
31
0.0
0
LINE
8
0
6
CONTINUOUS
10
0.015048
20
0.130990
30
0.0
11
0.014844
21
0.131716
31
0.0
0
LINE
8
0
6
CONTINUOUS
10
0.013828
20
0.135319
30
0.0
11
0.014018
21
0.134645
31
0.0
0
LINE
8
0
6
CONTINUOUS
10
0.014271
20
0.135444
30
0.0
11
0.013828
21
0.135319
31
0.0
0
LINE
8
0
6
CONTINUOUS
10
0.013557
20
0.136281
30
0.0
11
0.014000
21
0.136406
31
0.0
0
LINE
8
0
6
CONTINUOUS
10
0.013638
20
0.135993
30
0.0
11
0.014081
21
0.136118
31
0.0
0
LINE
8
0
6
CONTINUOUS
10
0.013557
20
0.136281
30
0.0
11
0.013638
21
0.135993
31
0.0
0
LINE
8
0
6
CONTINUOUS
10
0.014000
20
0.136406
30
0.0
11
0.013557
21
0.136281
31
0.0
0
LINE
8
0
6
CONTINUOUS
10
0.013828
20
0.135319
30
0.0
11
0.014271
21
0.135444
31
0.0
0
LINE
8
0
6
CONTINUOUS
10
0.013638
20
0.135993
30
0.0
11
0.013828
21
0.135319
31
0.0
0
LINE
8
0
6
CONTINUOUS
10
0.014081
20
0.136118
30
0.0
11
0.013638
21
0.135993
31
0.0
0
LINE
8
0
6
CONTINUOUS
10
0.014018
20
0.134645
30
0.0
11
0.013828
21
0.135319
31
0.0
0
LINE
8
0
6
CONTINUOUS
10
0.013638
20
0.135993
30
0.0
11
0.013557
21
0.136281
31
0.0
0
LINE
8
0
6
CONTINUOUS
10
0.013828
20
0.135319
30
0.0
11
0.013638
21
0.135993
31
0.0
0
LINE
8
0
6
CONTINUOUS
10
0.015998
20
0.127619
30
0.0
11
0.016188
21
0.126945
31
0.0
0
LINE
8
0
6
CONTINUOUS
10
0.016441
20
0.127744
30
0.0
11
0.015998
21
0.127619
31
0.0
0
LINE
8
0
6
CONTINUOUS
10
0.015808
20
0.128293
30
0.0
11
0.016251
21
0.128418
31
0.0
0
LINE
8
0
6
CONTINUOUS
10
0.015727
20
0.128581
30
0.0
11
0.015808
21
0.128293
31
0.0
0
LINE
8
0
6
CONTINUOUS
10
0.015998
20
0.127619
30
0.0
11
0.016441
21
0.127744
31
0.0
0
LINE
8
0
6
CONTINUOUS
10
0.015808
20
0.128293
30
0.0
11
0.015998
21
0.127619
31
0.0
0
LINE
8
0
6
CONTINUOUS
10
0.016251
20
0.128418
30
0.0
11
0.015808
21
0.128293
31
0.0
0
LINE
8
0
6
CONTINUOUS
10
0.016188
20
0.126945
30
0.0
11
0.015998
21
0.127619
31
0.0
0
LINE
8
0
6
CONTINUOUS
10
0.015808
20
0.128293
30
0.0
11
0.015727
21
0.128581
31
0.0
0
LINE
8
0
6
CONTINUOUS
10
0.015998
20
0.127619
30
0.0
11
0.015808
21
0.128293
31
0.0
0
LINE
8
0
6
CONTINUOUS
10
0.017963
20
0.120648
30
0.0
11
0.018406
21
0.120773
31
0.0
0
LINE
8
0
6
CONTINUOUS
10
0.017963
20
0.120648
30
0.0
11
0.017887
21
0.120920
31
0.0
0
LINE
8
0
6
CONTINUOUS
10
0.018407
20
0.120773
30
0.0
11
0.017963
21
0.120648
31
0.0
0
LINE
8
0
6
CONTINUOUS
10
0.017887
20
0.120920
30
0.0
11
0.017963
21
0.120648
31
0.0
0
LINE
8
0
6
CONTINUOUS
10
0.018069
20
0.121969
30
0.0
11
0.017626
21
0.121844
31
0.0
0
LINE
8
0
6
CONTINUOUS
10
0.017898
20
0.120882
30
0.0
11
0.018340
21
0.121007
31
0.0
0
LINE
8
0
6
CONTINUOUS
10
0.017816
20
0.121170
30
0.0
11
0.018259
21
0.121295
31
0.0
0
LINE
8
0
6
CONTINUOUS
10
0.017898
20
0.120882
30
0.0
11
0.017816
21
0.121170
31
0.0
0
LINE
8
0
6
CONTINUOUS
10
0.018341
20
0.121007
30
0.0
11
0.017898
21
0.120882
31
0.0
0
LINE
8
0
6
CONTINUOUS
10
0.017626
20
0.121844
30
0.0
11
0.018069
21
0.121969
31
0.0
0
LINE
8
0
6
CONTINUOUS
10
0.017816
20
0.121170
30
0.0
11
0.017626
21
0.121844
31
0.0
0
LINE
8
0
6
CONTINUOUS
10
0.018259
20
0.121295
30
0.0
11
0.017816
21
0.121170
31
0.0
0
LINE
8
0
6
CONTINUOUS
10
0.017816
20
0.121170
30
0.0
11
0.017898
21
0.120882
31
0.0
0
LINE
8
0
6
CONTINUOUS
10
0.017626
20
0.121844
30
0.0
11
0.017816
21
0.121170
31
0.0
0
LINE
8
0
6
CONTINUOUS
10
0.019797
20
0.114144
30
0.0
11
0.019607
21
0.114818
31
0.0
0
LINE
8
0
6
CONTINUOUS
10
0.020240
20
0.114269
30
0.0
11
0.019797
21
0.114144
31
0.0
0
LINE
8
0
6
CONTINUOUS
10
0.020068
20
0.113182
30
0.0
11
0.020511
21
0.113307
31
0.0
0
LINE
8
0
6
CONTINUOUS
10
0.019987
20
0.113470
30
0.0
11
0.020430
21
0.113595
31
0.0
0
LINE
8
0
6
CONTINUOUS
10
0.020068
20
0.113182
30
0.0
11
0.019987
21
0.113470
31
0.0
0
LINE
8
0
6
CONTINUOUS
10
0.020511
20
0.113307
30
0.0
11
0.020068
21
0.113182
31
0.0
0
LINE
8
0
6
CONTINUOUS
10
0.019797
20
0.114144
30
0.0
11
0.020240
21
0.114269
31
0.0
0
LINE
8
0
6
CONTINUOUS
10
0.019987
20
0.113470
30
0.0
11
0.019797
21
0.114144
31
0.0
0
LINE
8
0
6
CONTINUOUS
10
0.020430
20
0.113595
30
0.0
11
0.019987
21
0.113470
31
0.0
0
LINE
8
0
6
CONTINUOUS
10
0.019607
20
0.114818
30
0.0
11
0.019797
21
0.114144
31
0.0
0
LINE
8
0
6
CONTINUOUS
10
0.019987
20
0.113470
30
0.0
11
0.020068
21
0.113182
31
0.0
0
LINE
8
0
6
CONTINUOUS
10
0.019797
20
0.114144
30
0.0
11
0.019987
21
0.113470
31
0.0
0
LINE
8
0
6
CONTINUOUS
10
0.019020
20
0.118598
30
0.0
11
0.018577
21
0.118473
31
0.0
0
LINE
8
0
6
CONTINUOUS
10
0.018909
20
0.117294
30
0.0
11
0.019352
21
0.117419
31
0.0
0
LINE
8
0
6
CONTINUOUS
10
0.018781
20
0.117747
30
0.0
11
0.019224
21
0.117872
31
0.0
0
LINE
8
0
6
CONTINUOUS
10
0.018909
20
0.117294
30
0.0
11
0.018781
21
0.117747
31
0.0
0
LINE
8
0
6
CONTINUOUS
10
0.019352
20
0.117419
30
0.0
11
0.018909
21
0.117294
31
0.0
0
LINE
8
0
6
CONTINUOUS
10
0.018577
20
0.118473
30
0.0
11
0.019020
21
0.118598
31
0.0
0
LINE
8
0
6
CONTINUOUS
10
0.018781
20
0.117747
30
0.0
11
0.018577
21
0.118473
31
0.0
0
LINE
8
0
6
CONTINUOUS
10
0.019224
20
0.117872
30
0.0
11
0.018781
21
0.117747
31
0.0
0
LINE
8
0
6
CONTINUOUS
10
0.018781
20
0.117747
30
0.0
11
0.018909
21
0.117294
31
0.0
0
LINE
8
0
6
CONTINUOUS
10
0.018577
20
0.118473
30
0.0
11
0.018781
21
0.117747
31
0.0
0
LINE
8
0
6
CONTINUOUS
10
0.034910
20
0.081471
30
0.0
11
0.042755
21
0.050450
31
0.0
0
LINE
8
0
6
CONTINUOUS
10
0.042755
20
0.050450
30
0.0
11
0.034910
21
0.081471
31
0.0
0
LINE
8
0
6
CONTINUOUS
10
0.034910
20
0.081471
30
0.0
11
0.034659
21
0.082464
31
0.0
0
LINE
8
0
6
CONTINUOUS
10
0.034659
20
0.082464
30
0.0
11
0.034424
21
0.083394
31
0.0
0
LINE
8
0
6
CONTINUOUS
10
0.034424
20
0.083394
30
0.0
11
0.034216
21
0.084216
31
0.0
0
LINE
8
0
6
CONTINUOUS
10
0.034216
20
0.084216
30
0.0
11
0.034059
21
0.084837
31
0.0
0
LINE
8
0
6
CONTINUOUS
10
0.034059
20
0.084837
30
0.0
11
0.033965
21
0.085209
31
0.0
0
LINE
8
0
6
CONTINUOUS
10
0.033965
20
0.085209
30
0.0
11
0.033930
21
0.085349
31
0.0
0
LINE
8
0
6
CONTINUOUS
10
0.034659
20
0.082464
30
0.0
11
0.034910
21
0.081471
31
0.0
0
LINE
8
0
6
CONTINUOUS
10
0.034424
20
0.083394
30
0.0
11
0.034659
21
0.082464
31
0.0
0
LINE
8
0
6
CONTINUOUS
10
0.034216
20
0.084216
30
0.0
11
0.034424
21
0.083394
31
0.0
0
LINE
8
0
6
CONTINUOUS
10
0.034059
20
0.084837
30
0.0
11
0.034216
21
0.084216
31
0.0
0
LINE
8
0
6
CONTINUOUS
10
0.033965
20
0.085209
30
0.0
11
0.034059
21
0.084837
31
0.0
0
LINE
8
0
6
CONTINUOUS
10
0.035058
20
0.085629
30
0.0
11
0.033930
21
0.085349
31
0.0
0
LINE
8
0
6
CONTINUOUS
10
0.033930
20
0.085349
30
0.0
11
0.033965
21
0.085209
31
0.0
0
LINE
8
0
6
CONTINUOUS
10
0.043006
20
0.049457
30
0.0
11
0.042755
21
0.050450
31
0.0
0
LINE
8
0
6
CONTINUOUS
10
0.043241
20
0.048527
30
0.0
11
0.043006
21
0.049457
31
0.0
0
LINE
8
0
6
CONTINUOUS
10
0.043449
20
0.047704
30
0.0
11
0.043241
21
0.048527
31
0.0
0
LINE
8
0
6
CONTINUOUS
10
0.043606
20
0.047083
30
0.0
11
0.043449
21
0.047704
31
0.0
0
LINE
8
0
6
CONTINUOUS
10
0.043700
20
0.046711
30
0.0
11
0.043606
21
0.047083
31
0.0
0
LINE
8
0
6
CONTINUOUS
10
0.043735
20
0.046571
30
0.0
11
0.043700
21
0.046711
31
0.0
0
LINE
8
0
6
CONTINUOUS
10
0.042755
20
0.050450
30
0.0
11
0.043006
21
0.049457
31
0.0
0
LINE
8
0
6
CONTINUOUS
10
0.043006
20
0.049457
30
0.0
11
0.043241
21
0.048527
31
0.0
0
LINE
8
0
6
CONTINUOUS
10
0.043241
20
0.048527
30
0.0
11
0.043449
21
0.047704
31
0.0
0
LINE
8
0
6
CONTINUOUS
10
0.043449
20
0.047704
30
0.0
11
0.043606
21
0.047083
31
0.0
0
LINE
8
0
6
CONTINUOUS
10
0.043606
20
0.047083
30
0.0
11
0.043700
21
0.046711
31
0.0
0
LINE
8
0
6
CONTINUOUS
10
0.043735
20
0.046571
30
0.0
11
0.044231
21
0.046694
31
0.0
0
LINE
8
0
6
CONTINUOUS
10
0.043700
20
0.046711
30
0.0
11
0.043735
21
0.046571
31
0.0
0
LINE
8
0
6
CONTINUOUS
10
0.014557
20
0.137602
30
0.0
11
0.014399
21
0.139023
31
0.0
0
LINE
8
0
6
CONTINUOUS
10
0.014399
20
0.139023
30
0.0
11
0.014370
21
0.140235
31
0.0
0
LINE
8
0
6
CONTINUOUS
10
0.014370
20
0.140235
30
0.0
11
0.014448
21
0.141096
31
0.0
0
LINE
8
0
6
CONTINUOUS
10
0.014448
20
0.141096
30
0.0
11
0.014529
21
0.141317
31
0.0
0
LINE
8
0
6
CONTINUOUS
10
0.022218
20
0.111284
30
0.0
11
0.021575
21
0.112654
31
0.0
0
LINE
8
0
6
CONTINUOUS
10
0.022826
20
0.110235
30
0.0
11
0.022218
21
0.111284
31
0.0
0
LINE
8
0
6
CONTINUOUS
10
0.023343
20
0.109541
30
0.0
11
0.022826
21
0.110235
31
0.0
0
LINE
8
0
6
CONTINUOUS
10
0.023527
20
0.109396
30
0.0
11
0.023343
21
0.109541
31
0.0
0
LINE
8
0
6
CONTINUOUS
10
0.016441
20
0.127744
30
0.0
11
0.016251
21
0.128418
31
0.0
0
LINE
8
0
6
CONTINUOUS
10
0.014963
20
0.133625
30
0.0
11
0.014413
21
0.135575
31
0.0
0
LINE
8
0
6
CONTINUOUS
10
0.014413
20
0.135575
30
0.0
11
0.014071
21
0.136790
31
0.0
0
LINE
8
0
6
CONTINUOUS
10
0.014008
20
0.136375
30
0.0
11
0.014340
21
0.135197
31
0.0
0
LINE
8
0
6
CONTINUOUS
10
0.013946
20
0.137232
30
0.0
11
0.013884
21
0.136817
31
0.0
0
LINE
8
0
6
CONTINUOUS
10
0.013884
20
0.136817
30
0.0
11
0.014008
21
0.136375
31
0.0
0
LINE
8
0
6
CONTINUOUS
10
0.014413
20
0.135575
30
0.0
11
0.014963
21
0.133625
31
0.0
0
LINE
8
0
6
CONTINUOUS
10
0.014071
20
0.136790
30
0.0
11
0.014413
21
0.135575
31
0.0
0
LINE
8
0
6
CONTINUOUS
10
0.014227
20
0.137509
30
0.0
11
0.013946
21
0.137232
31
0.0
0
LINE
8
0
6
CONTINUOUS
10
0.014557
20
0.137602
30
0.0
11
0.014227
21
0.137509
31
0.0
0
LINE
8
0
6
CONTINUOUS
10
0.016251
20
0.128418
30
0.0
11
0.016441
21
0.127744
31
0.0
0
LINE
8
0
6
CONTINUOUS
10
0.016589
20
0.127221
30
0.0
11
0.016713
21
0.126781
31
0.0
0
LINE
8
0
6
CONTINUOUS
10
0.016384
20
0.127948
30
0.0
11
0.017255
21
0.124856
31
0.0
0
LINE
8
0
6
CONTINUOUS
10
0.014869
20
0.133321
30
0.0
11
0.015575
21
0.130818
31
0.0
0
LINE
8
0
6
CONTINUOUS
10
0.015689
20
0.131049
30
0.0
11
0.014963
21
0.133625
31
0.0
0
LINE
8
0
6
CONTINUOUS
10
0.016529
20
0.128068
30
0.0
11
0.015689
21
0.131049
31
0.0
0
LINE
8
0
6
CONTINUOUS
10
0.016384
20
0.127948
30
0.0
11
0.017255
21
0.124856
31
0.0
0
LINE
8
0
6
CONTINUOUS
10
0.017422
20
0.124903
30
0.0
11
0.016529
21
0.128068
31
0.0
0
LINE
8
0
6
CONTINUOUS
10
0.014963
20
0.133625
30
0.0
11
0.015689
21
0.131049
31
0.0
0
LINE
8
0
6
CONTINUOUS
10
0.015689
20
0.131049
30
0.0
11
0.016529
21
0.128068
31
0.0
0
LINE
8
0
6
CONTINUOUS
10
0.016529
20
0.128068
30
0.0
11
0.017422
21
0.124903
31
0.0
0
LINE
8
0
6
CONTINUOUS
10
0.019880
20
0.116181
30
0.0
11
0.019154
21
0.118757
31
0.0
0
LINE
8
0
6
CONTINUOUS
10
0.019154
20
0.118757
30
0.0
11
0.018314
21
0.121738
31
0.0
0
LINE
8
0
6
CONTINUOUS
10
0.018127
20
0.121765
30
0.0
11
0.018936
21
0.118895
31
0.0
0
LINE
8
0
6
CONTINUOUS
10
0.018314
20
0.121738
30
0.0
11
0.017422
21
0.124903
31
0.0
0
LINE
8
0
6
CONTINUOUS
10
0.017255
20
0.124856
30
0.0
11
0.018127
21
0.121765
31
0.0
0
LINE
8
0
6
CONTINUOUS
10
0.019154
20
0.118757
30
0.0
11
0.019880
21
0.116181
31
0.0
0
LINE
8
0
6
CONTINUOUS
10
0.018314
20
0.121738
30
0.0
11
0.019154
21
0.118757
31
0.0
0
LINE
8
0
6
CONTINUOUS
10
0.017422
20
0.124903
30
0.0
11
0.018314
21
0.121738
31
0.0
0
LINE
8
0
6
CONTINUOUS
10
0.020430
20
0.114231
30
0.0
11
0.019880
21
0.116181
31
0.0
0
LINE
8
0
6
CONTINUOUS
10
0.020170
20
0.114515
30
0.0
11
0.020502
21
0.113338
31
0.0
0
LINE
8
0
6
CONTINUOUS
10
0.020627
20
0.112896
30
0.0
11
0.020897
21
0.112575
31
0.0
0
LINE
8
0
6
CONTINUOUS
10
0.020897
20
0.112575
30
0.0
11
0.020772
21
0.113016
31
0.0
0
LINE
8
0
6
CONTINUOUS
10
0.019880
20
0.116181
30
0.0
11
0.020430
21
0.114231
31
0.0
0
LINE
8
0
6
CONTINUOUS
10
0.020430
20
0.114231
30
0.0
11
0.020772
21
0.113016
31
0.0
0
LINE
8
0
6
CONTINUOUS
10
0.020897
20
0.112575
30
0.0
11
0.021281
21
0.112484
31
0.0
0
LINE
8
0
6
CONTINUOUS
10
0.020772
20
0.113016
30
0.0
11
0.020897
21
0.112575
31
0.0
0
LINE
8
0
6
CONTINUOUS
10
0.007808
20
-0.011569
30
0.0
11
0.012331
21
-0.011569
31
0.0
0
LINE
8
0
6
CONTINUOUS
10
-0.015864
20
-0.011569
30
0.0
11
-0.015185
21
-0.011569
31
0.0
0
LINE
8
0
6
CONTINUOUS
10
-0.015864
20
-0.010832
30
0.0
11
-0.015864
21
-0.011569
31
0.0
0
LINE
8
0
6
CONTINUOUS
10
-0.015185
20
-0.011569
30
0.0
11
-0.013374
21
-0.011569
31
0.0
0
LINE
8
0
6
CONTINUOUS
10
-0.013374
20
-0.011569
30
0.0
11
-0.010355
21
-0.011569
31
0.0
0
LINE
8
0
6
CONTINUOUS
10
0.019321
20
-0.011569
30
0.0
11
0.021172
21
-0.011569
31
0.0
0
LINE
8
0
6
CONTINUOUS
10
0.003002
20
-0.011569
30
0.0
11
0.007808
21
-0.011569
31
0.0
0
LINE
8
0
6
CONTINUOUS
10
-0.001828
20
-0.011569
30
0.0
11
0.003002
21
-0.011569
31
0.0
0
LINE
8
0
6
CONTINUOUS
10
0.021867
20
-0.011569
30
0.0
11
0.021867
21
-0.010832
31
0.0
0
LINE
8
0
6
CONTINUOUS
10
0.021172
20
-0.011569
30
0.0
11
0.021867
21
-0.011569
31
0.0
0
LINE
8
0
6
CONTINUOUS
10
-0.006356
20
-0.011569
30
0.0
11
-0.001828
21
-0.011569
31
0.0
0
LINE
8
0
6
CONTINUOUS
10
0.016340
20
-0.011569
30
0.0
11
0.019321
21
-0.011569
31
0.0
0
LINE
8
0
6
CONTINUOUS
10
-0.010355
20
-0.011569
30
0.0
11
-0.006356
21
-0.011569
31
0.0
0
LINE
8
0
6
CONTINUOUS
10
0.012331
20
-0.011569
30
0.0
11
0.016340
21
-0.011569
31
0.0
0
LINE
8
0
6
CONTINUOUS
10
-0.014077
20
-0.010832
30
0.0
11
-0.014077
21
-0.013228
31
0.0
0
LINE
8
0
6
CONTINUOUS
10
0.020080
20
-0.013228
30
0.0
11
0.020080
21
-0.010832
31
0.0
0
LINE
8
0
6
CONTINUOUS
10
-0.063160
20
0.039524
30
0.0
11
-0.063315
21
0.038918
31
0.0
0
LINE
8
0
6
CONTINUOUS
10
-0.065006
20
0.029863
30
0.0
11
-0.025449
21
0.020230
31
0.0
0
LINE
8
0
6
CONTINUOUS
10
-0.025281
20
0.020584
30
0.0
11
-0.064911
21
0.030239
31
0.0
0
LINE
8
0
6
CONTINUOUS
10
-0.063839
20
0.036853
30
0.0
11
-0.064318
21
0.034964
31
0.0
0
LINE
8
0
6
CONTINUOUS
10
-0.063315
20
0.038918
30
0.0
11
-0.063432
21
0.038454
31
0.0
0
LINE
8
0
6
CONTINUOUS
10
-0.063839
20
0.036853
30
0.0
11
-0.063660
21
0.037558
31
0.0
0
LINE
8
0
6
CONTINUOUS
10
-0.018218
20
0.016848
30
0.0
11
-0.017127
21
0.014911
31
0.0
0
LINE
8
0
6
CONTINUOUS
10
-0.006336
20
0.026300
30
0.0
11
-0.005549
21
0.026300
31
0.0
0
LINE
8
0
6
CONTINUOUS
10
0.000149
20
0.026300
30
0.0
11
0.003641
21
0.026300
31
0.0
0
LINE
8
0
6
CONTINUOUS
10
0.007949
20
0.026300
30
0.0
11
0.000149
21
0.026300
31
0.0
0
LINE
8
0
6
CONTINUOUS
10
0.007158
20
0.026300
30
0.0
11
0.003636
21
0.026300
31
0.0
0
LINE
8
0
6
CONTINUOUS
10
0.012357
20
0.026300
30
0.0
11
0.007158
21
0.026300
31
0.0
0
LINE
8
0
6
CONTINUOUS
10
-0.015864
20
0.009688
30
0.0
11
-0.015864
21
-0.010832
31
0.0
0
LINE
8
0
6
CONTINUOUS
10
0.021867
20
-0.010832
30
0.0
11
0.021867
21
0.009688
31
0.0
0
LINE
8
0
6
CONTINUOUS
10
-0.063432
20
0.038454
30
0.0
11
-0.063660
21
0.037558
31
0.0
0
LINE
8
0
6
CONTINUOUS
10
-0.017431
20
0.026971
30
0.0
11
-0.016159
21
0.026493
31
0.0
0
LINE
8
0
6
CONTINUOUS
10
-0.017711
20
0.020892
30
0.0
11
-0.017812
21
0.018925
31
0.0
0
LINE
8
0
6
CONTINUOUS
10
-0.024060
20
0.028816
30
0.0
11
-0.021250
21
0.028088
31
0.0
0
LINE
8
0
6
CONTINUOUS
10
0.012359
20
0.026300
30
0.0
11
0.007831
21
0.026300
31
0.0
0
LINE
8
0
6
CONTINUOUS
10
-0.010355
20
0.026300
30
0.0
11
-0.013374
21
0.026300
31
0.0
0
LINE
8
0
6
CONTINUOUS
10
-0.001828
20
0.026300
30
0.0
11
-0.006356
21
0.026300
31
0.0
0
LINE
8
0
6
CONTINUOUS
10
-0.006356
20
0.026300
30
0.0
11
-0.010355
21
0.026300
31
0.0
0
LINE
8
0
6
CONTINUOUS
10
0.016358
20
0.026300
30
0.0
11
0.012359
21
0.026300
31
0.0
0
LINE
8
0
6
CONTINUOUS
10
0.021867
20
0.026300
30
0.0
11
0.021188
21
0.026300
31
0.0
0
LINE
8
0
6
CONTINUOUS
10
0.021867
20
0.025442
30
0.0
11
0.021867
21
0.026300
31
0.0
0
LINE
8
0
6
CONTINUOUS
10
0.021188
20
0.026300
30
0.0
11
0.019377
21
0.026300
31
0.0
0
LINE
8
0
6
CONTINUOUS
10
0.019377
20
0.026300
30
0.0
11
0.016358
21
0.026300
31
0.0
0
LINE
8
0
6
CONTINUOUS
10
0.003002
20
0.026300
30
0.0
11
-0.001828
21
0.026300
31
0.0
0
LINE
8
0
6
CONTINUOUS
10
0.007831
20
0.026300
30
0.0
11
0.003002
21
0.026300
31
0.0
0
LINE
8
0
6
CONTINUOUS
10
-0.062874
20
0.038290
30
0.0
11
-0.024060
21
0.028816
31
0.0
0
LINE
8
0
6
CONTINUOUS
10
-0.014397
20
0.028058
30
0.0
11
-0.018290
21
0.028837
31
0.0
0
LINE
8
0
6
CONTINUOUS
10
-0.017466
20
0.025098
30
0.0
11
-0.016091
21
0.024337
31
0.0
0
LINE
8
0
6
CONTINUOUS
10
-0.017846
20
0.016892
30
0.0
11
-0.016660
21
0.014951
31
0.0
0
LINE
8
0
6
CONTINUOUS
10
-0.015104
20
0.012051
30
0.0
11
-0.015673
21
0.013236
31
0.0
0
LINE
8
0
6
CONTINUOUS
10
-0.016278
20
0.013155
30
0.0
11
-0.015864
21
0.011836
31
0.0
0
LINE
8
0
6
CONTINUOUS
10
-0.014622
20
0.026300
30
0.0
11
-0.015220
21
0.026300
31
0.0
0
LINE
8
0
6
CONTINUOUS
10
0.001336
20
0.026300
30
0.0
11
-0.002620
21
0.026536
31
0.0
0
LINE
8
0
6
CONTINUOUS
10
-0.018475
20
0.025510
30
0.0
11
-0.017466
21
0.025098
31
0.0
0
LINE
8
0
6
CONTINUOUS
10
-0.018951
20
0.019496
30
0.0
11
-0.017846
21
0.016892
31
0.0
0
LINE
8
0
6
CONTINUOUS
10
-0.017846
20
0.016892
30
0.0
11
-0.017812
21
0.018925
31
0.0
0
LINE
8
0
6
CONTINUOUS
10
-0.022417
20
0.019844
30
0.0
11
-0.025281
21
0.020584
31
0.0
0
LINE
8
0
6
CONTINUOUS
10
-0.025449
20
0.020230
30
0.0
11
-0.022589
21
0.019491
31
0.0
0
LINE
8
0
6
CONTINUOUS
10
-0.018290
20
0.028837
30
0.0
11
-0.021264
21
0.029609
31
0.0
0
LINE
8
0
6
CONTINUOUS
10
-0.021938
20
0.029403
30
0.0
11
-0.019003
21
0.028642
31
0.0
0
LINE
8
0
6
CONTINUOUS
10
-0.010487
20
0.027408
30
0.0
11
-0.014397
21
0.028058
31
0.0
0
LINE
8
0
6
CONTINUOUS
10
-0.015220
20
0.026300
30
0.0
11
-0.014737
21
0.026300
31
0.0
0
LINE
8
0
6
CONTINUOUS
10
-0.021264
20
0.029609
30
0.0
11
-0.062507
21
0.039736
31
0.0
0
LINE
8
0
6
CONTINUOUS
10
0.021867
20
0.012265
30
0.0
11
0.021867
21
0.015072
31
0.0
0
LINE
8
0
6
CONTINUOUS
10
-0.014737
20
0.026300
30
0.0
11
-0.006336
21
0.026300
31
0.0
0
LINE
8
0
6
CONTINUOUS
10
0.021867
20
0.009688
30
0.0
11
0.021867
21
0.012265
31
0.0
0
LINE
8
0
6
CONTINUOUS
10
0.021867
20
0.015072
30
0.0
11
0.021867
21
0.017879
31
0.0
0
LINE
8
0
6
CONTINUOUS
10
0.021867
20
0.023493
30
0.0
11
0.021867
21
0.025442
31
0.0
0
LINE
8
0
6
CONTINUOUS
10
0.021867
20
0.017879
30
0.0
11
0.021867
21
0.020686
31
0.0
0
LINE
8
0
6
CONTINUOUS
10
-0.022589
20
0.019491
30
0.0
11
-0.019395
21
0.017978
31
0.0
0
LINE
8
0
6
CONTINUOUS
10
0.021867
20
0.020686
30
0.0
11
0.021867
21
0.023493
31
0.0
0
LINE
8
0
6
CONTINUOUS
10
-0.065564
20
0.030026
30
0.0
11
-0.065006
21
0.029863
31
0.0
0
LINE
8
0
6
CONTINUOUS
10
-0.065469
20
0.030402
30
0.0
11
-0.065564
21
0.030026
31
0.0
0
LINE
8
0
6
CONTINUOUS
10
-0.065469
20
0.030402
30
0.0
11
-0.064911
21
0.030239
31
0.0
0
LINE
8
0
6
CONTINUOUS
10
-0.065200
20
0.031473
30
0.0
11
-0.065469
21
0.030402
31
0.0
0
LINE
8
0
6
CONTINUOUS
10
-0.064796
20
0.033075
30
0.0
11
-0.065200
21
0.031473
31
0.0
0
LINE
8
0
6
CONTINUOUS
10
-0.015673
20
0.013236
30
0.0
11
-0.016660
21
0.014951
31
0.0
0
LINE
8
0
6
CONTINUOUS
10
-0.017127
20
0.014911
30
0.0
11
-0.016278
21
0.013155
31
0.0
0
LINE
8
0
6
CONTINUOUS
10
-0.064318
20
0.034964
30
0.0
11
-0.064796
21
0.033075
31
0.0
0
LINE
8
0
6
CONTINUOUS
10
-0.013374
20
0.026300
30
0.0
11
-0.014622
21
0.026300
31
0.0
0
LINE
8
0
6
CONTINUOUS
10
-0.006563
20
0.026901
30
0.0
11
-0.010487
21
0.027408
31
0.0
0
LINE
8
0
6
CONTINUOUS
10
-0.016437
20
0.027918
30
0.0
11
-0.019003
21
0.028642
31
0.0
0
LINE
8
0
6
CONTINUOUS
10
-0.015864
20
0.011836
30
0.0
11
-0.015864
21
0.009688
31
0.0
0
LINE
8
0
6
CONTINUOUS
10
-0.015220
20
0.026300
30
0.0
11
-0.016159
21
0.026493
31
0.0
0
LINE
8
0
6
CONTINUOUS
10
-0.019182
20
0.018342
30
0.0
11
-0.018951
21
0.019496
31
0.0
0
LINE
8
0
6
CONTINUOUS
10
-0.019395
20
0.017978
30
0.0
11
-0.018218
21
0.016848
31
0.0
0
LINE
8
0
6
CONTINUOUS
10
-0.018462
20
0.027238
30
0.0
11
-0.018468
21
0.026386
31
0.0
0
LINE
8
0
6
CONTINUOUS
10
-0.017431
20
0.026971
30
0.0
11
-0.018462
21
0.027238
31
0.0
0
LINE
8
0
6
CONTINUOUS
10
-0.002620
20
0.026536
30
0.0
11
-0.006563
21
0.026901
31
0.0
0
LINE
8
0
6
CONTINUOUS
10
-0.063160
20
0.039524
30
0.0
11
-0.062602
21
0.039360
31
0.0
0
LINE
8
0
6
CONTINUOUS
10
-0.063065
20
0.039900
30
0.0
11
-0.063160
21
0.039524
31
0.0
0
LINE
8
0
6
CONTINUOUS
10
-0.062507
20
0.039736
30
0.0
11
-0.063065
21
0.039900
31
0.0
0
LINE
8
0
6
CONTINUOUS
10
0.017174
20
0.026300
30
0.0
11
0.014074
21
0.026300
31
0.0
0
LINE
8
0
6
CONTINUOUS
10
0.018970
20
0.026300
30
0.0
11
0.017174
21
0.026300
31
0.0
0
LINE
8
0
6
CONTINUOUS
10
-0.021938
20
0.029403
30
0.0
11
-0.062602
21
0.039360
31
0.0
0
LINE
8
0
6
CONTINUOUS
10
0.023957
20
-0.081273
30
0.0
11
0.023568
21
-0.068020
31
0.0
0
LINE
8
0
6
CONTINUOUS
10
0.023083
20
-0.051472
30
0.0
11
0.022550
21
-0.033290
31
0.0
0
LINE
8
0
6
CONTINUOUS
10
-0.012104
20
-0.059959
30
0.0
11
-0.015463
21
-0.068155
31
0.0
0
LINE
8
0
6
CONTINUOUS
10
-0.019056
20
-0.064415
30
0.0
11
-0.023156
21
-0.062843
31
0.0
0
LINE
8
0
6
CONTINUOUS
10
-0.019056
20
-0.064415
30
0.0
11
-0.019933
21
-0.067296
31
0.0
0
LINE
8
0
6
CONTINUOUS
10
-0.015463
20
-0.068155
30
0.0
11
-0.019056
21
-0.064415
31
0.0
0
LINE
8
0
6
CONTINUOUS
10
-0.015463
20
-0.068155
30
0.0
11
-0.017538
21
-0.070416
31
0.0
0
LINE
8
0
6
CONTINUOUS
10
-0.018248
20
-0.071188
30
0.0
11
-0.017444
21
-0.076876
31
0.0
0
LINE
8
0
6
CONTINUOUS
10
-0.014536
20
-0.034163
30
0.0
11
-0.016414
21
-0.032257
31
0.0
0
LINE
8
0
6
CONTINUOUS
10
-0.015998
20
-0.026996
30
0.0
11
-0.017051
21
-0.031564
31
0.0
0
LINE
8
0
6
CONTINUOUS
10
-0.016414
20
-0.032257
30
0.0
11
-0.017051
21
-0.031564
31
0.0
0
LINE
8
0
6
CONTINUOUS
10
-0.017051
20
-0.031564
30
0.0
11
-0.019720
21
-0.034275
31
0.0
0
LINE
8
0
6
CONTINUOUS
10
-0.019458
20
-0.035151
30
0.0
11
-0.019720
21
-0.034275
31
0.0
0
LINE
8
0
6
CONTINUOUS
10
-0.019720
20
-0.034275
30
0.0
11
-0.023402
21
-0.035530
31
0.0
0
LINE
8
0
6
CONTINUOUS
10
-0.018664
20
-0.037790
30
0.0
11
-0.023011
21
-0.039487
31
0.0
0
LINE
8
0
6
CONTINUOUS
10
-0.022540
20
-0.044102
30
0.0
11
-0.017399
21
-0.041988
31
0.0
0
LINE
8
0
6
CONTINUOUS
10
-0.017399
20
-0.041988
30
0.0
11
-0.011541
21
-0.037512
31
0.0
0
LINE
8
0
6
CONTINUOUS
10
-0.014536
20
-0.034163
30
0.0
11
-0.011541
21
-0.037512
31
0.0
0
LINE
8
0
6
CONTINUOUS
10
-0.017870
20
-0.089381
30
0.0
11
-0.019980
21
-0.150101
31
0.0
0
LINE
8
0
6
CONTINUOUS
10
-0.010531
20
-0.032581
30
0.0
11
-0.011541
21
-0.037512
31
0.0
0
LINE
8
0
6
CONTINUOUS
10
0.023568
20
-0.068020
30
0.0
11
0.023083
21
-0.051472
31
0.0
0
LINE
8
0
6
CONTINUOUS
10
0.022283
20
-0.023712
30
0.0
11
0.022017
21
-0.014133
31
0.0
0
LINE
8
0
6
CONTINUOUS
10
-0.015998
20
-0.014133
30
0.0
11
-0.015998
21
-0.020158
31
0.0
0
LINE
8
0
6
CONTINUOUS
10
-0.015351
20
-0.013133
30
0.0
11
-0.015998
21
-0.013133
31
0.0
0
LINE
8
0
6
CONTINUOUS
10
-0.015998
20
-0.013133
30
0.0
11
-0.015998
21
-0.014133
31
0.0
0
LINE
8
0
6
CONTINUOUS
10
0.016437
20
-0.013133
30
0.0
11
0.012502
21
-0.013133
31
0.0
0
LINE
8
0
6
CONTINUOUS
10
0.022002
20
-0.013133
30
0.0
11
0.021354
21
-0.013133
31
0.0
0
LINE
8
0
6
CONTINUOUS
10
0.022017
20
-0.014133
30
0.0
11
0.022002
21
-0.013133
31
0.0
0
LINE
8
0
6
CONTINUOUS
10
-0.006498
20
-0.013133
30
0.0
11
-0.010433
21
-0.013133
31
0.0
0
LINE
8
0
6
CONTINUOUS
10
0.007919
20
-0.013133
30
0.0
11
0.003002
21
-0.013133
31
0.0
0
LINE
8
0
6
CONTINUOUS
10
0.003002
20
-0.013133
30
0.0
11
-0.001916
21
-0.013133
31
0.0
0
LINE
8
0
6
CONTINUOUS
10
-0.013453
20
-0.013133
30
0.0
11
-0.015351
21
-0.013133
31
0.0
0
LINE
8
0
6
CONTINUOUS
10
0.021354
20
-0.013133
30
0.0
11
0.019456
21
-0.013133
31
0.0
0
LINE
8
0
6
CONTINUOUS
10
0.019456
20
-0.013133
30
0.0
11
0.016437
21
-0.013133
31
0.0
0
LINE
8
0
6
CONTINUOUS
10
-0.010433
20
-0.013133
30
0.0
11
-0.013453
21
-0.013133
31
0.0
0
LINE
8
0
6
CONTINUOUS
10
0.012502
20
-0.013133
30
0.0
11
0.007919
21
-0.013133
31
0.0
0
LINE
8
0
6
CONTINUOUS
10
-0.001916
20
-0.013133
30
0.0
11
-0.006498
21
-0.013133
31
0.0
0
LINE
8
0
6
CONTINUOUS
10
-0.016923
20
-0.151100
30
0.0
11
-0.013268
21
-0.151100
31
0.0
0
LINE
8
0
6
CONTINUOUS
10
-0.008504
20
-0.151100
30
0.0
11
-0.002956
21
-0.151100
31
0.0
0
LINE
8
0
6
CONTINUOUS
10
0.022918
20
-0.151100
30
0.0
11
0.025216
21
-0.151100
31
0.0
0
LINE
8
0
6
CONTINUOUS
10
-0.020005
20
-0.151100
30
0.0
11
-0.019221
21
-0.151100
31
0.0
0
LINE
8
0
6
CONTINUOUS
10
-0.019980
20
-0.150101
30
0.0
11
-0.020005
21
-0.151100
31
0.0
0
LINE
8
0
6
CONTINUOUS
10
0.014499
20
-0.151100
30
0.0
11
0.019263
21
-0.151100
31
0.0
0
LINE
8
0
6
CONTINUOUS
10
0.002997
20
-0.151100
30
0.0
11
0.008951
21
-0.151100
31
0.0
0
LINE
8
0
6
CONTINUOUS
10
-0.013268
20
-0.151100
30
0.0
11
-0.008504
21
-0.151100
31
0.0
0
LINE
8
0
6
CONTINUOUS
10
0.026000
20
-0.151100
30
0.0
11
0.025975
21
-0.150101
31
0.0
0
LINE
8
0
6
CONTINUOUS
10
0.025216
20
-0.151100
30
0.0
11
0.026000
21
-0.151100
31
0.0
0
LINE
8
0
6
CONTINUOUS
10
-0.002956
20
-0.151100
30
0.0
11
0.002997
21
-0.151100
31
0.0
0
LINE
8
0
6
CONTINUOUS
10
-0.019221
20
-0.151100
30
0.0
11
-0.016923
21
-0.151100
31
0.0
0
LINE
8
0
6
CONTINUOUS
10
0.019263
20
-0.151100
30
0.0
11
0.022918
21
-0.151100
31
0.0
0
LINE
8
0
6
CONTINUOUS
10
0.008951
20
-0.151100
30
0.0
11
0.014499
21
-0.151100
31
0.0
0
LINE
8
0
6
CONTINUOUS
10
-0.017444
20
-0.076876
30
0.0
11
-0.017464
21
-0.077689
31
0.0
0
LINE
8
0
6
CONTINUOUS
10
-0.015998
20
-0.026182
30
0.0
11
-0.015998
21
-0.026996
31
0.0
0
LINE
8
0
6
CONTINUOUS
10
-0.010713
20
-0.065953
30
0.0
11
-0.006971
21
-0.051316
31
0.0
0
LINE
8
0
6
CONTINUOUS
10
-0.011260
20
-0.065648
30
0.0
11
-0.006971
21
-0.051316
31
0.0
0
LINE
8
0
6
CONTINUOUS
10
-0.025287
20
-0.062786
30
0.0
11
-0.076449
21
-0.061414
31
0.0
0
LINE
8
0
6
CONTINUOUS
10
-0.025523
20
-0.035609
30
0.0
11
-0.076449
21
-0.037501
31
0.0
0
LINE
8
0
6
CONTINUOUS
10
-0.076449
20
-0.056629
30
0.0
11
-0.024781
21
-0.057348
31
0.0
0
LINE
8
0
6
CONTINUOUS
10
-0.024696
20
-0.044138
30
0.0
11
-0.076449
21
-0.045006
31
0.0
0
LINE
8
0
6
CONTINUOUS
10
-0.025703
20
-0.067082
30
0.0
11
-0.023590
21
-0.067160
31
0.0
0
LINE
8
0
6
CONTINUOUS
10
-0.077448
20
-0.065157
30
0.0
11
-0.076449
21
-0.065195
31
0.0
0
LINE
8
0
6
CONTINUOUS
10
-0.077448
20
-0.064168
30
0.0
11
-0.077448
21
-0.065157
31
0.0
0
LINE
8
0
6
CONTINUOUS
10
-0.077448
20
-0.056616
30
0.0
11
-0.077448
21
-0.061388
31
0.0
0
LINE
8
0
6
CONTINUOUS
10
-0.077448
20
-0.056616
30
0.0
11
-0.076449
21
-0.056629
31
0.0
0
LINE
8
0
6
CONTINUOUS
10
-0.077448
20
-0.051096
30
0.0
11
-0.077448
21
-0.056616
31
0.0
0
LINE
8
0
6
CONTINUOUS
10
-0.076449
20
-0.061414
30
0.0
11
-0.077448
21
-0.061388
31
0.0
0
LINE
8
0
6
CONTINUOUS
10
-0.077448
20
-0.064168
30
0.0
11
-0.077448
21
-0.061388
31
0.0
0
LINE
8
0
6
CONTINUOUS
10
-0.077448
20
-0.051096
30
0.0
11
-0.077448
21
-0.045023
31
0.0
0
LINE
8
0
6
CONTINUOUS
10
-0.077448
20
-0.038379
30
0.0
11
-0.077448
21
-0.040993
31
0.0
0
LINE
8
0
6
CONTINUOUS
10
-0.077448
20
-0.045023
30
0.0
11
-0.076449
21
-0.045006
31
0.0
0
LINE
8
0
6
CONTINUOUS
10
-0.077448
20
-0.040993
30
0.0
11
-0.077448
21
-0.045023
31
0.0
0
LINE
8
0
6
CONTINUOUS
10
-0.077448
20
-0.037538
30
0.0
11
-0.077448
21
-0.038379
31
0.0
0
LINE
8
0
6
CONTINUOUS
10
-0.076449
20
-0.037501
30
0.0
11
-0.077448
21
-0.037538
31
0.0
0
LINE
8
0
6
CONTINUOUS
10
-0.023402
20
-0.035530
30
0.0
11
-0.025523
21
-0.035609
31
0.0
0
LINE
8
0
6
CONTINUOUS
10
-0.025287
20
-0.062786
30
0.0
11
-0.023156
21
-0.062843
31
0.0
0
LINE
8
0
6
CONTINUOUS
10
-0.022628
20
-0.057378
30
0.0
11
-0.024781
21
-0.057348
31
0.0
0
LINE
8
0
6
CONTINUOUS
10
-0.076449
20
-0.065195
30
0.0
11
-0.025703
21
-0.067082
31
0.0
0
LINE
8
0
6
CONTINUOUS
10
-0.017538
20
-0.070416
30
0.0
11
-0.019933
21
-0.067296
31
0.0
0
LINE
8
0
6
CONTINUOUS
10
-0.018248
20
-0.071188
30
0.0
11
-0.017538
21
-0.070416
31
0.0
0
LINE
8
0
6
CONTINUOUS
10
-0.020225
20
-0.068312
30
0.0
11
-0.018248
21
-0.071188
31
0.0
0
LINE
8
0
6
CONTINUOUS
10
-0.024696
20
-0.044138
30
0.0
11
-0.022540
21
-0.044102
31
0.0
0
LINE
8
0
6
CONTINUOUS
10
-0.078800
20
-0.039056
30
0.0
11
-0.080442
21
-0.038246
31
0.0
0
LINE
8
0
6
CONTINUOUS
10
-0.077448
20
-0.039959
30
0.0
11
-0.078800
21
-0.039056
31
0.0
0
LINE
8
0
6
CONTINUOUS
10
-0.083972
20
-0.037300
30
0.0
11
-0.085800
21
-0.037181
31
0.0
0
LINE
8
0
6
CONTINUOUS
10
-0.082176
20
-0.037658
30
0.0
11
-0.083972
21
-0.037300
31
0.0
0
LINE
8
0
6
CONTINUOUS
10
-0.080442
20
-0.038246
30
0.0
11
-0.082176
21
-0.037658
31
0.0
0
LINE
8
0
6
CONTINUOUS
10
-0.096150
20
-0.065143
30
0.0
11
-0.096041
21
-0.065027
31
0.0
0
LINE
8
0
6
CONTINUOUS
10
-0.096041
20
-0.037334
30
0.0
11
-0.096150
21
-0.037218
31
0.0
0
LINE
8
0
6
CONTINUOUS
10
-0.078800
20
-0.063305
30
0.0
11
-0.077277
21
-0.062287
31
0.0
0
LINE
8
0
6
CONTINUOUS
10
-0.085800
20
-0.065181
30
0.0
11
-0.083972
21
-0.065061
31
0.0
0
LINE
8
0
6
CONTINUOUS
10
-0.105352
20
-0.037181
30
0.0
11
-0.105500
21
-0.037181
31
0.0
0
LINE
8
0
6
CONTINUOUS
10
-0.083972
20
-0.065061
30
0.0
11
-0.082176
21
-0.064703
31
0.0
0
LINE
8
0
6
CONTINUOUS
10
-0.082176
20
-0.064703
30
0.0
11
-0.080442
21
-0.064115
31
0.0
0
LINE
8
0
6
CONTINUOUS
10
-0.105500
20
-0.065181
30
0.0
11
-0.105352
21
-0.065181
31
0.0
0
LINE
8
0
6
CONTINUOUS
10
-0.080442
20
-0.064115
30
0.0
11
-0.078800
21
-0.063305
31
0.0
0
LINE
8
0
6
CONTINUOUS
10
-0.096150
20
-0.044199
30
0.0
11
-0.096150
21
-0.041307
31
0.0
0
LINE
8
0
6
CONTINUOUS
10
-0.096150
20
-0.047567
30
0.0
11
-0.096150
21
-0.044199
31
0.0
0
LINE
8
0
6
CONTINUOUS
10
-0.096150
20
-0.039088
30
0.0
11
-0.096150
21
-0.037693
31
0.0
0
LINE
8
0
6
CONTINUOUS
10
-0.096150
20
-0.064668
30
0.0
11
-0.096150
21
-0.063273
31
0.0
0
LINE
8
0
6
CONTINUOUS
10
-0.096150
20
-0.037218
30
0.0
11
-0.096300
21
-0.037181
31
0.0
0
LINE
8
0
6
CONTINUOUS
10
-0.096150
20
-0.037693
30
0.0
11
-0.096150
21
-0.037218
31
0.0
0
LINE
8
0
6
CONTINUOUS
10
-0.096150
20
-0.061054
30
0.0
11
-0.096150
21
-0.058162
31
0.0
0
LINE
8
0
6
CONTINUOUS
10
-0.096150
20
-0.054794
30
0.0
11
-0.096150
21
-0.051181
31
0.0
0
LINE
8
0
6
CONTINUOUS
10
-0.096150
20
-0.063273
30
0.0
11
-0.096150
21
-0.061054
31
0.0
0
LINE
8
0
6
CONTINUOUS
10
-0.096150
20
-0.058162
30
0.0
11
-0.096150
21
-0.054794
31
0.0
0
LINE
8
0
6
CONTINUOUS
10
-0.096150
20
-0.051181
30
0.0
11
-0.096150
21
-0.047567
31
0.0
0
LINE
8
0
6
CONTINUOUS
10
-0.096150
20
-0.041307
30
0.0
11
-0.096150
21
-0.039088
31
0.0
0
LINE
8
0
6
CONTINUOUS
10
-0.095816
20
-0.037181
30
0.0
11
-0.096000
21
-0.037181
31
0.0
0
LINE
8
0
6
CONTINUOUS
10
-0.096000
20
-0.065181
30
0.0
11
-0.095816
21
-0.065181
31
0.0
0
LINE
8
0
6
CONTINUOUS
10
-0.096300
20
-0.065181
30
0.0
11
-0.096150
21
-0.065143
31
0.0
0
LINE
8
0
6
CONTINUOUS
10
-0.096150
20
-0.065143
30
0.0
11
-0.096150
21
-0.064668
31
0.0
0
LINE
8
0
6
CONTINUOUS
10
-0.096041
20
-0.065027
30
0.0
11
-0.096000
21
-0.065181
31
0.0
0
LINE
8
0
6
CONTINUOUS
10
-0.096041
20
-0.064556
30
0.0
11
-0.096041
21
-0.065027
31
0.0
0
LINE
8
0
6
CONTINUOUS
10
-0.096000
20
-0.065181
30
0.0
11
-0.096000
21
-0.064703
31
0.0
0
LINE
8
0
6
CONTINUOUS
10
-0.096041
20
-0.051181
30
0.0
11
-0.096041
21
-0.054764
31
0.0
0
LINE
8
0
6
CONTINUOUS
10
-0.096000
20
-0.054804
30
0.0
11
-0.096000
21
-0.051181
31
0.0
0
LINE
8
0
6
CONTINUOUS
10
-0.096041
20
-0.054764
30
0.0
11
-0.096041
21
-0.058104
31
0.0
0
LINE
8
0
6
CONTINUOUS
10
-0.096000
20
-0.058180
30
0.0
11
-0.096000
21
-0.054804
31
0.0
0
LINE
8
0
6
CONTINUOUS
10
-0.096041
20
-0.039189
30
0.0
11
-0.096041
21
-0.041389
31
0.0
0
LINE
8
0
6
CONTINUOUS
10
-0.096000
20
-0.041281
30
0.0
11
-0.096000
21
-0.039056
31
0.0
0
LINE
8
0
6
CONTINUOUS
10
-0.096041
20
-0.060972
30
0.0
11
-0.096041
21
-0.063172
31
0.0
0
LINE
8
0
6
CONTINUOUS
10
-0.096000
20
-0.063305
30
0.0
11
-0.096000
21
-0.061080
31
0.0
0
LINE
8
0
6
CONTINUOUS
10
-0.096041
20
-0.047597
30
0.0
11
-0.096041
21
-0.051181
31
0.0
0
LINE
8
0
6
CONTINUOUS
10
-0.096000
20
-0.051181
30
0.0
11
-0.096000
21
-0.047557
31
0.0
0
LINE
8
0
6
CONTINUOUS
10
-0.096041
20
-0.037334
30
0.0
11
-0.096041
21
-0.037806
31
0.0
0
LINE
8
0
6
CONTINUOUS
10
-0.096000
20
-0.037181
30
0.0
11
-0.096041
21
-0.037334
31
0.0
0
LINE
8
0
6
CONTINUOUS
10
-0.096000
20
-0.037658
30
0.0
11
-0.096000
21
-0.037181
31
0.0
0
LINE
8
0
6
CONTINUOUS
10
-0.096041
20
-0.063172
30
0.0
11
-0.096041
21
-0.064556
31
0.0
0
LINE
8
0
6
CONTINUOUS
10
-0.096000
20
-0.064703
30
0.0
11
-0.096000
21
-0.063305
31
0.0
0
LINE
8
0
6
CONTINUOUS
10
-0.096041
20
-0.044257
30
0.0
11
-0.096041
21
-0.047597
31
0.0
0
LINE
8
0
6
CONTINUOUS
10
-0.096000
20
-0.047557
30
0.0
11
-0.096000
21
-0.044181
31
0.0
0
LINE
8
0
6
CONTINUOUS
10
-0.096041
20
-0.037806
30
0.0
11
-0.096041
21
-0.039189
31
0.0
0
LINE
8
0
6
CONTINUOUS
10
-0.096000
20
-0.039056
30
0.0
11
-0.096000
21
-0.037658
31
0.0
0
LINE
8
0
6
CONTINUOUS
10
-0.096041
20
-0.058104
30
0.0
11
-0.096041
21
-0.060972
31
0.0
0
LINE
8
0
6
CONTINUOUS
10
-0.096000
20
-0.061080
30
0.0
11
-0.096000
21
-0.058180
31
0.0
0
LINE
8
0
6
CONTINUOUS
10
-0.096041
20
-0.041389
30
0.0
11
-0.096041
21
-0.044257
31
0.0
0
LINE
8
0
6
CONTINUOUS
10
-0.096000
20
-0.044181
30
0.0
11
-0.096000
21
-0.041281
31
0.0
0
LINE
8
0
6
CONTINUOUS
10
-0.085800
20
-0.037181
30
0.0
11
-0.095816
21
-0.037181
31
0.0
0
LINE
8
0
6
CONTINUOUS
10
-0.095816
20
-0.065181
30
0.0
11
-0.085800
21
-0.065181
31
0.0
0
LINE
8
0
6
CONTINUOUS
10
-0.096300
20
-0.037181
30
0.0
11
-0.096410
21
-0.037181
31
0.0
0
LINE
8
0
6
CONTINUOUS
10
-0.096410
20
-0.065181
30
0.0
11
-0.096300
21
-0.065181
31
0.0
0
LINE
8
0
6
CONTINUOUS
10
-0.105500
20
-0.064703
30
0.0
11
-0.105500
21
-0.063305
31
0.0
0
LINE
8
0
6
CONTINUOUS
10
-0.106000
20
-0.062868
30
0.0
11
-0.106000
21
-0.064216
31
0.0
0
LINE
8
0
6
CONTINUOUS
10
-0.105854
20
-0.064561
30
0.0
11
-0.105854
21
-0.063177
31
0.0
0
LINE
8
0
6
CONTINUOUS
10
-0.106000
20
-0.064676
30
0.0
11
-0.105854
21
-0.065033
31
0.0
0
LINE
8
0
6
CONTINUOUS
10
-0.106000
20
-0.064216
30
0.0
11
-0.106000
21
-0.064676
31
0.0
0
LINE
8
0
6
CONTINUOUS
10
-0.105500
20
-0.065181
30
0.0
11
-0.105500
21
-0.064703
31
0.0
0
LINE
8
0
6
CONTINUOUS
10
-0.105854
20
-0.065033
30
0.0
11
-0.105500
21
-0.065181
31
0.0
0
LINE
8
0
6
CONTINUOUS
10
-0.105854
20
-0.064561
30
0.0
11
-0.105854
21
-0.065033
31
0.0
0
LINE
8
0
6
CONTINUOUS
10
-0.106000
20
-0.041638
30
0.0
11
-0.106000
21
-0.044433
31
0.0
0
LINE
8
0
6
CONTINUOUS
10
-0.105854
20
-0.041385
30
0.0
11
-0.105854
21
-0.044254
31
0.0
0
LINE
8
0
6
CONTINUOUS
10
-0.106000
20
-0.038145
30
0.0
11
-0.106000
21
-0.039493
31
0.0
0
LINE
8
0
6
CONTINUOUS
10
-0.105854
20
-0.039184
30
0.0
11
-0.105854
21
-0.037800
31
0.0
0
LINE
8
0
6
CONTINUOUS
10
-0.105500
20
-0.047557
30
0.0
11
-0.105500
21
-0.044181
31
0.0
0
LINE
8
0
6
CONTINUOUS
10
-0.105854
20
-0.047595
30
0.0
11
-0.105854
21
-0.044254
31
0.0
0
LINE
8
0
6
CONTINUOUS
10
-0.105500
20
-0.037181
30
0.0
11
-0.105854
21
-0.037328
31
0.0
0
LINE
8
0
6
CONTINUOUS
10
-0.105500
20
-0.037658
30
0.0
11
-0.105500
21
-0.037181
31
0.0
0
LINE
8
0
6
CONTINUOUS
10
-0.106000
20
-0.037685
30
0.0
11
-0.106000
21
-0.038145
31
0.0
0
LINE
8
0
6
CONTINUOUS
10
-0.105854
20
-0.037328
30
0.0
11
-0.106000
21
-0.037685
31
0.0
0
LINE
8
0
6
CONTINUOUS
10
-0.105854
20
-0.037800
30
0.0
11
-0.105854
21
-0.037328
31
0.0
0
LINE
8
0
6
CONTINUOUS
10
-0.105500
20
-0.063305
30
0.0
11
-0.105500
21
-0.061080
31
0.0
0
LINE
8
0
6
CONTINUOUS
10
-0.106000
20
-0.060723
30
0.0
11
-0.106000
21
-0.062868
31
0.0
0
LINE
8
0
6
CONTINUOUS
10
-0.105854
20
-0.063177
30
0.0
11
-0.105854
21
-0.060976
31
0.0
0
LINE
8
0
6
CONTINUOUS
10
-0.106000
20
-0.057928
30
0.0
11
-0.106000
21
-0.060723
31
0.0
0
LINE
8
0
6
CONTINUOUS
10
-0.105854
20
-0.060976
30
0.0
11
-0.105854
21
-0.058107
31
0.0
0
LINE
8
0
6
CONTINUOUS
10
-0.106000
20
-0.039493
30
0.0
11
-0.106000
21
-0.041638
31
0.0
0
LINE
8
0
6
CONTINUOUS
10
-0.105854
20
-0.041385
30
0.0
11
-0.105854
21
-0.039184
31
0.0
0
LINE
8
0
6
CONTINUOUS
10
-0.105500
20
-0.051181
30
0.0
11
-0.105500
21
-0.047557
31
0.0
0
LINE
8
0
6
CONTINUOUS
10
-0.106000
20
-0.047688
30
0.0
11
-0.106000
21
-0.051181
31
0.0
0
LINE
8
0
6
CONTINUOUS
10
-0.105854
20
-0.051181
30
0.0
11
-0.105854
21
-0.047595
31
0.0
0
LINE
8
0
6
CONTINUOUS
10
-0.106000
20
-0.051181
30
0.0
11
-0.106000
21
-0.054673
31
0.0
0
LINE
8
0
6
CONTINUOUS
10
-0.105854
20
-0.054766
30
0.0
11
-0.105854
21
-0.051181
31
0.0
0
LINE
8
0
6
CONTINUOUS
10
-0.106000
20
-0.054673
30
0.0
11
-0.106000
21
-0.057928
31
0.0
0
LINE
8
0
6
CONTINUOUS
10
-0.105854
20
-0.054766
30
0.0
11
-0.105854
21
-0.058107
31
0.0
0
LINE
8
0
6
CONTINUOUS
10
-0.096410
20
-0.037181
30
0.0
11
-0.105352
21
-0.037181
31
0.0
0
LINE
8
0
6
CONTINUOUS
10
-0.105352
20
-0.065181
30
0.0
11
-0.096410
21
-0.065181
31
0.0
0
LINE
8
0
6
CONTINUOUS
10
-0.106000
20
-0.047688
30
0.0
11
-0.106000
21
-0.044433
31
0.0
0
LINE
8
0
6
CONTINUOUS
10
-0.017464
20
-0.077689
30
0.0
11
-0.017870
21
-0.089381
31
0.0
0
LINE
8
0
6
CONTINUOUS
10
0.025975
20
-0.150101
30
0.0
11
0.024698
21
-0.106546
31
0.0
0
LINE
8
0
6
CONTINUOUS
10
0.024349
20
-0.094626
30
0.0
11
0.023957
21
-0.081273
31
0.0
0
LINE
8
0
6
CONTINUOUS
10
-0.015998
20
-0.020158
30
0.0
11
-0.015998
21
-0.026182
31
0.0
0
LINE
8
0
6
CONTINUOUS
10
0.022550
20
-0.033290
30
0.0
11
0.022283
21
-0.023712
31
0.0
0
LINE
8
0
6
CONTINUOUS
10
-0.020225
20
-0.068312
30
0.0
11
-0.019933
21
-0.067296
31
0.0
0
LINE
8
0
6
CONTINUOUS
10
-0.023590
20
-0.067160
30
0.0
11
-0.020225
21
-0.068312
31
0.0
0
LINE
8
0
6
CONTINUOUS
10
0.026820
20
-0.096654
30
0.0
11
0.026422
21
-0.097211
31
0.0
0
LINE
8
0
6
CONTINUOUS
10
0.027027
20
-0.096926
30
0.0
11
0.027440
21
-0.096234
31
0.0
0
LINE
8
0
6
CONTINUOUS
10
0.032506
20
-0.094682
30
0.0
11
0.028900
21
-0.094317
31
0.0
0
LINE
8
0
6
CONTINUOUS
10
0.032506
20
-0.094682
30
0.0
11
0.029326
21
-0.094902
31
0.0
0
LINE
8
0
6
CONTINUOUS
10
0.030061
20
-0.095082
30
0.0
11
0.033896
21
-0.094942
31
0.0
0
LINE
8
0
6
CONTINUOUS
10
0.036456
20
-0.094603
30
0.0
11
0.034368
21
-0.094691
31
0.0
0
LINE
8
0
6
CONTINUOUS
10
0.028900
20
-0.094317
30
0.0
11
0.032318
21
-0.094603
31
0.0
0
LINE
8
0
6
CONTINUOUS
10
0.026422
20
-0.094479
30
0.0
11
0.025693
21
-0.094982
31
0.0
0
LINE
8
0
6
CONTINUOUS
10
0.027294
20
-0.096185
30
0.0
11
0.027853
21
-0.095903
31
0.0
0
LINE
8
0
6
CONTINUOUS
10
0.026650
20
-0.095396
30
0.0
11
0.026064
21
-0.095771
31
0.0
0
LINE
8
0
6
CONTINUOUS
10
0.033903
20
-0.092660
30
0.0
11
0.030333
21
-0.092212
31
0.0
0
LINE
8
0
6
CONTINUOUS
10
0.025249
20
-0.096926
30
0.0
11
0.025517
21
-0.096234
31
0.0
0
LINE
8
0
6
CONTINUOUS
10
0.024935
20
-0.095484
30
0.0
11
0.024510
21
-0.096368
31
0.0
0
LINE
8
0
6
CONTINUOUS
10
0.023835
20
-0.095980
30
0.0
11
0.023315
21
-0.096805
31
0.0
0
LINE
8
0
6
CONTINUOUS
10
0.025007
20
-0.097626
30
0.0
11
0.025249
21
-0.096926
31
0.0
0
LINE
8
0
6
CONTINUOUS
10
0.024510
20
-0.096368
30
0.0
11
0.024312
21
-0.097345
31
0.0
0
LINE
8
0
6
CONTINUOUS
10
0.026064
20
-0.095771
30
0.0
11
0.025517
21
-0.096234
31
0.0
0
LINE
8
0
6
CONTINUOUS
10
0.026422
20
-0.094479
30
0.0
11
0.028900
21
-0.094317
31
0.0
0
LINE
8
0
6
CONTINUOUS
10
0.026385
20
-0.093500
30
0.0
11
0.028794
21
-0.093008
31
0.0
0
LINE
8
0
6
CONTINUOUS
10
0.032328
20
-0.093151
30
0.0
11
0.028909
21
-0.092502
31
0.0
0
LINE
8
0
6
CONTINUOUS
10
0.028809
20
-0.092712
30
0.0
11
0.032328
21
-0.093151
31
0.0
0
LINE
8
0
6
CONTINUOUS
10
0.025438
20
-0.093850
30
0.0
11
0.026505
21
-0.093214
31
0.0
0
LINE
8
0
6
CONTINUOUS
10
0.026773
20
-0.092917
30
0.0
11
0.025562
21
-0.093599
31
0.0
0
LINE
8
0
6
CONTINUOUS
10
0.024427
20
-0.094687
30
0.0
11
0.025438
21
-0.093850
31
0.0
0
LINE
8
0
6
CONTINUOUS
10
0.025562
20
-0.093599
30
0.0
11
0.024443
21
-0.094504
31
0.0
0
LINE
8
0
6
CONTINUOUS
10
0.023665
20
-0.095774
30
0.0
11
0.024427
21
-0.094687
31
0.0
0
LINE
8
0
6
CONTINUOUS
10
0.024443
20
-0.094504
30
0.0
11
0.023590
21
-0.095612
31
0.0
0
LINE
8
0
6
CONTINUOUS
10
0.023590
20
-0.095612
30
0.0
11
0.022922
21
-0.096482
31
0.0
0
LINE
8
0
6
CONTINUOUS
10
0.026505
20
-0.093214
30
0.0
11
0.028809
21
-0.092712
31
0.0
0
LINE
8
0
6
CONTINUOUS
10
0.035588
20
-0.092660
30
0.0
11
0.033903
21
-0.092660
31
0.0
0
LINE
8
0
6
CONTINUOUS
10
0.035450
20
-0.094603
30
0.0
11
0.036456
21
-0.094603
31
0.0
0
LINE
8
0
6
CONTINUOUS
10
0.034128
20
-0.094603
30
0.0
11
0.034863
21
-0.094603
31
0.0
0
LINE
8
0
6
CONTINUOUS
10
0.034149
20
-0.093151
30
0.0
11
0.034995
21
-0.093151
31
0.0
0
LINE
8
0
6
CONTINUOUS
10
0.036141
20
-0.094955
30
0.0
11
0.034368
21
-0.094691
31
0.0
0
LINE
8
0
6
CONTINUOUS
10
0.033896
20
-0.094942
30
0.0
11
0.036141
21
-0.094955
31
0.0
0
LINE
8
0
6
CONTINUOUS
10
0.036496
20
-0.092660
30
0.0
11
0.035588
21
-0.092660
31
0.0
0
LINE
8
0
6
CONTINUOUS
10
0.034300
20
-0.093023
30
0.0
11
0.035229
21
-0.093023
31
0.0
0
LINE
8
0
6
CONTINUOUS
10
0.036496
20
-0.092660
30
0.0
11
0.035229
21
-0.093023
31
0.0
0
LINE
8
0
6
CONTINUOUS
10
0.034128
20
-0.094603
30
0.0
11
0.034105
21
-0.093588
31
0.0
0
LINE
8
0
6
CONTINUOUS
10
0.034105
20
-0.093588
30
0.0
11
0.034149
21
-0.093151
31
0.0
0
LINE
8
0
6
CONTINUOUS
10
0.032328
20
-0.093151
30
0.0
11
0.034149
21
-0.093151
31
0.0
0
LINE
8
0
6
CONTINUOUS
10
0.034128
20
-0.094603
30
0.0
11
0.032318
21
-0.094603
31
0.0
0
LINE
8
0
6
CONTINUOUS
10
0.034863
20
-0.094603
30
0.0
11
0.035450
21
-0.094603
31
0.0
0
LINE
8
0
6
CONTINUOUS
10
0.029326
20
-0.094902
30
0.0
11
0.026650
21
-0.095396
31
0.0
0
LINE
8
0
6
CONTINUOUS
10
0.035229
20
-0.093023
30
0.0
11
0.034995
21
-0.093151
31
0.0
0
LINE
8
0
6
CONTINUOUS
10
0.034995
20
-0.093151
30
0.0
11
0.034952
21
-0.093588
31
0.0
0
LINE
8
0
6
CONTINUOUS
10
0.027942
20
-0.092641
30
0.0
11
0.026773
21
-0.092917
31
0.0
0
LINE
8
0
6
CONTINUOUS
10
0.030333
20
-0.092212
30
0.0
11
0.027942
21
-0.092641
31
0.0
0
LINE
8
0
6
CONTINUOUS
10
0.026773
20
-0.092917
30
0.0
11
0.028909
21
-0.092502
31
0.0
0
LINE
8
0
6
CONTINUOUS
10
0.024312
20
-0.097345
30
0.0
11
0.018818
21
-0.123237
31
0.0
0
LINE
8
0
6
CONTINUOUS
10
0.025007
20
-0.097626
30
0.0
11
0.019283
21
-0.125541
31
0.0
0
LINE
8
0
6
CONTINUOUS
10
0.022922
20
-0.096482
30
0.0
11
0.018900
21
-0.114801
31
0.0
0
LINE
8
0
6
CONTINUOUS
10
0.036141
20
-0.094955
30
0.0
11
0.036817
21
-0.094691
31
0.0
0
LINE
8
0
6
CONTINUOUS
10
0.036456
20
-0.094603
30
0.0
11
0.036141
21
-0.094955
31
0.0
0
LINE
8
0
6
CONTINUOUS
10
0.036456
20
-0.094603
30
0.0
11
0.036817
21
-0.094691
31
0.0
0
LINE
8
0
6
CONTINUOUS
10
0.036817
20
-0.094691
30
0.0
11
0.037138
21
-0.094603
31
0.0
0
LINE
8
0
6
CONTINUOUS
10
0.026422
20
-0.097211
30
0.0
11
0.026059
21
-0.097807
31
0.0
0
LINE
8
0
6
CONTINUOUS
10
0.026661
20
-0.097626
30
0.0
11
0.027027
21
-0.096926
31
0.0
0
LINE
8
0
6
CONTINUOUS
10
0.027294
20
-0.096185
30
0.0
11
0.026820
21
-0.096654
31
0.0
0
LINE
8
0
6
CONTINUOUS
10
0.027440
20
-0.096234
30
0.0
11
0.027932
21
-0.095771
31
0.0
0
LINE
8
0
6
CONTINUOUS
10
0.036456
20
-0.094603
30
0.0
11
0.037138
21
-0.094603
31
0.0
0
LINE
8
0
6
CONTINUOUS
10
0.037227
20
-0.093023
30
0.0
11
0.036496
21
-0.092660
31
0.0
0
LINE
8
0
6
CONTINUOUS
10
0.037187
20
-0.094603
30
0.0
11
0.037339
21
-0.093588
31
0.0
0
LINE
8
0
6
CONTINUOUS
10
0.037138
20
-0.094603
30
0.0
11
0.037187
21
-0.094603
31
0.0
0
LINE
8
0
6
CONTINUOUS
10
0.027853
20
-0.095903
30
0.0
11
0.031039
21
-0.094902
31
0.0
0
LINE
8
0
6
CONTINUOUS
10
0.037339
20
-0.093588
30
0.0
11
0.037298
21
-0.093151
31
0.0
0
LINE
8
0
6
CONTINUOUS
10
0.037298
20
-0.093151
30
0.0
11
0.037227
21
-0.093023
31
0.0
0
LINE
8
0
6
CONTINUOUS
10
0.020589
20
-0.125215
30
0.0
11
0.026661
21
-0.097626
31
0.0
0
LINE
8
0
6
CONTINUOUS
10
0.026059
20
-0.097807
30
0.0
11
0.019962
21
-0.126325
31
0.0
0
LINE
8
0
6
CONTINUOUS
10
0.018570
20
-0.119587
30
0.0
11
0.023315
21
-0.096805
31
0.0
0
LINE
8
0
6
CONTINUOUS
10
0.032147
20
0.112252
30
0.0
11
0.032793
21
0.112983
31
0.0
0
LINE
8
0
6
CONTINUOUS
10
0.031450
20
0.111685
30
0.0
11
0.032128
21
0.112218
31
0.0
0
LINE
8
0
6
CONTINUOUS
10
0.037533
20
0.116235
30
0.0
11
0.038318
21
0.116469
31
0.0
0
LINE
8
0
6
CONTINUOUS
10
0.032793
20
0.112983
30
0.0
11
0.033160
21
0.113272
31
0.0
0
LINE
8
0
6
CONTINUOUS
10
0.034614
20
0.115312
30
0.0
11
0.035210
21
0.115585
31
0.0
0
LINE
8
0
6
CONTINUOUS
10
0.035210
20
0.115585
30
0.0
11
0.037533
21
0.116235
31
0.0
0
LINE
8
0
6
CONTINUOUS
10
0.034124
20
0.114456
30
0.0
11
0.034614
21
0.115312
31
0.0
0
LINE
8
0
6
CONTINUOUS
10
0.029027
20
0.109086
30
0.0
11
0.029155
21
0.109299
31
0.0
0
LINE
8
0
6
CONTINUOUS
10
0.029155
20
0.109299
30
0.0
11
0.029296
21
0.109569
31
0.0
0
LINE
8
0
6
CONTINUOUS
10
0.029607
20
0.109734
30
0.0
11
0.029909
21
0.109892
31
0.0
0
LINE
8
0
6
CONTINUOUS
10
0.029296
20
0.109569
30
0.0
11
0.029607
21
0.109734
31
0.0
0
LINE
8
0
6
CONTINUOUS
10
0.014680
20
0.137148
30
0.0
11
0.015029
21
0.135908
31
0.0
0
LINE
8
0
6
CONTINUOUS
10
0.037137
20
0.080703
30
0.0
11
0.036821
21
0.081945
31
0.0
0
LINE
8
0
6
CONTINUOUS
10
0.044325
20
0.049784
30
0.0
11
0.044172
21
0.050802
31
0.0
0
LINE
8
0
6
CONTINUOUS
10
0.044364
20
0.048805
30
0.0
11
0.044325
21
0.049784
31
0.0
0
LINE
8
0
6
CONTINUOUS
10
0.036821
20
0.081945
30
0.0
11
0.036508
21
0.082923
31
0.0
0
LINE
8
0
6
CONTINUOUS
10
0.036508
20
0.082923
30
0.0
11
0.036110
21
0.083812
31
0.0
0
LINE
8
0
6
CONTINUOUS
10
0.030261
20
0.110416
30
0.0
11
0.030293
21
0.110444
31
0.0
0
LINE
8
0
6
CONTINUOUS
10
0.029909
20
0.109892
30
0.0
11
0.030261
21
0.110416
31
0.0
0
LINE
8
0
6
CONTINUOUS
10
0.031188
20
0.111388
30
0.0
11
0.031450
21
0.111685
31
0.0
0
LINE
8
0
6
CONTINUOUS
10
0.018570
20
-0.119587
30
0.0
11
0.018600
21
-0.118981
31
0.0
0
LINE
8
0
6
CONTINUOUS
10
0.018624
20
-0.120123
30
0.0
11
0.018570
21
-0.119587
31
0.0
0
LINE
8
0
6
CONTINUOUS
10
0.018758
20
-0.121892
30
0.0
11
0.018624
21
-0.120123
31
0.0
0
ENDSEC
0
EOF
