  0
SECTION
  2
HEADER
  9
$ACADVER
  1
AC1015
  9
$ACADMAINTVER
 70
     6
  9
$DWGCODEPAGE
  3
ANSI_1252
  9
$INSBASE
 10
0.0
 20
0.0
 30
0.0
  9
$EXTMIN
 10
0.133172
 20
1.5707
 30
0.0
  9
$EXTMAX
 10
225.866828
 20
209.5771
 30
0.0
  9
$LIMMIN
 10
0.0
 20
0.0
  9
$LIMMAX
 10
12.0
 20
9.0
  9
$ORTHOMODE
 70
     0
  9
$REGENMODE
 70
     1
  9
$FILLMODE
 70
     1
  9
$QTEXTMODE
 70
     0
  9
$MIRRTEXT
 70
     1
  9
$LTSCALE
 40
1.0
  9
$ATTMODE
 70
     1
  9
$TEXTSIZE
 40
0.2
  9
$TRACEWID
 40
0.05
  9
$TEXTSTYLE
  7
Standard
  9
$CLAYER
  8
0
  9
$CELTYPE
  6
ByBlock
  9
$CECOLOR
 62
   256
  9
$CELTSCALE
 40
1.0
  9
$DISPSILH
 70
     0
  9
$DIMSCALE
 40
1.0
  9
$DIMASZ
 40
0.18
  9
$DIMEXO
 40
0.0625
  9
$DIMDLI
 40
0.38
  9
$DIMRND
 40
0.0
  9
$DIMDLE
 40
0.0
  9
$DIMEXE
 40
0.18
  9
$DIMTP
 40
0.0
  9
$DIMTM
 40
0.0
  9
$DIMTXT
 40
0.18
  9
$DIMCEN
 40
0.09
  9
$DIMTSZ
 40
0.0
  9
$DIMTOL
 70
     0
  9
$DIMLIM
 70
     0
  9
$DIMTIH
 70
     1
  9
$DIMTOH
 70
     1
  9
$DIMSE1
 70
     0
  9
$DIMSE2
 70
     0
  9
$DIMTAD
 70
     0
  9
$DIMZIN
 70
     0
  9
$DIMBLK
  1

  9
$DIMASO
 70
     1
  9
$DIMSHO
 70
     1
  9
$DIMPOST
  1

  9
$DIMAPOST
  1

  9
$DIMALT
 70
     0
  9
$DIMALTD
 70
     2
  9
$DIMALTF
 40
25.4
  9
$DIMLFAC
 40
1.0
  9
$DIMTOFL
 70
     0
  9
$DIMTVP
 40
0.0
  9
$DIMTIX
 70
     0
  9
$DIMSOXD
 70
     0
  9
$DIMSAH
 70
     0
  9
$DIMBLK1
  1

  9
$DIMBLK2
  1

  9
$DIMSTYLE
  2
Standard
  9
$DIMCLRD
 70
     0
  9
$DIMCLRE
 70
     0
  9
$DIMCLRT
 70
     0
  9
$DIMTFAC
 40
1.0
  9
$DIMGAP
 40
0.09
  9
$DIMJUST
 70
     0
  9
$DIMSD1
 70
     0
  9
$DIMSD2
 70
     0
  9
$DIMTOLJ
 70
     1
  9
$DIMTZIN
 70
     0
  9
$DIMALTZ
 70
     0
  9
$DIMALTTZ
 70
     0
  9
$DIMUPT
 70
     0
  9
$DIMDEC
 70
     4
  9
$DIMTDEC
 70
     4
  9
$DIMALTU
 70
     2
  9
$DIMALTTD
 70
     2
  9
$DIMTXSTY
  7
Standard
  9
$DIMAUNIT
 70
     0
  9
$DIMADEC
 70
     0
  9
$DIMALTRND
 40
0.0
  9
$DIMAZIN
 70
     0
  9
$DIMDSEP
 70
    46
  9
$DIMATFIT
 70
     3
  9
$DIMFRAC
 70
     0
  9
$DIMLDRBLK
  1

  9
$DIMLUNIT
 70
     2
  9
$DIMLWD
 70
    -2
  9
$DIMLWE
 70
    -2
  9
$DIMTMOVE
 70
     2
  9
$LUNITS
 70
     2
  9
$LUPREC
 70
     4
  9
$SKETCHINC
 40
0.1
  9
$FILLETRAD
 40
0.5
  9
$AUNITS
 70
     0
  9
$AUPREC
 70
     0
  9
$MENU
  1
.
  9
$ELEVATION
 40
0.0
  9
$PELEVATION
 40
0.0
  9
$THICKNESS
 40
0.0
  9
$LIMCHECK
 70
     0
  9
$CHAMFERA
 40
0.5
  9
$CHAMFERB
 40
0.5
  9
$CHAMFERC
 40
1.0
  9
$CHAMFERD
 40
0.0
  9
$SKPOLY
 70
     0
  9
$TDCREATE
 40
2456184.833647894
  9
$TDUCREATE
 40
2456184.75031456
  9
$TDUPDATE
 40
2456184.842630822
  9
$TDUUPDATE
 40
2456184.759297488
  9
$TDINDWG
 40
0.008982581
  9
$TDUSRTIMER
 40
0.008982581
  9
$USRTIMER
 70
     1
  9
$ANGBASE
 50
0.0
  9
$ANGDIR
 70
     0
  9
$PDMODE
 70
     0
  9
$PDSIZE
 40
0.0
  9
$PLINEWID
 40
0.0
  9
$SPLFRAME
 70
     0
  9
$SPLINETYPE
 70
     6
  9
$SPLINESEGS
 70
     8
  9
$HANDSEED
  5
AD6
  9
$SURFTAB1
 70
     6
  9
$SURFTAB2
 70
     6
  9
$SURFTYPE
 70
     6
  9
$SURFU
 70
     6
  9
$SURFV
 70
     6
  9
$UCSBASE
  2

  9
$UCSNAME
  2

  9
$UCSORG
 10
0.0
 20
0.0
 30
0.0
  9
$UCSXDIR
 10
1.0
 20
0.0
 30
0.0
  9
$UCSYDIR
 10
0.0
 20
1.0
 30
0.0
  9
$UCSORTHOREF
  2

  9
$UCSORTHOVIEW
 70
     0
  9
$UCSORGTOP
 10
0.0
 20
0.0
 30
0.0
  9
$UCSORGBOTTOM
 10
0.0
 20
0.0
 30
0.0
  9
$UCSORGLEFT
 10
0.0
 20
0.0
 30
0.0
  9
$UCSORGRIGHT
 10
0.0
 20
0.0
 30
0.0
  9
$UCSORGFRONT
 10
0.0
 20
0.0
 30
0.0
  9
$UCSORGBACK
 10
0.0
 20
0.0
 30
0.0
  9
$PUCSBASE
  2

  9
$PUCSNAME
  2

  9
$PUCSORG
 10
0.0
 20
0.0
 30
0.0
  9
$PUCSXDIR
 10
1.0
 20
0.0
 30
0.0
  9
$PUCSYDIR
 10
0.0
 20
1.0
 30
0.0
  9
$PUCSORTHOREF
  2

  9
$PUCSORTHOVIEW
 70
     0
  9
$PUCSORGTOP
 10
0.0
 20
0.0
 30
0.0
  9
$PUCSORGBOTTOM
 10
0.0
 20
0.0
 30
0.0
  9
$PUCSORGLEFT
 10
0.0
 20
0.0
 30
0.0
  9
$PUCSORGRIGHT
 10
0.0
 20
0.0
 30
0.0
  9
$PUCSORGFRONT
 10
0.0
 20
0.0
 30
0.0
  9
$PUCSORGBACK
 10
0.0
 20
0.0
 30
0.0
  9
$USERI1
 70
     0
  9
$USERI2
 70
     0
  9
$USERI3
 70
     0
  9
$USERI4
 70
     0
  9
$USERI5
 70
     0
  9
$USERR1
 40
0.0
  9
$USERR2
 40
0.0
  9
$USERR3
 40
0.0
  9
$USERR4
 40
0.0
  9
$USERR5
 40
0.0
  9
$WORLDVIEW
 70
     1
  9
$SHADEDGE
 70
     3
  9
$SHADEDIF
 70
    70
  9
$TILEMODE
 70
     1
  9
$MAXACTVP
 70
    64
  9
$PINSBASE
 10
0.0
 20
0.0
 30
0.0
  9
$PLIMCHECK
 70
     0
  9
$PEXTMIN
 10
1.000000000000E+20
 20
1.000000000000E+20
 30
1.000000000000E+20
  9
$PEXTMAX
 10
-1.000000000000E+20
 20
-1.000000000000E+20
 30
-1.000000000000E+20
  9
$PLIMMIN
 10
0.0
 20
0.0
  9
$PLIMMAX
 10
12.0
 20
9.0
  9
$UNITMODE
 70
     0
  9
$VISRETAIN
 70
     1
  9
$PLINEGEN
 70
     0
  9
$PSLTSCALE
 70
     1
  9
$TREEDEPTH
 70
  3020
  9
$CMLSTYLE
  2
Standard
  9
$CMLJUST
 70
     0
  9
$CMLSCALE
 40
1.0
  9
$PROXYGRAPHICS
 70
     1
  9
$MEASUREMENT
 70
     0
  9
$CELWEIGHT
370
    -1
  9
$ENDCAPS
280
     0
  9
$JOINSTYLE
280
     0
  9
$LWDISPLAY
290
     0
  9
$INSUNITS
 70
     0
  9
$HYPERLINKBASE
  1

  9
$STYLESHEET
  1

  9
$XEDIT
290
     1
  9
$CEPSNTYPE
380
     0
  9
$PSTYLEMODE
290
     1
  9
$FINGERPRINTGUID
  2
{FFE9E4C6-AEE6-4C8F-9C79-315EB2C0BA64}
  9
$VERSIONGUID
  2
{FAEB1C32-E019-11D5-929B-00C0DF256EC4}
  9
$EXTNAMES
290
     1
  9
$PSVPSCALE
 40
0.0
  9
$OLESTARTUP
290
     0
  0
ENDSEC
  0
SECTION
  2
CLASSES
  0
CLASS
  1
ACDBDICTIONARYWDFLT
  2
AcDbDictionaryWithDefault
  3
ObjectDBX Classes
 90
        0
280
     0
281
     0
  0
CLASS
  1
SCALE
  2
AcDbScale
  3
ObjectDBX Classes
 90
     1153
280
     0
281
     0
  0
CLASS
  1
DICTIONARYVAR
  2
AcDbDictionaryVar
  3
ObjectDBX Classes
 90
        0
280
     0
281
     0
  0
CLASS
  1
ACDBPLACEHOLDER
  2
AcDbPlaceHolder
  3
ObjectDBX Classes
 90
        0
280
     0
281
     0
  0
CLASS
  1
LAYOUT
  2
AcDbLayout
  3
ObjectDBX Classes
 90
        0
280
     0
281
     0
  0
ENDSEC
  0
SECTION
  2
TABLES
  0
TABLE
  2
VPORT
  5
8
330
0
100
AcDbSymbolTable
 70
     1
  0
VPORT
  5
5B1
330
8
100
AcDbSymbolTableRecord
100
AcDbViewportTableRecord
  2
*Active
 70
     0
 10
0.0
 20
0.0
 11
1.0
 21
1.0
 12
112.933414
 22
104.78855
 13
0.0
 23
0.0
 14
0.5
 24
0.5
 15
0.5
 25
0.5
 16
0.0
 26
0.0
 36
1.0
 17
0.0
 27
0.0
 37
0.0
 40
213.768642
 41
1.863448275862
 42
50.0
 43
0.0
 44
0.0
 50
0.0
 51
0.0
 71
    16
 72
   100
 73
     1
 74
     3
 75
     0
 76
     0
 77
     0
 78
     0
281
     0
 65
     1
110
0.0
120
0.0
130
0.0
111
1.0
121
0.0
131
0.0
112
0.0
122
1.0
132
0.0
 79
     0
146
0.0
  0
ENDTAB
  0
TABLE
  2
LTYPE
  5
5
330
0
100
AcDbSymbolTable
 70
     1
  0
LTYPE
  5
14
330
5
100
AcDbSymbolTableRecord
100
AcDbLinetypeTableRecord
  2
ByBlock
 70
     0
  3

 72
    65
 73
     0
 40
0.0
  0
LTYPE
  5
15
330
5
100
AcDbSymbolTableRecord
100
AcDbLinetypeTableRecord
  2
ByLayer
 70
     0
  3

 72
    65
 73
     0
 40
0.0
  0
LTYPE
  5
16
330
5
100
AcDbSymbolTableRecord
100
AcDbLinetypeTableRecord
  2
Continuous
 70
     0
  3
Solid line
 72
    65
 73
     0
 40
0.0
  0
ENDTAB
  0
TABLE
  2
LAYER
  5
2
330
0
100
AcDbSymbolTable
 70
     1
  0
LAYER
  5
10
330
2
100
AcDbSymbolTableRecord
100
AcDbLayerTableRecord
  2
0
 70
     0
 62
     7
  6
Continuous
370
    -3
390
F
  0
ENDTAB
  0
TABLE
  2
STYLE
  5
3
330
0
100
AcDbSymbolTable
 70
     1
  0
STYLE
  5
11
330
3
100
AcDbSymbolTableRecord
100
AcDbTextStyleTableRecord
  2
Standard
 70
     0
 40
0.0
 41
1.0
 50
0.0
 71
     0
 42
0.2
  3
txt
  4

  0
ENDTAB
  0
TABLE
  2
VIEW
  5
6
330
0
100
AcDbSymbolTable
 70
     0
  0
ENDTAB
  0
TABLE
  2
UCS
  5
7
330
0
100
AcDbSymbolTable
 70
     0
  0
ENDTAB
  0
TABLE
  2
APPID
  5
9
330
0
100
AcDbSymbolTable
 70
     1
  0
APPID
  5
12
330
9
100
AcDbSymbolTableRecord
100
AcDbRegAppTableRecord
  2
ACAD
 70
     0
  0
ENDTAB
  0
TABLE
  2
DIMSTYLE
  5
A
330
0
100
AcDbSymbolTable
 70
     1
100
AcDbDimStyleTable
  0
DIMSTYLE
105
20
330
A
100
AcDbSymbolTableRecord
100
AcDbDimStyleTableRecord
  2
Standard
 70
     0
340
11
  0
ENDTAB
  0
TABLE
  2
BLOCK_RECORD
  5
1
330
0
100
AcDbSymbolTable
 70
     1
  0
BLOCK_RECORD
  5
1D
330
1
100
AcDbSymbolTableRecord
100
AcDbBlockTableRecord
  2
*Model_Space
340
1E
  0
BLOCK_RECORD
  5
1B
330
1
100
AcDbSymbolTableRecord
100
AcDbBlockTableRecord
  2
*Paper_Space
340
1C
  0
ENDTAB
  0
ENDSEC
  0
SECTION
  2
BLOCKS
  0
BLOCK
  5
5B4
330
1D
100
AcDbEntity
  8
0
100
AcDbBlockBegin
  2
*Model_Space
 70
     0
 10
0.0
 20
0.0
 30
0.0
  3
*Model_Space
  1
*Model_Space
  0
ENDBLK
  5
5B5
330
1D
100
AcDbEntity
  8
0
100
AcDbBlockEnd
  0
BLOCK
  5
5B2
330
1B
100
AcDbEntity
 67
     1
  8
0
100
AcDbBlockBegin
  2
*Paper_Space
 70
     0
 10
0.0
 20
0.0
 30
0.0
  3
*Paper_Space
  1
*Paper_Space
  0
ENDBLK
  5
5B3
330
1B
100
AcDbEntity
 67
     1
  8
0
100
AcDbBlockEnd
  0
ENDSEC
  0
SECTION
  2
ENTITIES
  0
LINE
  5
6B
330
1D
100
AcDbEntity
  8
0
100
AcDbLine
 10
0.475302
 20
85.70215
 30
0.0
 11
32.759728
 21
106.6734
 31
0.0
  0
LINE
  5
6C
330
1D
100
AcDbEntity
  8
0
100
AcDbLine
 10
0.475302
 20
85.70215
 30
0.0
 11
32.759728
 21
106.6734
 31
0.0
  0
LINE
  5
6F
330
1D
100
AcDbEntity
  8
0
100
AcDbLine
 10
0.133172
 20
85.21815
 30
0.0
 11
0.218064
 21
84.63165
 31
0.0
  0
LINE
  5
71
330
1D
100
AcDbEntity
  8
0
100
AcDbLine
 10
0.133172
 20
85.21815
 30
0.0
 11
0.475556
 21
85.70215
 31
0.0
  0
LINE
  5
92
330
1D
100
AcDbEntity
  8
0
100
AcDbLine
 10
15.899928
 20
57.4696
 30
0.0
 11
16.365428
 21
57.1028
 31
0.0
  0
LINE
  5
93
330
1D
100
AcDbEntity
  8
0
100
AcDbLine
 10
16.955728
 20
57.1571
 30
0.0
 11
51.259728
 21
74.63055
 31
0.0
  0
LINE
  5
95
330
1D
100
AcDbEntity
  8
0
100
AcDbLine
 10
16.365428
 20
57.1028
 30
0.0
 11
16.955828
 21
57.1573
 31
0.0
  0
LINE
  5
FD
330
1D
100
AcDbEntity
  8
0
100
AcDbLine
 10
51.259428
 20
74.63055
 30
0.0
 11
63.726628
 21
81.03165
 31
0.0
  0
LINE
  5
102
330
1D
100
AcDbEntity
  8
0
100
AcDbLine
 10
63.726628
 20
81.03165
 30
0.0
 11
76.304628
 21
87.09735
 31
0.0
  0
LINE
  5
108
330
1D
100
AcDbEntity
  8
0
100
AcDbLine
 10
32.759528
 20
106.6736
 30
0.0
 11
57.851328
 21
122.781
 31
0.0
  0
LINE
  5
10A
330
1D
100
AcDbEntity
  8
0
100
AcDbLine
 10
32.759528
 20
106.6736
 30
0.0
 11
57.850828
 21
122.7808
 31
0.0
  0
LINE
  5
10C
330
1D
100
AcDbEntity
  8
0
100
AcDbLine
 10
57.851328
 20
122.781
 30
0.0
 11
70.531328
 21
130.7089
 31
0.0
  0
LINE
  5
10D
330
1D
100
AcDbEntity
  8
0
100
AcDbLine
 10
57.850828
 20
122.7808
 30
0.0
 11
70.530728
 21
130.7086
 31
0.0
  0
LINE
  5
11B
330
1D
100
AcDbEntity
  8
0
100
AcDbLine
 10
70.530728
 20
130.7086
 30
0.0
 11
84.508928
 21
139.1308
 31
0.0
  0
LINE
  5
11F
330
1D
100
AcDbEntity
  8
0
100
AcDbLine
 10
76.304628
 20
87.09735
 30
0.0
 11
88.752328
 21
92.6362
 31
0.0
  0
LINE
  5
120
330
1D
100
AcDbEntity
  8
0
100
AcDbLine
 10
70.531328
 20
130.7089
 30
0.0
 11
84.509228
 21
139.1305
 31
0.0
  0
LINE
  5
127
330
1D
100
AcDbEntity
  8
0
100
AcDbLine
 10
84.509228
 20
139.1305
 30
0.0
 11
91.596728
 21
143.1903
 31
0.0
  0
LINE
  5
128
330
1D
100
AcDbEntity
  8
0
100
AcDbLine
 10
84.508928
 20
139.1308
 30
0.0
 11
91.596728
 21
143.1903
 31
0.0
  0
LINE
  5
12F
330
1D
100
AcDbEntity
  8
0
100
AcDbLine
 10
88.752328
 20
92.6362
 30
0.0
 11
101.394828
 21
97.6999
 31
0.0
  0
LINE
  5
14D
330
1D
100
AcDbEntity
  8
0
100
AcDbLine
 10
91.596728
 20
143.1903
 30
0.0
 11
93.369528
 21
144.0813
 31
0.0
  0
LINE
  5
16A
330
1D
100
AcDbEntity
  8
0
100
AcDbLine
 10
93.369528
 20
144.0813
 30
0.0
 11
96.133128
 21
145.2481
 31
0.0
  0
LINE
  5
170
330
1D
100
AcDbEntity
  8
0
100
AcDbLine
 10
93.323391003459
 20
144.05811178705
 30
0.0
 11
93.369028
 21
144.0816
 31
0.0
  0
LINE
  5
1C0
330
1D
100
AcDbEntity
  8
0
100
AcDbLine
 10
96.133128
 20
145.2481
 30
0.0
 11
99.309628
 21
146.4969
 31
0.0
  0
LINE
  5
1CD
330
1D
100
AcDbEntity
  8
0
100
AcDbLine
 10
99.309628
 20
146.4969
 30
0.0
 11
101.259828
 21
147.2912
 31
0.0
  0
LINE
  5
2A0
330
1D
100
AcDbEntity
  8
0
100
AcDbLine
 10
225.866828
 20
77.7491
 30
0.0
 11
225.866828
 21
78.0491
 31
0.0
  0
LINE
  5
2A1
330
1D
100
AcDbEntity
  8
0
100
AcDbLine
 10
225.866828
 20
78.0491
 30
0.0
 11
225.866828
 21
78.7491
 31
0.0
  0
LINE
  5
2A2
330
1D
100
AcDbEntity
  8
0
100
AcDbLine
 10
225.866828
 20
78.0491
 30
0.0
 11
225.866828
 21
77.7491
 31
0.0
  0
LINE
  5
2D3
330
1D
100
AcDbEntity
  8
0
100
AcDbLine
 10
101.394828
 20
97.6999
 30
0.0
 11
110.623828
 21
100.9783
 31
0.0
  0
LINE
  5
2ED
330
1D
100
AcDbEntity
  8
0
100
AcDbLine
 10
110.623828
 20
100.9783
 30
0.0
 11
119.959828
 21
103.8855
 31
0.0
  0
LINE
  5
30F
330
1D
100
AcDbEntity
  8
0
100
AcDbLine
 10
129.487828
 20
106.3832
 30
0.0
 11
137.005703130936
 21
107.383935856947
 31
0.0
  0
LINE
  5
310
330
1D
100
AcDbEntity
  8
0
100
AcDbLine
 10
119.959828
 20
103.8855
 30
0.0
 11
129.487828
 21
106.3832
 31
0.0
  0
LINE
  5
39B
330
1D
100
AcDbEntity
  8
0
100
AcDbLine
 10
225.866828
 20
78.7491
 30
0.0
 11
225.866828
 21
78.0491
 31
0.0
  0
LINE
  5
3C7
330
1D
100
AcDbEntity
  8
0
100
AcDbLine
 10
101.259828
 20
147.2912
 30
0.0
 11
104.189828
 21
148.5388
 31
0.0
  0
LINE
  5
3C9
330
1D
100
AcDbEntity
  8
0
100
AcDbLine
 10
101.259828
 20
147.2912
 30
0.0
 11
104.189828
 21
148.5387
 31
0.0
  0
LINE
  5
3CA
330
1D
100
AcDbEntity
  8
0
100
AcDbLine
 10
104.189828
 20
148.5388
 30
0.0
 11
108.797828
 21
150.6168
 31
0.0
  0
LINE
  5
3CD
330
1D
100
AcDbEntity
  8
0
100
AcDbLine
 10
104.189828
 20
148.5387
 30
0.0
 11
108.796828
 21
150.6165
 31
0.0
  0
LINE
  5
3CE
330
1D
100
AcDbEntity
  8
0
100
AcDbLine
 10
108.796828
 20
150.6165
 30
0.0
 11
113.376828
 21
152.6162
 31
0.0
  0
LINE
  5
3CF
330
1D
100
AcDbEntity
  8
0
100
AcDbLine
 10
108.797828
 20
150.6168
 30
0.0
 11
113.376828
 21
152.6162
 31
0.0
  0
LINE
  5
3D1
330
1D
100
AcDbEntity
  8
0
100
AcDbLine
 10
113.376828
 20
152.6162
 30
0.0
 11
116.740331335302
 21
154.012162338382
 31
0.0
  0
LINE
  5
3D2
330
1D
100
AcDbEntity
  8
0
100
AcDbLine
 10
113.376828
 20
152.6162
 30
0.0
 11
116.740310469001
 21
154.012197714098
 31
0.0
  0
LINE
  5
85C
330
1D
100
AcDbEntity
  8
0
100
AcDbLine
 10
75.953143
 20
154.6624
 30
0.0
 11
76.027395
 21
153.0533
 31
0.0
  0
LINE
  5
85D
330
1D
100
AcDbEntity
  8
0
100
AcDbLine
 10
75.953143
 20
154.6624
 30
0.0
 11
75.968893
 21
156.297
 31
0.0
  0
LINE
  5
85E
330
1D
100
AcDbEntity
  8
0
100
AcDbLine
 10
75.953411
 20
154.6624
 30
0.0
 11
75.969072
 21
156.2972
 31
0.0
  0
LINE
  5
85F
330
1D
100
AcDbEntity
  8
0
100
AcDbLine
 10
75.953411
 20
154.6624
 30
0.0
 11
76.027067
 21
153.0535
 31
0.0
  0
LINE
  5
860
330
1D
100
AcDbEntity
  8
0
100
AcDbLine
 10
75.968893
 20
156.297
 30
0.0
 11
76.084124
 21
158.1114
 31
0.0
  0
LINE
  5
861
330
1D
100
AcDbEntity
  8
0
100
AcDbLine
 10
75.969072
 20
156.2972
 30
0.0
 11
76.083975
 21
158.1114
 31
0.0
  0
LINE
  5
862
330
1D
100
AcDbEntity
  8
0
100
AcDbLine
 10
76.027395
 20
153.0533
 30
0.0
 11
76.134743
 21
151.9512
 31
0.0
  0
LINE
  5
863
330
1D
100
AcDbEntity
  8
0
100
AcDbLine
 10
76.027067
 20
153.0535
 30
0.0
 11
76.134639
 21
151.9513
 31
0.0
  0
LINE
  5
864
330
1D
100
AcDbEntity
  8
0
100
AcDbLine
 10
77.405558
 20
146.8122
 30
0.0
 11
77.802198
 21
145.9073
 31
0.0
  0
LINE
  5
865
330
1D
100
AcDbEntity
  8
0
100
AcDbLine
 10
78.246418
 20
145.0466
 30
0.0
 11
78.778308
 21
144.1724
 31
0.0
  0
LINE
  5
866
330
1D
100
AcDbEntity
  8
0
100
AcDbLine
 10
78.778308
 20
144.1724
 30
0.0
 11
79.363318
 21
143.3594
 31
0.0
  0
LINE
  5
867
330
1D
100
AcDbEntity
  8
0
100
AcDbLine
 10
78.246598
 20
145.0466
 30
0.0
 11
78.778488
 21
144.1726
 31
0.0
  0
LINE
  5
868
330
1D
100
AcDbEntity
  8
0
100
AcDbLine
 10
77.802198
 20
145.9073
 30
0.0
 11
78.246598
 21
145.0466
 31
0.0
  0
LINE
  5
869
330
1D
100
AcDbEntity
  8
0
100
AcDbLine
 10
77.405678
 20
146.8118
 30
0.0
 11
77.802198
 21
145.9073
 31
0.0
  0
LINE
  5
86A
330
1D
100
AcDbEntity
  8
0
100
AcDbLine
 10
77.049688
 20
147.7801
 30
0.0
 11
77.405678
 21
146.8118
 31
0.0
  0
LINE
  5
86B
330
1D
100
AcDbEntity
  8
0
100
AcDbLine
 10
77.049528
 20
147.7802
 30
0.0
 11
77.405558
 21
146.8122
 31
0.0
  0
LINE
  5
86C
330
1D
100
AcDbEntity
  8
0
100
AcDbLine
 10
76.289328
 20
150.87
 30
0.0
 11
76.492207
 21
149.8139
 31
0.0
  0
LINE
  5
86D
330
1D
100
AcDbEntity
  8
0
100
AcDbLine
 10
76.492207
 20
149.8139
 30
0.0
 11
76.744156
 21
148.7864
 31
0.0
  0
LINE
  5
86E
330
1D
100
AcDbEntity
  8
0
100
AcDbLine
 10
76.744156
 20
148.7864
 30
0.0
 11
77.049528
 21
147.7802
 31
0.0
  0
LINE
  5
86F
330
1D
100
AcDbEntity
  8
0
100
AcDbLine
 10
76.744111
 20
148.7866
 30
0.0
 11
77.049688
 21
147.7801
 31
0.0
  0
LINE
  5
870
330
1D
100
AcDbEntity
  8
0
100
AcDbLine
 10
76.492311
 20
149.8136
 30
0.0
 11
76.744111
 21
148.7866
 31
0.0
  0
LINE
  5
871
330
1D
100
AcDbEntity
  8
0
100
AcDbLine
 10
76.134743
 20
151.9512
 30
0.0
 11
76.289328
 21
150.87
 31
0.0
  0
LINE
  5
872
330
1D
100
AcDbEntity
  8
0
100
AcDbLine
 10
76.289492
 20
150.87
 30
0.0
 11
76.492311
 21
149.8136
 31
0.0
  0
LINE
  5
873
330
1D
100
AcDbEntity
  8
0
100
AcDbLine
 10
76.134639
 20
151.9513
 30
0.0
 11
76.289492
 21
150.87
 31
0.0
  0
LINE
  5
876
330
1D
100
AcDbEntity
  8
0
100
AcDbLine
 10
79.363318
 20
143.3594
 30
0.0
 11
79.999438
 21
142.6116
 31
0.0
  0
LINE
  5
877
330
1D
100
AcDbEntity
  8
0
100
AcDbLine
 10
81.851768
 20
141.0195
 30
0.0
 11
82.474458
 21
140.6351
 31
0.0
  0
LINE
  5
878
330
1D
100
AcDbEntity
  8
0
100
AcDbLine
 10
81.254708
 20
141.4527
 30
0.0
 11
81.851798
 21
141.0197
 31
0.0
  0
LINE
  5
879
330
1D
100
AcDbEntity
  8
0
100
AcDbLine
 10
81.254708
 20
141.4527
 30
0.0
 11
81.851768
 21
141.0195
 31
0.0
  0
LINE
  5
87A
330
1D
100
AcDbEntity
  8
0
100
AcDbLine
 10
81.851798
 20
141.0197
 30
0.0
 11
82.474338
 21
140.6353
 31
0.0
  0
LINE
  5
87B
330
1D
100
AcDbEntity
  8
0
100
AcDbLine
 10
79.999438
 20
142.6116
 30
0.0
 11
80.684348
 21
141.9334
 31
0.0
  0
LINE
  5
87C
330
1D
100
AcDbEntity
  8
0
100
AcDbLine
 10
80.684348
 20
141.9334
 30
0.0
 11
81.254708
 21
141.4527
 31
0.0
  0
LINE
  5
87D
330
1D
100
AcDbEntity
  8
0
100
AcDbLine
 10
79.999288
 20
142.6115
 30
0.0
 11
80.684348
 21
141.9334
 31
0.0
  0
LINE
  5
88D
330
1D
100
AcDbEntity
  8
0
100
AcDbLine
 10
97.734928
 20
148.6773
 30
0.0
 11
97.974828
 21
149.7072
 31
0.0
  0
LINE
  5
88E
330
1D
100
AcDbEntity
  8
0
100
AcDbLine
 10
97.734928
 20
148.677
 30
0.0
 11
97.974928
 21
149.7074
 31
0.0
  0
LINE
  5
88F
330
1D
100
AcDbEntity
  8
0
100
AcDbLine
 10
97.431928
 20
145.762415976358
 30
0.0
 11
97.734928
 21
148.677
 31
0.0
  0
LINE
  5
8AC
330
1D
100
AcDbEntity
  8
0
100
AcDbLine
 10
97.974828
 20
149.7072
 30
0.0
 11
98.257128
 21
150.7288
 31
0.0
  0
LINE
  5
8AD
330
1D
100
AcDbEntity
  8
0
100
AcDbLine
 10
98.257128
 20
150.7288
 30
0.0
 11
98.581228
 21
151.7393
 31
0.0
  0
LINE
  5
8AE
330
1D
100
AcDbEntity
  8
0
100
AcDbLine
 10
98.581228
 20
151.7393
 30
0.0
 11
98.946128
 21
152.7358
 31
0.0
  0
LINE
  5
8AF
330
1D
100
AcDbEntity
  8
0
100
AcDbLine
 10
98.581228
 20
151.7393
 30
0.0
 11
98.946128
 21
152.7361
 31
0.0
  0
LINE
  5
8B0
330
1D
100
AcDbEntity
  8
0
100
AcDbLine
 10
98.257028
 20
150.729
 30
0.0
 11
98.581228
 21
151.7393
 31
0.0
  0
LINE
  5
8B1
330
1D
100
AcDbEntity
  8
0
100
AcDbLine
 10
97.974928
 20
149.7074
 30
0.0
 11
98.257028
 21
150.729
 31
0.0
  0
LINE
  5
8B2
330
1D
100
AcDbEntity
  8
0
100
AcDbLine
 10
98.600728
 20
149.3053
 30
0.0
 11
98.860728
 21
150.2748
 31
0.0
  0
LINE
  5
8B4
330
1D
100
AcDbEntity
  8
0
100
AcDbLine
 10
98.860728
 20
150.2748
 30
0.0
 11
100.067028
 21
153.5756
 31
0.0
  0
LINE
  5
8B5
330
1D
100
AcDbEntity
  8
0
100
AcDbLine
 10
98.946128
 20
152.7361
 30
0.0
 11
99.351228
 21
153.7164
 31
0.0
  0
LINE
  5
8B6
330
1D
100
AcDbEntity
  8
0
100
AcDbLine
 10
100.067028
 20
153.5756
 30
0.0
 11
101.698228
 21
156.6648
 31
0.0
  0
LINE
  5
8B7
330
1D
100
AcDbEntity
  8
0
100
AcDbLine
 10
99.795028
 20
154.6771
 30
0.0
 11
100.276828
 21
155.6167
 31
0.0
  0
LINE
  5
8B8
330
1D
100
AcDbEntity
  8
0
100
AcDbLine
 10
99.794828
 20
154.6776
 30
0.0
 11
100.276828
 21
155.6172
 31
0.0
  0
LINE
  5
8B9
330
1D
100
AcDbEntity
  8
0
100
AcDbLine
 10
99.351228
 20
153.7164
 30
0.0
 11
99.794828
 21
154.6776
 31
0.0
  0
LINE
  5
8BA
330
1D
100
AcDbEntity
  8
0
100
AcDbLine
 10
99.351228
 20
153.7164
 30
0.0
 11
99.795028
 21
154.6771
 31
0.0
  0
LINE
  5
8BB
330
1D
100
AcDbEntity
  8
0
100
AcDbLine
 10
98.946128
 20
152.7358
 30
0.0
 11
99.351228
 21
153.7164
 31
0.0
  0
LINE
  5
8BC
330
1D
100
AcDbEntity
  8
0
100
AcDbLine
 10
98.600728
 20
149.305
 30
0.0
 11
98.860528
 21
150.2749
 31
0.0
  0
LINE
  5
8BD
330
1D
100
AcDbEntity
  8
0
100
AcDbLine
 10
98.060828
 20
146.005950388793
 30
0.0
 11
98.600728
 21
149.305
 31
0.0
  0
LINE
  5
8BE
330
1D
100
AcDbEntity
  8
0
100
AcDbLine
 10
100.276828
 20
155.6167
 30
0.0
 11
100.795128
 21
156.5324
 31
0.0
  0
LINE
  5
8BF
330
1D
100
AcDbEntity
  8
0
100
AcDbLine
 10
100.276828
 20
155.6172
 30
0.0
 11
100.794928
 21
156.5326
 31
0.0
  0
LINE
  5
8C0
330
1D
100
AcDbEntity
  8
0
100
AcDbLine
 10
100.795128
 20
156.5324
 30
0.0
 11
101.735928
 21
157.998
 31
0.0
  0
LINE
  5
8C1
330
1D
100
AcDbEntity
  8
0
100
AcDbLine
 10
101.698228
 20
156.6648
 30
0.0
 11
102.802228
 21
158.3011
 31
0.0
  0
LINE
  5
8C2
330
1D
100
AcDbEntity
  8
0
100
AcDbLine
 10
100.794928
 20
156.5326
 30
0.0
 11
101.735728
 21
157.9983
 31
0.0
  0
LINE
  5
8C3
330
1D
100
AcDbEntity
  8
0
100
AcDbLine
 10
101.697728
 20
156.6651
 30
0.0
 11
102.802128
 21
158.301
 31
0.0
  0
LINE
  5
8C7
330
1D
100
AcDbEntity
  8
0
100
AcDbLine
 10
76.084124
 20
158.1114
 30
0.0
 11
76.208176
 21
159.2799
 31
0.0
  0
LINE
  5
8C8
330
1D
100
AcDbEntity
  8
0
100
AcDbLine
 10
76.208176
 20
159.2799
 30
0.0
 11
76.437386
 21
160.8614
 31
0.0
  0
LINE
  5
8C9
330
1D
100
AcDbEntity
  8
0
100
AcDbLine
 10
76.208116
 20
159.2797
 30
0.0
 11
76.43752
 21
160.8616
 31
0.0
  0
LINE
  5
8CA
330
1D
100
AcDbEntity
  8
0
100
AcDbLine
 10
76.437386
 20
160.8614
 30
0.0
 11
76.675774
 21
162.1562
 31
0.0
  0
LINE
  5
8CB
330
1D
100
AcDbEntity
  8
0
100
AcDbLine
 10
76.43752
 20
160.8616
 30
0.0
 11
76.675759
 21
162.1564
 31
0.0
  0
LINE
  5
8CC
330
1D
100
AcDbEntity
  8
0
100
AcDbLine
 10
77.542278
 20
165.9713
 30
0.0
 11
78.334348
 21
168.331
 31
0.0
  0
LINE
  5
8CD
330
1D
100
AcDbEntity
  8
0
100
AcDbLine
 10
101.735928
 20
157.998
 30
0.0
 11
102.767228
 21
159.3797
 31
0.0
  0
LINE
  5
8CE
330
1D
100
AcDbEntity
  8
0
100
AcDbLine
 10
101.735728
 20
157.9983
 30
0.0
 11
102.767428
 21
159.3795
 31
0.0
  0
LINE
  5
8CF
330
1D
100
AcDbEntity
  8
0
100
AcDbLine
 10
78.334348
 20
168.331
 30
0.0
 11
79.247078
 21
170.5885
 31
0.0
  0
LINE
  5
8D0
330
1D
100
AcDbEntity
  8
0
100
AcDbLine
 10
79.247078
 20
170.5885
 30
0.0
 11
80.536038
 21
173.2278
 31
0.0
  0
LINE
  5
8D1
330
1D
100
AcDbEntity
  8
0
100
AcDbLine
 10
81.460548
 20
174.7792
 30
0.0
 11
82.430448
 21
176.1885
 31
0.0
  0
LINE
  5
8D2
330
1D
100
AcDbEntity
  8
0
100
AcDbLine
 10
82.430448
 20
176.1885
 30
0.0
 11
83.614548
 21
177.5301
 31
0.0
  0
LINE
  5
8D3
330
1D
100
AcDbEntity
  8
0
100
AcDbLine
 10
85.097348
 20
178.7311
 30
0.0
 11
85.930628
 21
179.0961
 31
0.0
  0
LINE
  5
8D4
330
1D
100
AcDbEntity
  8
0
100
AcDbLine
 10
83.614548
 20
177.5301
 30
0.0
 11
84.365611598242
 21
178.138427071411
 31
0.0
  0
LINE
  5
8D5
330
1D
100
AcDbEntity
  8
0
100
AcDbLine
 10
83.614548
 20
177.5301
 30
0.0
 11
84.365611598242
 21
178.138427071411
 31
0.0
  0
LINE
  5
8D6
330
1D
100
AcDbEntity
  8
0
100
AcDbLine
 10
85.930628
 20
179.0961
 30
0.0
 11
86.787828
 21
179.3381
 31
0.0
  0
LINE
  5
8D7
330
1D
100
AcDbEntity
  8
0
100
AcDbLine
 10
86.787828
 20
179.3381
 30
0.0
 11
87.648628
 21
179.4031
 31
0.0
  0
LINE
  5
8D8
330
1D
100
AcDbEntity
  8
0
100
AcDbLine
 10
87.648628
 20
179.4031
 30
0.0
 11
88.283928
 21
179.3551
 31
0.0
  0
LINE
  5
8D9
330
1D
100
AcDbEntity
  8
0
100
AcDbLine
 10
80.536038
 20
173.2278
 30
0.0
 11
81.460548
 21
174.7792
 31
0.0
  0
LINE
  5
8DA
330
1D
100
AcDbEntity
  8
0
100
AcDbLine
 10
91.549528
 20
178.2251
 30
0.0
 11
92.534528
 21
177.6811
 31
0.0
  0
LINE
  5
8DB
330
1D
100
AcDbEntity
  8
0
100
AcDbLine
 10
90.753328
 20
178.6311
 30
0.0
 11
91.549528
 21
178.2251
 31
0.0
  0
LINE
  5
8DC
330
1D
100
AcDbEntity
  8
0
100
AcDbLine
 10
89.995728
 20
178.8821
 30
0.0
 11
90.753328
 21
178.6311
 31
0.0
  0
LINE
  5
8DD
330
1D
100
AcDbEntity
  8
0
100
AcDbLine
 10
91.549628
 20
178.2251
 30
0.0
 11
92.534528
 21
177.6811
 31
0.0
  0
LINE
  5
8DE
330
1D
100
AcDbEntity
  8
0
100
AcDbLine
 10
95.246228
 20
176.1017
 30
0.0
 11
100.162828
 21
173.5036
 31
0.0
  0
LINE
  5
8DF
330
1D
100
AcDbEntity
  8
0
100
AcDbLine
 10
100.162828
 20
173.5036
 30
0.0
 11
105.105328
 21
171.2506
 31
0.0
  0
LINE
  5
8E0
330
1D
100
AcDbEntity
  8
0
100
AcDbLine
 10
92.534528
 20
177.6811
 30
0.0
 11
95.246228
 21
176.1017
 31
0.0
  0
LINE
  5
8E1
330
1D
100
AcDbEntity
  8
0
100
AcDbLine
 10
88.992728
 20
179.2141
 30
0.0
 11
89.995728
 21
178.8821
 31
0.0
  0
LINE
  5
8E2
330
1D
100
AcDbEntity
  8
0
100
AcDbLine
 10
88.283928
 20
179.3551
 30
0.0
 11
88.992728
 21
179.2141
 31
0.0
  0
LINE
  5
8E3
330
1D
100
AcDbEntity
  8
0
100
AcDbLine
 10
88.992628
 20
179.2141
 30
0.0
 11
89.995728
 21
178.8821
 31
0.0
  0
LINE
  5
8E4
330
1D
100
AcDbEntity
  8
0
100
AcDbLine
 10
100.660928
 20
182.0341
 30
0.0
 11
100.914228
 21
181.7091
 31
0.0
  0
LINE
  5
8E5
330
1D
100
AcDbEntity
  8
0
100
AcDbLine
 10
100.914228
 20
181.7091
 30
0.0
 11
101.212928
 21
181.4191
 31
0.0
  0
LINE
  5
8E6
330
1D
100
AcDbEntity
  8
0
100
AcDbLine
 10
88.283828
 20
179.3551
 30
0.0
 11
88.992628
 21
179.2141
 31
0.0
  0
LINE
  5
8E7
330
1D
100
AcDbEntity
  8
0
100
AcDbLine
 10
100.453528
 20
182.3921
 30
0.0
 11
100.660928
 21
182.0341
 31
0.0
  0
LINE
  5
8E8
330
1D
100
AcDbEntity
  8
0
100
AcDbLine
 10
100.292528
 20
182.7821
 30
0.0
 11
100.453528
 21
182.3921
 31
0.0
  0
LINE
  5
8E9
330
1D
100
AcDbEntity
  8
0
100
AcDbLine
 10
100.126828
 20
183.4071
 30
0.0
 11
100.292528
 21
182.7821
 31
0.0
  0
LINE
  5
8EA
330
1D
100
AcDbEntity
  8
0
100
AcDbLine
 10
100.110128
 20
183.6521
 30
0.0
 11
100.126828
 21
183.4071
 31
0.0
  0
LINE
  5
8EB
330
1D
100
AcDbEntity
  8
0
100
AcDbLine
 10
100.103828
 20
184.5251
 30
0.0
 11
100.147328
 21
184.9261
 31
0.0
  0
LINE
  5
8EC
330
1D
100
AcDbEntity
  8
0
100
AcDbLine
 10
100.088828
 20
184.1291
 30
0.0
 11
100.110328
 21
183.6521
 31
0.0
  0
LINE
  5
8ED
330
1D
100
AcDbEntity
  8
0
100
AcDbLine
 10
100.088828
 20
184.1291
 30
0.0
 11
100.103828
 21
184.5251
 31
0.0
  0
LINE
  5
8EE
330
1D
100
AcDbEntity
  8
0
100
AcDbLine
 10
100.088828
 20
184.1291
 30
0.0
 11
100.110128
 21
183.6521
 31
0.0
  0
LINE
  5
8EF
330
1D
100
AcDbEntity
  8
0
100
AcDbLine
 10
100.453728
 20
182.3921
 30
0.0
 11
100.660928
 21
182.0341
 31
0.0
  0
LINE
  5
8F0
330
1D
100
AcDbEntity
  8
0
100
AcDbLine
 10
100.453728
 20
182.3921
 30
0.0
 11
104.217628
 21
175.8218
 31
0.0
  0
LINE
  5
8F1
330
1D
100
AcDbEntity
  8
0
100
AcDbLine
 10
100.147328
 20
184.9261
 30
0.0
 11
100.316728
 21
185.7791
 31
0.0
  0
LINE
  5
8F2
330
1D
100
AcDbEntity
  8
0
100
AcDbLine
 10
100.316728
 20
185.7791
 30
0.0
 11
100.692128
 21
187.3371
 31
0.0
  0
LINE
  5
8F3
330
1D
100
AcDbEntity
  8
0
100
AcDbLine
 10
100.692128
 20
187.3371
 30
0.0
 11
100.918528
 21
187.8091
 31
0.0
  0
LINE
  5
8F4
330
1D
100
AcDbEntity
  8
0
100
AcDbLine
 10
100.918528
 20
187.8091
 30
0.0
 11
101.693528
 21
189.3871
 31
0.0
  0
LINE
  5
8F5
330
1D
100
AcDbEntity
  8
0
100
AcDbLine
 10
101.555928
 20
181.1631
 30
0.0
 11
102.232428
 21
180.8121
 31
0.0
  0
LINE
  5
8F6
330
1D
100
AcDbEntity
  8
0
100
AcDbLine
 10
101.212928
 20
181.4191
 30
0.0
 11
101.556128
 21
181.1631
 31
0.0
  0
LINE
  5
8F7
330
1D
100
AcDbEntity
  8
0
100
AcDbLine
 10
101.212928
 20
181.4191
 30
0.0
 11
101.555928
 21
181.1631
 31
0.0
  0
LINE
  5
8F8
330
1D
100
AcDbEntity
  8
0
100
AcDbLine
 10
101.556128
 20
181.1631
 30
0.0
 11
102.232128
 21
180.8121
 31
0.0
  0
LINE
  5
8F9
330
1D
100
AcDbEntity
  8
0
100
AcDbLine
 10
101.693528
 20
189.3871
 30
0.0
 11
102.603828
 21
190.8611
 31
0.0
  0
LINE
  5
8FA
330
1D
100
AcDbEntity
  8
0
100
AcDbLine
 10
102.232128
 20
180.8121
 30
0.0
 11
103.025428
 21
180.5641
 31
0.0
  0
LINE
  5
8FB
330
1D
100
AcDbEntity
  8
0
100
AcDbLine
 10
102.232428
 20
180.8121
 30
0.0
 11
103.025428
 21
180.5641
 31
0.0
  0
LINE
  5
8FC
330
1D
100
AcDbEntity
  8
0
100
AcDbLine
 10
102.603828
 20
190.8611
 30
0.0
 11
103.687228
 21
192.3711
 31
0.0
  0
LINE
  5
8FD
330
1D
100
AcDbEntity
  8
0
100
AcDbLine
 10
102.802228
 20
158.3011
 30
0.0
 11
104.021328
 21
159.8206
 31
0.0
  0
LINE
  5
8FE
330
1D
100
AcDbEntity
  8
0
100
AcDbLine
 10
102.802128
 20
158.301
 30
0.0
 11
104.021328
 21
159.8204
 31
0.0
  0
LINE
  5
8FF
330
1D
100
AcDbEntity
  8
0
100
AcDbLine
 10
102.767228
 20
159.3797
 30
0.0
 11
103.881428
 21
160.6668
 31
0.0
  0
LINE
  5
900
330
1D
100
AcDbEntity
  8
0
100
AcDbLine
 10
102.767428
 20
159.3795
 30
0.0
 11
103.881428
 21
160.6668
 31
0.0
  0
LINE
  5
901
330
1D
100
AcDbEntity
  8
0
100
AcDbLine
 10
76.083975
 20
158.1114
 30
0.0
 11
76.208116
 21
159.2797
 31
0.0
  0
LINE
  5
902
330
1D
100
AcDbEntity
  8
0
100
AcDbLine
 10
135.916528
 20
8.6119
 30
0.0
 11
136.748028
 21
9.8256
 31
0.0
  0
LINE
  5
903
330
1D
100
AcDbEntity
  8
0
100
AcDbLine
 10
135.467728
 20
7.2114
 30
0.0
 11
135.548028
 21
5.1054
 31
0.0
  0
LINE
  5
904
330
1D
100
AcDbEntity
  8
0
100
AcDbLine
 10
135.467728
 20
7.2114
 30
0.0
 11
141.285828
 21
62.5668
 31
0.0
  0
LINE
  5
905
330
1D
100
AcDbEntity
  8
0
100
AcDbLine
 10
135.467728
 20
7.2114
 30
0.0
 11
135.916528
 21
8.6119
 31
0.0
  0
LINE
  5
906
330
1D
100
AcDbEntity
  8
0
100
AcDbLine
 10
135.548028
 20
5.1054
 30
0.0
 11
136.116928
 21
3.8218
 31
0.0
  0
LINE
  5
907
330
1D
100
AcDbEntity
  8
0
100
AcDbLine
 10
136.748028
 20
9.8256
 30
0.0
 11
138.076428
 21
10.9851
 31
0.0
  0
LINE
  5
908
330
1D
100
AcDbEntity
  8
0
100
AcDbLine
 10
138.076428
 20
10.9851
 30
0.0
 11
139.783228
 21
11.9168
 31
0.0
  0
LINE
  5
909
330
1D
100
AcDbEntity
  8
0
100
AcDbLine
 10
136.116928
 20
3.8218
 30
0.0
 11
137.231728
 21
2.9482
 31
0.0
  0
LINE
  5
90A
330
1D
100
AcDbEntity
  8
0
100
AcDbLine
 10
137.231728
 20
2.9482
 30
0.0
 11
138.777128
 21
2.3442
 31
0.0
  0
LINE
  5
90B
330
1D
100
AcDbEntity
  8
0
100
AcDbLine
 10
138.777128
 20
2.3442
 30
0.0
 11
140.555728
 21
2.0466
 31
0.0
  0
LINE
  5
90C
330
1D
100
AcDbEntity
  8
0
100
AcDbLine
 10
138.714828
 20
62.9791
 30
0.0
 11
139.723028
 21
63.0047
 31
0.0
  0
LINE
  5
90D
330
1D
100
AcDbEntity
  8
0
100
AcDbLine
 10
138.302228
 20
62.8804
 30
0.0
 11
138.685228
 21
62.698
 31
0.0
  0
LINE
  5
90E
330
1D
100
AcDbEntity
  8
0
100
AcDbLine
 10
138.302228
 20
62.8804
 30
0.0
 11
140.407653683311
 21
92.337935860101
 31
0.0
  0
LINE
  5
90F
330
1D
100
AcDbEntity
  8
0
100
AcDbLine
 10
138.302228
 20
62.8804
 30
0.0
 11
138.714828
 21
62.9791
 31
0.0
  0
LINE
  5
910
330
1D
100
AcDbEntity
  8
0
100
AcDbLine
 10
138.685228
 20
62.698
 30
0.0
 11
139.666128
 21
62.4634
 31
0.0
  0
LINE
  5
911
330
1D
100
AcDbEntity
  8
0
100
AcDbLine
 10
146.136528
 20
1.5707
 30
0.0
 11
147.773728
 21
1.8402
 31
0.0
  0
LINE
  5
912
330
1D
100
AcDbEntity
  8
0
100
AcDbLine
 10
147.773728
 20
1.8402
 30
0.0
 11
149.045728
 21
2.4629
 31
0.0
  0
LINE
  5
913
330
1D
100
AcDbEntity
  8
0
100
AcDbLine
 10
144.334928
 20
1.6493
 30
0.0
 11
146.136528
 21
1.5707
 31
0.0
  0
LINE
  5
914
330
1D
100
AcDbEntity
  8
0
100
AcDbLine
 10
142.440528
 20
1.8029
 30
0.0
 11
144.334928
 21
1.6493
 31
0.0
  0
LINE
  5
915
330
1D
100
AcDbEntity
  8
0
100
AcDbLine
 10
139.723028
 20
63.0047
 30
0.0
 11
141.425728
 21
62.9415
 31
0.0
  0
LINE
  5
916
330
1D
100
AcDbEntity
  8
0
100
AcDbLine
 10
141.425728
 20
62.9415
 30
0.0
 11
143.623028
 21
62.8
 31
0.0
  0
LINE
  5
917
330
1D
100
AcDbEntity
  8
0
100
AcDbLine
 10
141.285828
 20
62.5668
 30
0.0
 11
141.594528
 21
62.6343
 31
0.0
  0
LINE
  5
918
330
1D
100
AcDbEntity
  8
0
100
AcDbLine
 10
141.594528
 20
62.6343
 30
0.0
 11
142.300528
 21
62.6549
 31
0.0
  0
LINE
  5
919
330
1D
100
AcDbEntity
  8
0
100
AcDbLine
 10
139.783228
 20
11.9168
 30
0.0
 11
141.651628
 21
12.4731
 31
0.0
  0
LINE
  5
91A
330
1D
100
AcDbEntity
  8
0
100
AcDbLine
 10
149.869128
 20
3.6002
 30
0.0
 11
150.385528
 21
5.6434
 31
0.0
  0
LINE
  5
91B
330
1D
100
AcDbEntity
  8
0
100
AcDbLine
 10
149.045728
 20
2.4629
 30
0.0
 11
149.869128
 21
3.6002
 31
0.0
  0
LINE
  5
91C
330
1D
100
AcDbEntity
  8
0
100
AcDbLine
 10
150.237728
 20
7.1067
 30
0.0
 11
150.385528
 21
5.6434
 31
0.0
  0
LINE
  5
91D
330
1D
100
AcDbEntity
  8
0
100
AcDbLine
 10
150.385528
 20
5.6434
 30
0.0
 11
156.203628
 21
60.9989
 31
0.0
  0
LINE
  5
91E
330
1D
100
AcDbEntity
  8
0
100
AcDbLine
 10
149.676728
 20
8.4668
 30
0.0
 11
150.237728
 21
7.1067
 31
0.0
  0
LINE
  5
91F
330
1D
100
AcDbEntity
  8
0
100
AcDbLine
 10
148.618428
 20
9.8771
 30
0.0
 11
149.676728
 21
8.4668
 31
0.0
  0
LINE
  5
920
330
1D
100
AcDbEntity
  8
0
100
AcDbLine
 10
147.142628
 20
11.1433
 30
0.0
 11
148.618428
 21
9.8771
 31
0.0
  0
LINE
  5
921
330
1D
100
AcDbEntity
  8
0
100
AcDbLine
 10
145.430728
 20
12.0759
 30
0.0
 11
147.142628
 21
11.1433
 31
0.0
  0
LINE
  5
922
330
1D
100
AcDbEntity
  8
0
100
AcDbLine
 10
150.673728
 20
61.959
 30
0.0
 11
152.460028
 21
61.7344
 31
0.0
  0
LINE
  5
923
330
1D
100
AcDbEntity
  8
0
100
AcDbLine
 10
148.785728
 20
62.1732
 30
0.0
 11
150.673728
 21
61.959
 31
0.0
  0
LINE
  5
924
330
1D
100
AcDbEntity
  8
0
100
AcDbLine
 10
143.566528
 20
12.5153
 30
0.0
 11
145.430728
 21
12.0759
 31
0.0
  0
LINE
  5
925
330
1D
100
AcDbEntity
  8
0
100
AcDbLine
 10
155.915628
 20
61.1291
 30
0.0
 11
156.203628
 21
60.9989
 31
0.0
  0
LINE
  5
926
330
1D
100
AcDbEntity
  8
0
100
AcDbLine
 10
155.229328
 20
61.296
 30
0.0
 11
155.915628
 21
61.1291
 31
0.0
  0
LINE
  5
927
330
1D
100
AcDbEntity
  8
0
100
AcDbLine
 10
154.044628
 20
61.5047
 30
0.0
 11
155.229328
 21
61.296
 31
0.0
  0
LINE
  5
928
330
1D
100
AcDbEntity
  8
0
100
AcDbLine
 10
156.144628
 20
61.3945
 30
0.0
 11
157.823328
 21
61.1023
 31
0.0
  0
LINE
  5
929
330
1D
100
AcDbEntity
  8
0
100
AcDbLine
 10
152.460028
 20
61.7344
 30
0.0
 11
154.044628
 21
61.5047
 31
0.0
  0
LINE
  5
92A
330
1D
100
AcDbEntity
  8
0
100
AcDbLine
 10
153.966028
 20
61.7129
 30
0.0
 11
156.144628
 21
61.3945
 31
0.0
  0
LINE
  5
92B
330
1D
100
AcDbEntity
  8
0
100
AcDbLine
 10
151.485128
 20
62.0263
 30
0.0
 11
153.966028
 21
61.7129
 31
0.0
  0
LINE
  5
92C
330
1D
100
AcDbEntity
  8
0
100
AcDbLine
 10
148.802128
 20
62.3294
 30
0.0
 11
151.485128
 21
62.0263
 31
0.0
  0
LINE
  5
92D
330
1D
100
AcDbEntity
  8
0
100
AcDbLine
 10
157.823328
 20
61.1023
 30
0.0
 11
158.804128
 21
60.8676
 31
0.0
  0
LINE
  5
92E
330
1D
100
AcDbEntity
  8
0
100
AcDbLine
 10
158.804128
 20
60.8676
 30
0.0
 11
159.187228
 21
60.6853
 31
0.0
  0
LINE
  5
92F
330
1D
100
AcDbEntity
  8
0
100
AcDbLine
 10
159.187228
 20
60.6853
 30
0.0
 11
163.313228
 21
90.3755
 31
0.0
  0
LINE
  5
930
330
1D
100
AcDbEntity
  8
0
100
AcDbLine
 10
158.774628
 20
60.5866
 30
0.0
 11
159.187228
 21
60.6853
 31
0.0
  0
LINE
  5
931
330
1D
100
AcDbEntity
  8
0
100
AcDbLine
 10
157.766428
 20
60.561
 30
0.0
 11
158.774628
 21
60.5866
 31
0.0
  0
LINE
  5
932
330
1D
100
AcDbEntity
  8
0
100
AcDbLine
 10
156.163854810362
 20
60.620483541191
 30
0.0
 11
157.766428
 21
60.561
 31
0.0
  0
LINE
  5
933
330
1D
100
AcDbEntity
  8
0
100
AcDbLine
 10
143.623028
 20
62.8
 30
0.0
 11
146.114728
 21
62.5908
 31
0.0
  0
LINE
  5
934
330
1D
100
AcDbEntity
  8
0
100
AcDbLine
 10
142.300528
 20
62.6549
 30
0.0
 11
143.502728
 21
62.6127
 31
0.0
  0
LINE
  5
935
330
1D
100
AcDbEntity
  8
0
100
AcDbLine
 10
143.502728
 20
62.6127
 30
0.0
 11
145.100528
 21
62.5079
 31
0.0
  0
LINE
  5
936
330
1D
100
AcDbEntity
  8
0
100
AcDbLine
 10
146.114728
 20
62.5908
 30
0.0
 11
148.802128
 21
62.3294
 31
0.0
  0
LINE
  5
937
330
1D
100
AcDbEntity
  8
0
100
AcDbLine
 10
145.100528
 20
62.5079
 30
0.0
 11
146.894528
 21
62.3562
 31
0.0
  0
LINE
  5
938
330
1D
100
AcDbEntity
  8
0
100
AcDbLine
 10
146.894528
 20
62.3562
 30
0.0
 11
148.785728
 21
62.1732
 31
0.0
  0
LINE
  5
939
330
1D
100
AcDbEntity
  8
0
100
AcDbLine
 10
141.651628
 20
12.4731
 30
0.0
 11
143.566528
 21
12.5153
 31
0.0
  0
LINE
  5
93A
330
1D
100
AcDbEntity
  8
0
100
AcDbLine
 10
140.555728
 20
2.0466
 30
0.0
 11
142.440528
 21
1.8029
 31
0.0
  0
LINE
  5
93B
330
1D
100
AcDbEntity
  8
0
100
AcDbLine
 10
139.666128
 20
62.4634
 30
0.0
 11
141.246054002777
 21
62.188376541158
 31
0.0
  0
LINE
  5
93E
330
1D
100
AcDbEntity
  8
0
100
AcDbLine
 10
159.976228
 20
91.1525
 30
0.0
 11
161.852628
 21
90.829
 31
0.0
  0
LINE
  5
93F
330
1D
100
AcDbEntity
  8
0
100
AcDbLine
 10
157.599728
 20
91.5023
 30
0.0
 11
159.976228
 21
91.1525
 31
0.0
  0
LINE
  5
940
330
1D
100
AcDbEntity
  8
0
100
AcDbLine
 10
159.257528
 20
91.6288
 30
0.0
 11
161.089228
 21
91.312
 31
0.0
  0
LINE
  5
941
330
1D
100
AcDbEntity
  8
0
100
AcDbLine
 10
161.089228
 20
91.312
 30
0.0
 11
162.501928
 21
91.0245
 31
0.0
  0
LINE
  5
942
330
1D
100
AcDbEntity
  8
0
100
AcDbLine
 10
161.089528
 20
91.3119
 30
0.0
 11
162.502328
 21
91.024
 31
0.0
  0
LINE
  5
943
330
1D
100
AcDbEntity
  8
0
100
AcDbLine
 10
161.852628
 20
90.829
 30
0.0
 11
162.931828
 21
90.5735
 31
0.0
  0
LINE
  5
944
330
1D
100
AcDbEntity
  8
0
100
AcDbLine
 10
162.501928
 20
91.0245
 30
0.0
 11
163.402528
 21
90.7803
 31
0.0
  0
LINE
  5
945
330
1D
100
AcDbEntity
  8
0
100
AcDbLine
 10
162.931828
 20
90.5735
 30
0.0
 11
163.313228
 21
90.3755
 31
0.0
  0
LINE
  5
946
330
1D
100
AcDbEntity
  8
0
100
AcDbLine
 10
162.502328
 20
91.024
 30
0.0
 11
163.402328
 21
90.7798
 31
0.0
  0
LINE
  5
947
330
1D
100
AcDbEntity
  8
0
100
AcDbLine
 10
139.820128
 20
92.4471
 30
0.0
 11
140.396119450923
 21
92.176557537938
 31
0.0
  0
LINE
  5
948
330
1D
100
AcDbEntity
  8
0
100
AcDbLine
 10
140.845302330967
 20
92.584413734565
 30
0.0
 11
141.326628
 21
92.6503
 31
0.0
  0
LINE
  5
949
330
1D
100
AcDbEntity
  8
0
100
AcDbLine
 10
139.761228
 20
92.6113
 30
0.0
 11
139.786628
 21
92.7232
 31
0.0
  0
LINE
  5
94A
330
1D
100
AcDbEntity
  8
0
100
AcDbLine
 10
139.786628
 20
92.7232
 30
0.0
 11
139.997628
 21
92.7823
 31
0.0
  0
LINE
  5
94B
330
1D
100
AcDbEntity
  8
0
100
AcDbLine
 10
139.794828
 20
92.6313
 30
0.0
 11
139.820128
 21
92.4471
 31
0.0
  0
LINE
  5
94C
330
1D
100
AcDbEntity
  8
0
100
AcDbLine
 10
140.488428
 20
92.8363
 30
0.0
 11
141.619728
 21
92.8813
 31
0.0
  0
LINE
  5
94D
330
1D
100
AcDbEntity
  8
0
100
AcDbLine
 10
139.997628
 20
92.7823
 30
0.0
 11
140.488428
 21
92.8363
 31
0.0
  0
LINE
  5
94E
330
1D
100
AcDbEntity
  8
0
100
AcDbLine
 10
141.326428
 20
92.6504
 30
0.0
 11
143.032328
 21
92.6877
 31
0.0
  0
LINE
  5
94F
330
1D
100
AcDbEntity
  8
0
100
AcDbLine
 10
141.326628
 20
92.6503
 30
0.0
 11
143.032328
 21
92.6877
 31
0.0
  0
LINE
  5
950
330
1D
100
AcDbEntity
  8
0
100
AcDbLine
 10
145.329728
 20
92.634
 30
0.0
 11
148.061428
 21
92.4928
 31
0.0
  0
LINE
  5
951
330
1D
100
AcDbEntity
  8
0
100
AcDbLine
 10
145.329428
 20
92.634
 30
0.0
 11
148.061428
 21
92.4928
 31
0.0
  0
LINE
  5
952
330
1D
100
AcDbEntity
  8
0
100
AcDbLine
 10
148.061428
 20
92.4928
 30
0.0
 11
150.653752048276
 21
92.302216079801
 31
0.0
  0
LINE
  5
953
330
1D
100
AcDbEntity
  8
0
100
AcDbLine
 10
154.920528
 20
91.8418
 30
0.0
 11
157.599728
 21
91.5023
 31
0.0
  0
LINE
  5
954
330
1D
100
AcDbEntity
  8
0
100
AcDbLine
 10
151.939228
 20
92.1762
 30
0.0
 11
154.920528
 21
91.8418
 31
0.0
  0
LINE
  5
955
330
1D
100
AcDbEntity
  8
0
100
AcDbLine
 10
157.094328
 20
91.9546
 30
0.0
 11
159.257528
 21
91.6288
 31
0.0
  0
LINE
  5
956
330
1D
100
AcDbEntity
  8
0
100
AcDbLine
 10
157.094228
 20
91.9545
 30
0.0
 11
159.257828
 21
91.6294
 31
0.0
  0
LINE
  5
957
330
1D
100
AcDbEntity
  8
0
100
AcDbLine
 10
150.653752048276
 20
92.302216079801
 30
0.0
 11
151.939228
 21
92.1762
 31
0.0
  0
LINE
  5
958
330
1D
100
AcDbEntity
  8
0
100
AcDbLine
 10
149.573128
 20
92.6853
 30
0.0
 11
152.116128
 21
92.5079
 31
0.0
  0
LINE
  5
959
330
1D
100
AcDbEntity
  8
0
100
AcDbLine
 10
152.116128
 20
92.5079
 30
0.0
 11
154.677728
 21
92.2591
 31
0.0
  0
LINE
  5
95A
330
1D
100
AcDbEntity
  8
0
100
AcDbLine
 10
149.572828
 20
92.6859
 30
0.0
 11
152.116228
 21
92.5085
 31
0.0
  0
LINE
  5
95B
330
1D
100
AcDbEntity
  8
0
100
AcDbLine
 10
152.116228
 20
92.5085
 30
0.0
 11
154.677728
 21
92.2591
 31
0.0
  0
LINE
  5
95C
330
1D
100
AcDbEntity
  8
0
100
AcDbLine
 10
154.677728
 20
92.2591
 30
0.0
 11
157.094228
 21
91.9545
 31
0.0
  0
LINE
  5
95D
330
1D
100
AcDbEntity
  8
0
100
AcDbLine
 10
154.677728
 20
92.2591
 30
0.0
 11
157.094328
 21
91.9546
 31
0.0
  0
LINE
  5
95E
330
1D
100
AcDbEntity
  8
0
100
AcDbLine
 10
144.862528
 20
92.8644
 30
0.0
 11
147.151328
 21
92.7991
 31
0.0
  0
LINE
  5
95F
330
1D
100
AcDbEntity
  8
0
100
AcDbLine
 10
147.151328
 20
92.7991
 30
0.0
 11
149.573128
 21
92.6853
 31
0.0
  0
LINE
  5
960
330
1D
100
AcDbEntity
  8
0
100
AcDbLine
 10
144.862728
 20
92.8645
 30
0.0
 11
147.151328
 21
92.799
 31
0.0
  0
LINE
  5
961
330
1D
100
AcDbEntity
  8
0
100
AcDbLine
 10
147.151328
 20
92.799
 30
0.0
 11
149.572828
 21
92.6859
 31
0.0
  0
LINE
  5
962
330
1D
100
AcDbEntity
  8
0
100
AcDbLine
 10
143.032328
 20
92.6877
 30
0.0
 11
145.329728
 21
92.634
 31
0.0
  0
LINE
  5
963
330
1D
100
AcDbEntity
  8
0
100
AcDbLine
 10
143.032328
 20
92.6877
 30
0.0
 11
145.329428
 21
92.634
 31
0.0
  0
LINE
  5
969
330
1D
100
AcDbEntity
  8
0
100
AcDbLine
 10
138.075628
 20
103.4068
 30
0.0
 11
139.074728
 21
97.93
 31
0.0
  0
LINE
  5
96A
330
1D
100
AcDbEntity
  8
0
100
AcDbLine
 10
139.074728
 20
97.93
 30
0.0
 11
139.761228
 21
92.6113
 31
0.0
  0
LINE
  5
96C
330
1D
100
AcDbEntity
  8
0
100
AcDbLine
 10
134.638428
 20
116.2754
 30
0.0
 11
135.763028
 21
112.6045
 31
0.0
  0
LINE
  5
970
330
1D
100
AcDbEntity
  8
0
100
AcDbLine
 10
141.619728
 20
92.8813
 30
0.0
 11
142.600728
 21
92.889
 31
0.0
  0
LINE
  5
971
330
1D
100
AcDbEntity
  8
0
100
AcDbLine
 10
142.600828
 20
92.8895
 30
0.0
 11
143.704928
 21
92.8828
 31
0.0
  0
LINE
  5
972
330
1D
100
AcDbEntity
  8
0
100
AcDbLine
 10
143.704928
 20
92.8828
 30
0.0
 11
144.862528
 21
92.8644
 31
0.0
  0
LINE
  5
973
330
1D
100
AcDbEntity
  8
0
100
AcDbLine
 10
159.257828
 20
91.6294
 30
0.0
 11
161.089528
 21
91.3119
 31
0.0
  0
LINE
  5
974
330
1D
100
AcDbEntity
  8
0
100
AcDbLine
 10
132.598228
 20
122.2455
 30
0.0
 11
134.638428
 21
116.2754
 31
0.0
  0
LINE
  5
975
330
1D
100
AcDbEntity
  8
0
100
AcDbLine
 10
205.166828
 20
77.7491
 30
0.0
 11
205.866828
 21
77.4491
 31
0.0
  0
LINE
  5
976
330
1D
100
AcDbEntity
  8
0
100
AcDbLine
 10
204.866828
 20
78.4491
 30
0.0
 11
204.866828
 21
196.4491
 31
0.0
  0
LINE
  5
977
330
1D
100
AcDbEntity
  8
0
100
AcDbLine
 10
204.866828
 20
78.4491
 30
0.0
 11
205.166828
 21
77.7491
 31
0.0
  0
LINE
  5
978
330
1D
100
AcDbEntity
  8
0
100
AcDbLine
 10
205.866828
 20
77.4491
 30
0.0
 11
225.866828
 21
77.4491
 31
0.0
  0
LINE
  5
979
330
1D
100
AcDbEntity
  8
0
100
AcDbLine
 10
225.866828
 20
77.4491
 30
0.0
 11
225.866828
 21
77.7491
 31
0.0
  0
LINE
  5
97A
330
1D
100
AcDbEntity
  8
0
100
AcDbLine
 10
225.866828
 20
77.7491
 30
0.0
 11
225.866828
 21
78.4491
 31
0.0
  0
LINE
  5
97B
330
1D
100
AcDbEntity
  8
0
100
AcDbLine
 10
225.866828
 20
77.7491
 30
0.0
 11
225.866828
 21
77.4491
 31
0.0
  0
LINE
  5
97D
330
1D
100
AcDbEntity
  8
0
100
AcDbLine
 10
225.866828
 20
78.4491
 30
0.0
 11
225.866828
 21
77.7491
 31
0.0
  0
LINE
  5
97E
330
1D
100
AcDbEntity
  8
0
100
AcDbLine
 10
163.465328
 20
90.303
 30
0.0
 11
163.708828
 21
90.4656
 31
0.0
  0
LINE
  5
97F
330
1D
100
AcDbEntity
  8
0
100
AcDbLine
 10
163.290528
 20
90.1988
 30
0.0
 11
163.465228
 21
90.303
 31
0.0
  0
LINE
  5
980
330
1D
100
AcDbEntity
  8
0
100
AcDbLine
 10
163.290528
 20
90.1988
 30
0.0
 11
163.465328
 21
90.303
 31
0.0
  0
LINE
  5
981
330
1D
100
AcDbEntity
  8
0
100
AcDbLine
 10
163.644428
 20
90.6753
 30
0.0
 11
163.708828
 21
90.4656
 31
0.0
  0
LINE
  5
982
330
1D
100
AcDbEntity
  8
0
100
AcDbLine
 10
163.402528
 20
90.7803
 30
0.0
 11
163.644428
 21
90.6753
 31
0.0
  0
LINE
  5
983
330
1D
100
AcDbEntity
  8
0
100
AcDbLine
 10
163.402328
 20
90.7798
 30
0.0
 11
163.644128
 21
90.6756
 31
0.0
  0
LINE
  5
984
330
1D
100
AcDbEntity
  8
0
100
AcDbLine
 10
165.735628
 20
98.2578
 30
0.0
 11
166.602028
 21
102.1998
 31
0.0
  0
LINE
  5
985
330
1D
100
AcDbEntity
  8
0
100
AcDbLine
 10
166.726628
 20
102.7837
 30
0.0
 11
167.457328
 21
105.4171
 31
0.0
  0
LINE
  5
986
330
1D
100
AcDbEntity
  8
0
100
AcDbLine
 10
167.457328
 20
105.4171
 30
0.0
 11
168.559628
 21
107.6424
 31
0.0
  0
LINE
  5
987
330
1D
100
AcDbEntity
  8
0
100
AcDbLine
 10
169.943328
 20
109.2838
 30
0.0
 11
171.780328
 21
110.6261
 31
0.0
  0
LINE
  5
988
330
1D
100
AcDbEntity
  8
0
100
AcDbLine
 10
168.888383820839
 20
108.039326606098
 30
0.0
 11
169.943328
 21
109.2838
 31
0.0
  0
LINE
  5
989
330
1D
100
AcDbEntity
  8
0
100
AcDbLine
 10
173.973728
 20
111.6512
 30
0.0
 11
176.308828
 21
112.2874
 31
0.0
  0
LINE
  5
98A
330
1D
100
AcDbEntity
  8
0
100
AcDbLine
 10
171.780328
 20
110.6261
 30
0.0
 11
173.973728
 21
111.6512
 31
0.0
  0
LINE
  5
98B
330
1D
100
AcDbEntity
  8
0
100
AcDbLine
 10
178.857828
 20
112.6987
 30
0.0
 11
182.036828
 21
112.9123
 31
0.0
  0
LINE
  5
98C
330
1D
100
AcDbEntity
  8
0
100
AcDbLine
 10
166.602028
 20
102.1998
 30
0.0
 11
166.726928
 21
102.7834
 31
0.0
  0
LINE
  5
98D
330
1D
100
AcDbEntity
  8
0
100
AcDbLine
 10
185.060668216679
 20
113.003807119688
 30
0.0
 11
186.980828
 21
112.9491
 31
0.0
  0
LINE
  5
98E
330
1D
100
AcDbEntity
  8
0
100
AcDbLine
 10
186.980828
 20
112.9491
 30
0.0
 11
204.866828
 21
112.9491
 31
0.0
  0
LINE
  5
98F
330
1D
100
AcDbEntity
  8
0
100
AcDbLine
 10
182.036828
 20
112.9123
 30
0.0
 11
183.475828
 21
113.039
 31
0.0
  0
LINE
  5
990
330
1D
100
AcDbEntity
  8
0
100
AcDbLine
 10
163.693220464625
 20
90.516421431182
 30
0.0
 11
165.735628
 21
98.2578
 31
0.0
  0
LINE
  5
9A2
330
1D
100
AcDbEntity
  8
0
100
AcDbLine
 10
103.025428
 20
180.5641
 30
0.0
 11
103.928228
 21
180.4171
 31
0.0
  0
LINE
  5
9A3
330
1D
100
AcDbEntity
  8
0
100
AcDbLine
 10
103.025428
 20
180.5641
 30
0.0
 11
103.928028
 21
180.4171
 31
0.0
  0
LINE
  5
9A4
330
1D
100
AcDbEntity
  8
0
100
AcDbLine
 10
104.021328
 20
159.8206
 30
0.0
 11
105.345928
 21
161.2067
 31
0.0
  0
LINE
  5
9A5
330
1D
100
AcDbEntity
  8
0
100
AcDbLine
 10
104.217628
 20
175.8218
 30
0.0
 11
113.253028
 21
160.1419
 31
0.0
  0
LINE
  5
9A6
330
1D
100
AcDbEntity
  8
0
100
AcDbLine
 10
104.021328
 20
159.8204
 30
0.0
 11
105.345728
 21
161.2067
 31
0.0
  0
LINE
  5
9A7
330
1D
100
AcDbEntity
  8
0
100
AcDbLine
 10
103.928028
 20
180.4171
 30
0.0
 11
104.417628
 21
180.3811
 31
0.0
  0
LINE
  5
9A8
330
1D
100
AcDbEntity
  8
0
100
AcDbLine
 10
103.928228
 20
180.4171
 30
0.0
 11
104.417628
 21
180.3811
 31
0.0
  0
LINE
  5
9A9
330
1D
100
AcDbEntity
  8
0
100
AcDbLine
 10
104.417628
 20
180.3811
 30
0.0
 11
104.936828
 21
180.3691
 31
0.0
  0
LINE
  5
9AA
330
1D
100
AcDbEntity
  8
0
100
AcDbLine
 10
104.417628
 20
180.3811
 30
0.0
 11
104.936628
 21
180.3691
 31
0.0
  0
LINE
  5
9AB
330
1D
100
AcDbEntity
  8
0
100
AcDbLine
 10
103.881428
 20
160.6668
 30
0.0
 11
105.070728
 21
161.8505
 31
0.0
  0
LINE
  5
9AC
330
1D
100
AcDbEntity
  8
0
100
AcDbLine
 10
103.881428
 20
160.6668
 30
0.0
 11
105.070828
 21
161.8504
 31
0.0
  0
LINE
  5
9AD
330
1D
100
AcDbEntity
  8
0
100
AcDbLine
 10
103.687228
 20
192.3711
 30
0.0
 11
105.034528
 21
193.9311
 31
0.0
  0
LINE
  5
9AE
330
1D
100
AcDbEntity
  8
0
100
AcDbLine
 10
104.936628
 20
180.3691
 30
0.0
 11
106.112928
 21
180.4261
 31
0.0
  0
LINE
  5
9AF
330
1D
100
AcDbEntity
  8
0
100
AcDbLine
 10
104.936828
 20
180.3691
 30
0.0
 11
106.112928
 21
180.4261
 31
0.0
  0
LINE
  5
9B0
330
1D
100
AcDbEntity
  8
0
100
AcDbLine
 10
105.345728
 20
161.2067
 30
0.0
 11
107.746328
 21
163.1891
 31
0.0
  0
LINE
  5
9B1
330
1D
100
AcDbEntity
  8
0
100
AcDbLine
 10
105.105328
 20
171.2506
 30
0.0
 11
107.376014312943
 21
170.340782939515
 31
0.0
  0
LINE
  5
9B2
330
1D
100
AcDbEntity
  8
0
100
AcDbLine
 10
105.070828
 20
161.8504
 30
0.0
 11
106.326228
 21
162.9215
 31
0.0
  0
LINE
  5
9B3
330
1D
100
AcDbEntity
  8
0
100
AcDbLine
 10
106.326228
 20
162.9215
 30
0.0
 11
107.638328
 21
163.8721
 31
0.0
  0
LINE
  5
9B4
330
1D
100
AcDbEntity
  8
0
100
AcDbLine
 10
106.326028
 20
162.9217
 30
0.0
 11
107.638228
 21
163.8724
 31
0.0
  0
LINE
  5
9B5
330
1D
100
AcDbEntity
  8
0
100
AcDbLine
 10
106.112928
 20
180.4261
 30
0.0
 11
107.313028
 21
180.5921
 31
0.0
  0
LINE
  5
9B6
330
1D
100
AcDbEntity
  8
0
100
AcDbLine
 10
106.112928
 20
180.4261
 30
0.0
 11
107.313128
 21
180.5921
 31
0.0
  0
LINE
  5
9B7
330
1D
100
AcDbEntity
  8
0
100
AcDbLine
 10
105.345928
 20
161.2067
 30
0.0
 11
107.746428
 21
163.1893
 31
0.0
  0
LINE
  5
9B8
330
1D
100
AcDbEntity
  8
0
100
AcDbLine
 10
105.034528
 20
193.9311
 30
0.0
 11
106.536128
 21
195.6031
 31
0.0
  0
LINE
  5
9B9
330
1D
100
AcDbEntity
  8
0
100
AcDbLine
 10
107.746328
 20
163.1891
 30
0.0
 11
109.019428
 21
164.0153
 31
0.0
  0
LINE
  5
9BA
330
1D
100
AcDbEntity
  8
0
100
AcDbLine
 10
107.638328
 20
163.8721
 30
0.0
 11
108.538528
 21
164.435
 31
0.0
  0
LINE
  5
9BB
330
1D
100
AcDbEntity
  8
0
100
AcDbLine
 10
107.746428
 20
163.1893
 30
0.0
 11
109.019828
 21
164.0151
 31
0.0
  0
LINE
  5
9BC
330
1D
100
AcDbEntity
  8
0
100
AcDbLine
 10
106.535928
 20
195.6031
 30
0.0
 11
108.204628
 21
197.2961
 31
0.0
  0
LINE
  5
9BD
330
1D
100
AcDbEntity
  8
0
100
AcDbLine
 10
107.313128
 20
180.5921
 30
0.0
 11
107.933928
 21
180.7181
 31
0.0
  0
LINE
  5
9BE
330
1D
100
AcDbEntity
  8
0
100
AcDbLine
 10
107.313028
 20
180.5921
 30
0.0
 11
107.933528
 21
180.7181
 31
0.0
  0
LINE
  5
9BF
330
1D
100
AcDbEntity
  8
0
100
AcDbLine
 10
106.536128
 20
195.6031
 30
0.0
 11
108.204628
 21
197.2961
 31
0.0
  0
LINE
  5
9C0
330
1D
100
AcDbEntity
  8
0
100
AcDbLine
 10
107.638228
 20
163.8724
 30
0.0
 11
108.538628
 21
164.4348
 31
0.0
  0
LINE
  5
9C1
330
1D
100
AcDbEntity
  8
0
100
AcDbLine
 10
109.019828
 20
164.0151
 30
0.0
 11
110.329528
 21
164.7253
 31
0.0
  0
LINE
  5
9C2
330
1D
100
AcDbEntity
  8
0
100
AcDbLine
 10
109.019428
 20
164.0153
 30
0.0
 11
110.329728
 21
164.7253
 31
0.0
  0
LINE
  5
9C3
330
1D
100
AcDbEntity
  8
0
100
AcDbLine
 10
108.538528
 20
164.435
 30
0.0
 11
109.456628
 21
164.94
 31
0.0
  0
LINE
  5
9C4
330
1D
100
AcDbEntity
  8
0
100
AcDbLine
 10
109.456628
 20
164.94
 30
0.0
 11
110.266050918592
 21
165.325456006239
 31
0.0
  0
LINE
  5
9C5
330
1D
100
AcDbEntity
  8
0
100
AcDbLine
 10
108.566828
 20
180.8721
 30
0.0
 11
109.211428
 21
181.0551
 31
0.0
  0
LINE
  5
9C6
330
1D
100
AcDbEntity
  8
0
100
AcDbLine
 10
109.456728
 20
164.9396
 30
0.0
 11
110.266193557878
 21
165.325208472123
 31
0.0
  0
LINE
  5
9C7
330
1D
100
AcDbEntity
  8
0
100
AcDbLine
 10
108.538628
 20
164.4348
 30
0.0
 11
109.456728
 21
164.9396
 31
0.0
  0
LINE
  5
9C9
330
1D
100
AcDbEntity
  8
0
100
AcDbLine
 10
110.329728
 20
164.7253
 30
0.0
 11
110.554906922661
 21
164.824179553818
 31
0.0
  0
LINE
  5
9CA
330
1D
100
AcDbEntity
  8
0
100
AcDbLine
 10
110.329528
 20
164.7253
 30
0.0
 11
110.554868991168
 21
164.824245379571
 31
0.0
  0
LINE
  5
9CB
330
1D
100
AcDbEntity
  8
0
100
AcDbLine
 10
109.866228
 20
181.2661
 30
0.0
 11
110.614228
 21
181.5371
 31
0.0
  0
LINE
  5
9CC
330
1D
100
AcDbEntity
  8
0
100
AcDbLine
 10
109.211428
 20
181.0551
 30
0.0
 11
109.866228
 21
181.2661
 31
0.0
  0
LINE
  5
9CD
330
1D
100
AcDbEntity
  8
0
100
AcDbLine
 10
110.614228
 20
181.5371
 30
0.0
 11
111.371228
 21
181.8431
 31
0.0
  0
LINE
  5
9CE
330
1D
100
AcDbEntity
  8
0
100
AcDbLine
 10
110.614228
 20
181.5371
 30
0.0
 11
111.371428
 21
181.8431
 31
0.0
  0
LINE
  5
9D0
330
1D
100
AcDbEntity
  8
0
100
AcDbLine
 10
111.371428
 20
181.8431
 30
0.0
 11
112.135628
 21
182.1821
 31
0.0
  0
LINE
  5
9D1
330
1D
100
AcDbEntity
  8
0
100
AcDbLine
 10
112.904528
 20
182.5551
 30
0.0
 11
113.675928
 21
182.9581
 31
0.0
  0
LINE
  5
9D2
330
1D
100
AcDbEntity
  8
0
100
AcDbLine
 10
112.135628
 20
182.1821
 30
0.0
 11
112.904728
 21
182.5551
 31
0.0
  0
LINE
  5
9D3
330
1D
100
AcDbEntity
  8
0
100
AcDbLine
 10
112.135628
 20
182.1821
 30
0.0
 11
112.904528
 21
182.5551
 31
0.0
  0
LINE
  5
9D4
330
1D
100
AcDbEntity
  8
0
100
AcDbLine
 10
113.253028
 20
160.1419
 30
0.0
 11
119.965428
 21
148.7627
 31
0.0
  0
LINE
  5
9D5
330
1D
100
AcDbEntity
  8
0
100
AcDbLine
 10
111.371228
 20
181.8431
 30
0.0
 11
112.135628
 21
182.1821
 31
0.0
  0
LINE
  5
9D6
330
1D
100
AcDbEntity
  8
0
100
AcDbLine
 10
113.675928
 20
182.9581
 30
0.0
 11
114.447628
 21
183.3921
 31
0.0
  0
LINE
  5
9D7
330
1D
100
AcDbEntity
  8
0
100
AcDbLine
 10
113.675728
 20
182.9591
 30
0.0
 11
114.447628
 21
183.3931
 31
0.0
  0
LINE
  5
9D8
330
1D
100
AcDbEntity
  8
0
100
AcDbLine
 10
112.904728
 20
182.5551
 30
0.0
 11
113.675728
 21
182.9591
 31
0.0
  0
LINE
  5
9D9
330
1D
100
AcDbEntity
  8
0
100
AcDbLine
 10
108.204628
 20
197.2961
 30
0.0
 11
109.203628
 21
198.2451
 31
0.0
  0
LINE
  5
9DA
330
1D
100
AcDbEntity
  8
0
100
AcDbLine
 10
112.140528
 20
200.8121
 30
0.0
 11
114.101428
 21
202.3701
 31
0.0
  0
LINE
  5
9DB
330
1D
100
AcDbEntity
  8
0
100
AcDbLine
 10
110.220128
 20
199.1691
 30
0.0
 11
112.140528
 21
200.8121
 31
0.0
  0
LINE
  5
9DC
330
1D
100
AcDbEntity
  8
0
100
AcDbLine
 10
114.101428
 20
202.3701
 30
0.0
 11
116.054228
 21
203.8151
 31
0.0
  0
LINE
  5
9DD
330
1D
100
AcDbEntity
  8
0
100
AcDbLine
 10
114.101428
 20
202.3701
 30
0.0
 11
116.054428
 21
203.8151
 31
0.0
  0
LINE
  5
9DE
330
1D
100
AcDbEntity
  8
0
100
AcDbLine
 10
109.203628
 20
198.2451
 30
0.0
 11
110.219928
 21
199.1681
 31
0.0
  0
LINE
  5
9DF
330
1D
100
AcDbEntity
  8
0
100
AcDbLine
 10
109.203628
 20
198.2451
 30
0.0
 11
110.220128
 21
199.1691
 31
0.0
  0
LINE
  5
9E0
330
1D
100
AcDbEntity
  8
0
100
AcDbLine
 10
130.145328
 20
128.5482
 30
0.0
 11
132.598228
 21
122.2455
 31
0.0
  0
LINE
  5
9E1
330
1D
100
AcDbEntity
  8
0
100
AcDbLine
 10
128.016528
 20
133.4743
 30
0.0
 11
130.145328
 21
128.5482
 31
0.0
  0
LINE
  5
9E2
330
1D
100
AcDbEntity
  8
0
100
AcDbLine
 10
126.808428
 20
136.239
 30
0.0
 11
128.016528
 21
133.4743
 31
0.0
  0
LINE
  5
9E3
330
1D
100
AcDbEntity
  8
0
100
AcDbLine
 10
125.207728
 20
139.4729
 30
0.0
 11
126.808428
 21
136.239
 31
0.0
  0
LINE
  5
9E4
330
1D
100
AcDbEntity
  8
0
100
AcDbLine
 10
125.996928
 20
145.5628
 30
0.0
 11
128.149928
 21
145.7299
 31
0.0
  0
LINE
  5
9E5
330
1D
100
AcDbEntity
  8
0
100
AcDbLine
 10
114.447628
 20
183.3921
 30
0.0
 11
115.216928
 21
183.8551
 31
0.0
  0
LINE
  5
9E6
330
1D
100
AcDbEntity
  8
0
100
AcDbLine
 10
114.447628
 20
183.3931
 30
0.0
 11
115.216928
 21
183.8551
 31
0.0
  0
LINE
  5
9E7
330
1D
100
AcDbEntity
  8
0
100
AcDbLine
 10
115.216928
 20
183.8551
 30
0.0
 11
115.982228
 21
184.3441
 31
0.0
  0
LINE
  5
9E8
330
1D
100
AcDbEntity
  8
0
100
AcDbLine
 10
119.965428
 20
148.7624
 30
0.0
 11
120.424528
 21
148.1114
 31
0.0
  0
LINE
  5
9E9
330
1D
100
AcDbEntity
  8
0
100
AcDbLine
 10
119.965428
 20
148.7627
 30
0.0
 11
120.424128
 21
148.1112
 31
0.0
  0
LINE
  5
9EA
330
1D
100
AcDbEntity
  8
0
100
AcDbLine
 10
115.982228
 20
184.3441
 30
0.0
 11
116.946928
 21
185.0031
 31
0.0
  0
LINE
  5
9EB
330
1D
100
AcDbEntity
  8
0
100
AcDbLine
 10
120.566528
 20
147.8686
 30
0.0
 11
121.406528
 21
146.9239
 31
0.0
  0
LINE
  5
9EC
330
1D
100
AcDbEntity
  8
0
100
AcDbLine
 10
120.566528
 20
147.8686
 30
0.0
 11
125.207728
 21
139.4729
 31
0.0
  0
LINE
  5
9ED
330
1D
100
AcDbEntity
  8
0
100
AcDbLine
 10
120.470063339925
 20
148.06683523464
 30
0.0
 11
120.566728
 21
147.8692
 31
0.0
  0
LINE
  5
9EE
330
1D
100
AcDbEntity
  8
0
100
AcDbLine
 10
120.469049438534
 20
148.067814469742
 30
0.0
 11
120.566528
 21
147.8686
 31
0.0
  0
LINE
  5
9EF
330
1D
100
AcDbEntity
  8
0
100
AcDbLine
 10
120.424528
 20
148.1114
 30
0.0
 11
121.003228
 21
147.5519
 31
0.0
  0
LINE
  5
9F0
330
1D
100
AcDbEntity
  8
0
100
AcDbLine
 10
120.424128
 20
148.1112
 30
0.0
 11
121.003228
 21
147.5519
 31
0.0
  0
LINE
  5
9F1
330
1D
100
AcDbEntity
  8
0
100
AcDbLine
 10
116.054428
 20
203.8151
 30
0.0
 11
118.012128
 21
205.1621
 31
0.0
  0
LINE
  5
9F2
330
1D
100
AcDbEntity
  8
0
100
AcDbLine
 10
117.896328
 20
185.7001
 30
0.0
 11
118.826428
 21
186.4301
 31
0.0
  0
LINE
  5
9F3
330
1D
100
AcDbEntity
  8
0
100
AcDbLine
 10
116.946928
 20
185.0031
 30
0.0
 11
117.896028
 21
185.7001
 31
0.0
  0
LINE
  5
9F4
330
1D
100
AcDbEntity
  8
0
100
AcDbLine
 10
116.946928
 20
185.0031
 30
0.0
 11
117.896328
 21
185.7001
 31
0.0
  0
LINE
  5
9F5
330
1D
100
AcDbEntity
  8
0
100
AcDbLine
 10
117.896028
 20
185.7001
 30
0.0
 11
118.826428
 21
186.4301
 31
0.0
  0
LINE
  5
9F6
330
1D
100
AcDbEntity
  8
0
100
AcDbLine
 10
118.826428
 20
186.4301
 30
0.0
 11
119.733428
 21
187.1891
 31
0.0
  0
LINE
  5
9F7
330
1D
100
AcDbEntity
  8
0
100
AcDbLine
 10
119.733428
 20
187.1891
 30
0.0
 11
120.554628
 21
187.9201
 31
0.0
  0
LINE
  5
9F8
330
1D
100
AcDbEntity
  8
0
100
AcDbLine
 10
119.733428
 20
187.1891
 30
0.0
 11
120.554828
 21
187.9211
 31
0.0
  0
LINE
  5
9F9
330
1D
100
AcDbEntity
  8
0
100
AcDbLine
 10
120.554828
 20
187.9211
 30
0.0
 11
121.350328
 21
188.6711
 31
0.0
  0
LINE
  5
9FA
330
1D
100
AcDbEntity
  8
0
100
AcDbLine
 10
121.406528
 20
146.9239
 30
0.0
 11
122.364228
 21
146.3005
 31
0.0
  0
LINE
  5
9FB
330
1D
100
AcDbEntity
  8
0
100
AcDbLine
 10
121.350328
 20
188.6711
 30
0.0
 11
122.127528
 21
189.4491
 31
0.0
  0
LINE
  5
9FC
330
1D
100
AcDbEntity
  8
0
100
AcDbLine
 10
121.003228
 20
147.5519
 30
0.0
 11
121.697928
 21
147.0888
 31
0.0
  0
LINE
  5
9FD
330
1D
100
AcDbEntity
  8
0
100
AcDbLine
 10
123.827528
 20
145.7877
 30
0.0
 11
125.997128
 21
145.5628
 31
0.0
  0
LINE
  5
9FE
330
1D
100
AcDbEntity
  8
0
100
AcDbLine
 10
122.364428
 20
146.3008
 30
0.0
 11
123.827528
 21
145.7877
 31
0.0
  0
LINE
  5
9FF
330
1D
100
AcDbEntity
  8
0
100
AcDbLine
 10
122.364228
 20
146.3005
 30
0.0
 11
123.827328
 21
145.7877
 31
0.0
  0
LINE
  5
A00
330
1D
100
AcDbEntity
  8
0
100
AcDbLine
 10
123.827328
 20
145.7877
 30
0.0
 11
125.997128
 21
145.5628
 31
0.0
  0
LINE
  5
A01
330
1D
100
AcDbEntity
  8
0
100
AcDbLine
 10
125.518128
 20
146.2535
 30
0.0
 11
126.501528
 21
146.2905
 31
0.0
  0
LINE
  5
A02
330
1D
100
AcDbEntity
  8
0
100
AcDbLine
 10
126.501528
 20
146.2905
 30
0.0
 11
127.254528
 21
146.364
 31
0.0
  0
LINE
  5
A03
330
1D
100
AcDbEntity
  8
0
100
AcDbLine
 10
124.420128
 20
146.3063
 30
0.0
 11
125.518128
 21
146.2535
 31
0.0
  0
LINE
  5
A04
330
1D
100
AcDbEntity
  8
0
100
AcDbLine
 10
126.501528
 20
146.2903
 30
0.0
 11
127.254628
 21
146.3642
 31
0.0
  0
LINE
  5
A05
330
1D
100
AcDbEntity
  8
0
100
AcDbLine
 10
125.518228
 20
146.2533
 30
0.0
 11
126.501528
 21
146.2903
 31
0.0
  0
LINE
  5
A06
330
1D
100
AcDbEntity
  8
0
100
AcDbLine
 10
124.420028
 20
146.306
 30
0.0
 11
125.518228
 21
146.2533
 31
0.0
  0
LINE
  5
A07
330
1D
100
AcDbEntity
  8
0
100
AcDbLine
 10
121.697928
 20
147.0888
 30
0.0
 11
122.502728
 21
146.7248
 31
0.0
  0
LINE
  5
A08
330
1D
100
AcDbEntity
  8
0
100
AcDbLine
 10
121.697928
 20
147.0888
 30
0.0
 11
122.502828
 21
146.7253
 31
0.0
  0
LINE
  5
A09
330
1D
100
AcDbEntity
  8
0
100
AcDbLine
 10
122.502828
 20
146.7253
 30
0.0
 11
123.412228
 21
146.4636
 31
0.0
  0
LINE
  5
A0A
330
1D
100
AcDbEntity
  8
0
100
AcDbLine
 10
123.412228
 20
146.4636
 30
0.0
 11
124.420128
 21
146.3063
 31
0.0
  0
LINE
  5
A0B
330
1D
100
AcDbEntity
  8
0
100
AcDbLine
 10
122.502728
 20
146.7248
 30
0.0
 11
123.412428
 21
146.4634
 31
0.0
  0
LINE
  5
A0C
330
1D
100
AcDbEntity
  8
0
100
AcDbLine
 10
123.412428
 20
146.4634
 30
0.0
 11
124.420028
 21
146.306
 31
0.0
  0
LINE
  5
A0D
330
1D
100
AcDbEntity
  8
0
100
AcDbLine
 10
122.127528
 20
189.4491
 30
0.0
 11
122.873628
 21
190.2391
 31
0.0
  0
LINE
  5
A0E
330
1D
100
AcDbEntity
  8
0
100
AcDbLine
 10
122.127728
 20
189.4481
 30
0.0
 11
122.873728
 21
190.2401
 31
0.0
  0
LINE
  5
A0F
330
1D
100
AcDbEntity
  8
0
100
AcDbLine
 10
122.873628
 20
190.2391
 30
0.0
 11
123.582528
 21
191.0361
 31
0.0
  0
LINE
  5
A10
330
1D
100
AcDbEntity
  8
0
100
AcDbLine
 10
122.873728
 20
190.2401
 30
0.0
 11
123.582528
 21
191.0361
 31
0.0
  0
LINE
  5
A11
330
1D
100
AcDbEntity
  8
0
100
AcDbLine
 10
124.257628
 20
191.8401
 30
0.0
 11
124.897728
 21
192.6501
 31
0.0
  0
LINE
  5
A12
330
1D
100
AcDbEntity
  8
0
100
AcDbLine
 10
124.257628
 20
191.8401
 30
0.0
 11
124.898028
 21
192.6501
 31
0.0
  0
LINE
  5
A13
330
1D
100
AcDbEntity
  8
0
100
AcDbLine
 10
124.898028
 20
192.6501
 30
0.0
 11
125.502728
 21
193.4621
 31
0.0
  0
LINE
  5
A14
330
1D
100
AcDbEntity
  8
0
100
AcDbLine
 10
125.502728
 20
193.4621
 30
0.0
 11
126.306828
 21
194.6261
 31
0.0
  0
LINE
  5
A15
330
1D
100
AcDbEntity
  8
0
100
AcDbLine
 10
124.897728
 20
192.6501
 30
0.0
 11
125.502828
 21
193.4621
 31
0.0
  0
LINE
  5
A16
330
1D
100
AcDbEntity
  8
0
100
AcDbLine
 10
125.502828
 20
193.4621
 30
0.0
 11
126.306828
 21
194.6261
 31
0.0
  0
LINE
  5
A17
330
1D
100
AcDbEntity
  8
0
100
AcDbLine
 10
126.306828
 20
194.6261
 30
0.0
 11
127.036828
 21
195.7861
 31
0.0
  0
LINE
  5
A18
330
1D
100
AcDbEntity
  8
0
100
AcDbLine
 10
126.306828
 20
194.6261
 30
0.0
 11
127.036528
 21
195.7861
 31
0.0
  0
LINE
  5
A19
330
1D
100
AcDbEntity
  8
0
100
AcDbLine
 10
127.036528
 20
195.7861
 30
0.0
 11
127.753228
 21
197.0481
 31
0.0
  0
LINE
  5
A1A
330
1D
100
AcDbEntity
  8
0
100
AcDbLine
 10
127.036828
 20
195.7861
 30
0.0
 11
127.753328
 21
197.0481
 31
0.0
  0
LINE
  5
A1B
330
1D
100
AcDbEntity
  8
0
100
AcDbLine
 10
118.012128
 20
205.1621
 30
0.0
 11
119.969628
 21
206.4071
 31
0.0
  0
LINE
  5
A1C
330
1D
100
AcDbEntity
  8
0
100
AcDbLine
 10
119.969628
 20
206.4071
 30
0.0
 11
120.952128
 21
206.9901
 31
0.0
  0
LINE
  5
A1D
330
1D
100
AcDbEntity
  8
0
100
AcDbLine
 10
120.952128
 20
206.9901
 30
0.0
 11
121.935228
 21
207.5421
 31
0.0
  0
LINE
  5
A1E
330
1D
100
AcDbEntity
  8
0
100
AcDbLine
 10
121.935228
 20
207.5421
 30
0.0
 11
123.356528
 21
208.2721
 31
0.0
  0
LINE
  5
A1F
330
1D
100
AcDbEntity
  8
0
100
AcDbLine
 10
124.545128
 20
208.8031
 30
0.0
 11
125.252828
 21
209.0721
 31
0.0
  0
LINE
  5
A20
330
1D
100
AcDbEntity
  8
0
100
AcDbLine
 10
125.846928
 20
209.2581
 30
0.0
 11
126.422828
 21
209.3881
 31
0.0
  0
LINE
  5
A21
330
1D
100
AcDbEntity
  8
0
100
AcDbLine
 10
125.847228
 20
209.2581
 30
0.0
 11
126.422828
 21
209.3881
 31
0.0
  0
LINE
  5
A22
330
1D
100
AcDbEntity
  8
0
100
AcDbLine
 10
125.252828
 20
209.0721
 30
0.0
 11
125.847228
 21
209.2581
 31
0.0
  0
LINE
  5
A23
330
1D
100
AcDbEntity
  8
0
100
AcDbLine
 10
125.252828
 20
209.0721
 30
0.0
 11
125.846928
 21
209.2581
 31
0.0
  0
LINE
  5
A24
330
1D
100
AcDbEntity
  8
0
100
AcDbLine
 10
126.422828
 20
209.3881
 30
0.0
 11
127.315928
 21
209.5771
 31
0.0
  0
LINE
  5
A25
330
1D
100
AcDbEntity
  8
0
100
AcDbLine
 10
123.356528
 20
208.2721
 30
0.0
 11
124.545128
 21
208.8041
 31
0.0
  0
LINE
  5
A26
330
1D
100
AcDbEntity
  8
0
100
AcDbLine
 10
121.935528
 20
207.5421
 30
0.0
 11
123.356528
 21
208.2721
 31
0.0
  0
LINE
  5
A27
330
1D
100
AcDbEntity
  8
0
100
AcDbLine
 10
118.012128
 20
205.1631
 30
0.0
 11
119.969828
 21
206.4081
 31
0.0
  0
LINE
  5
A28
330
1D
100
AcDbEntity
  8
0
100
AcDbLine
 10
116.054228
 20
203.8151
 30
0.0
 11
118.012128
 21
205.1631
 31
0.0
  0
LINE
  5
A29
330
1D
100
AcDbEntity
  8
0
100
AcDbLine
 10
127.254528
 20
146.364
 30
0.0
 11
128.033628
 21
146.4768
 31
0.0
  0
LINE
  5
A2A
330
1D
100
AcDbEntity
  8
0
100
AcDbLine
 10
127.254628
 20
146.3642
 30
0.0
 11
128.033928
 21
146.4767
 31
0.0
  0
LINE
  5
A2B
330
1D
100
AcDbEntity
  8
0
100
AcDbLine
 10
127.753228
 20
197.0481
 30
0.0
 11
128.166628
 21
197.8471
 31
0.0
  0
LINE
  5
A2C
330
1D
100
AcDbEntity
  8
0
100
AcDbLine
 10
127.315928
 20
209.5771
 30
0.0
 11
127.749528
 21
209.5741
 31
0.0
  0
LINE
  5
A2D
330
1D
100
AcDbEntity
  8
0
100
AcDbLine
 10
127.749528
 20
209.5741
 30
0.0
 11
128.152928
 21
209.4541
 31
0.0
  0
LINE
  5
A2E
330
1D
100
AcDbEntity
  8
0
100
AcDbLine
 10
125.997128
 20
145.5628
 30
0.0
 11
128.150228
 21
145.7299
 31
0.0
  0
LINE
  5
A2F
330
1D
100
AcDbEntity
  8
0
100
AcDbLine
 10
128.149928
 20
145.7299
 30
0.0
 11
130.586428
 21
146.2466
 31
0.0
  0
LINE
  5
A30
330
1D
100
AcDbEntity
  8
0
100
AcDbLine
 10
128.033628
 20
146.4768
 30
0.0
 11
128.837028
 21
146.6288
 31
0.0
  0
LINE
  5
A31
330
1D
100
AcDbEntity
  8
0
100
AcDbLine
 10
128.033928
 20
146.4767
 30
0.0
 11
128.837128
 21
146.6291
 31
0.0
  0
LINE
  5
A32
330
1D
100
AcDbEntity
  8
0
100
AcDbLine
 10
128.837028
 20
146.6288
 30
0.0
 11
129.662128
 21
146.8192
 31
0.0
  0
LINE
  5
A33
330
1D
100
AcDbEntity
  8
0
100
AcDbLine
 10
129.662128
 20
146.8192
 30
0.0
 11
130.507128
 21
147.0479
 31
0.0
  0
LINE
  5
A34
330
1D
100
AcDbEntity
  8
0
100
AcDbLine
 10
130.507128
 20
147.0479
 30
0.0
 11
131.368928
 21
147.3138
 31
0.0
  0
LINE
  5
A35
330
1D
100
AcDbEntity
  8
0
100
AcDbLine
 10
130.507428
 20
147.0478
 30
0.0
 11
131.369028
 21
147.3142
 31
0.0
  0
LINE
  5
A36
330
1D
100
AcDbEntity
  8
0
100
AcDbLine
 10
129.662028
 20
146.819
 30
0.0
 11
130.507428
 21
147.0478
 31
0.0
  0
LINE
  5
A37
330
1D
100
AcDbEntity
  8
0
100
AcDbLine
 10
128.837128
 20
146.6291
 30
0.0
 11
129.662028
 21
146.819
 31
0.0
  0
LINE
  5
A38
330
1D
100
AcDbEntity
  8
0
100
AcDbLine
 10
128.150228
 20
145.7299
 30
0.0
 11
130.586128
 21
146.2469
 31
0.0
  0
LINE
  5
A39
330
1D
100
AcDbEntity
  8
0
100
AcDbLine
 10
131.368928
 20
147.3138
 30
0.0
 11
132.246128
 21
147.6166
 31
0.0
  0
LINE
  5
A3A
330
1D
100
AcDbEntity
  8
0
100
AcDbLine
 10
130.586428
 20
146.2466
 30
0.0
 11
133.361028
 21
147.1681
 31
0.0
  0
LINE
  5
A3B
330
1D
100
AcDbEntity
  8
0
100
AcDbLine
 10
133.360828
 20
147.1678
 30
0.0
 11
135.514928
 21
148.0937
 31
0.0
  0
LINE
  5
A3C
330
1D
100
AcDbEntity
  8
0
100
AcDbLine
 10
133.361028
 20
147.1681
 30
0.0
 11
135.514728
 21
148.0936
 31
0.0
  0
LINE
  5
A3D
330
1D
100
AcDbEntity
  8
0
100
AcDbLine
 10
132.246128
 20
147.6166
 30
0.0
 11
133.135528
 21
147.9553
 31
0.0
  0
LINE
  5
A3E
330
1D
100
AcDbEntity
  8
0
100
AcDbLine
 10
133.135528
 20
147.9553
 30
0.0
 11
134.035128
 21
148.3287
 31
0.0
  0
LINE
  5
A3F
330
1D
100
AcDbEntity
  8
0
100
AcDbLine
 10
135.514928
 20
148.0937
 30
0.0
 11
138.268828
 21
149.5259
 31
0.0
  0
LINE
  5
A40
330
1D
100
AcDbEntity
  8
0
100
AcDbLine
 10
135.514728
 20
148.0936
 30
0.0
 11
138.268728
 21
149.5254
 31
0.0
  0
LINE
  5
A41
330
1D
100
AcDbEntity
  8
0
100
AcDbLine
 10
134.941928
 20
148.7364
 30
0.0
 11
135.854028
 21
149.177
 31
0.0
  0
LINE
  5
A42
330
1D
100
AcDbEntity
  8
0
100
AcDbLine
 10
137.197228
 20
149.8807
 30
0.0
 11
138.538328
 21
150.649
 31
0.0
  0
LINE
  5
A43
330
1D
100
AcDbEntity
  8
0
100
AcDbLine
 10
138.268828
 20
149.5259
 30
0.0
 11
140.112428
 21
150.6386
 31
0.0
  0
LINE
  5
A44
330
1D
100
AcDbEntity
  8
0
100
AcDbLine
 10
140.112428
 20
150.6386
 30
0.0
 11
141.915428
 21
151.8504
 31
0.0
  0
LINE
  5
A45
330
1D
100
AcDbEntity
  8
0
100
AcDbLine
 10
138.538328
 20
150.649
 30
0.0
 11
139.869128
 21
151.4769
 31
0.0
  0
LINE
  5
A46
330
1D
100
AcDbEntity
  8
0
100
AcDbLine
 10
140.112928
 20
150.6385
 30
0.0
 11
141.915428
 21
151.8506
 31
0.0
  0
LINE
  5
A47
330
1D
100
AcDbEntity
  8
0
100
AcDbLine
 10
139.869128
 20
151.4769
 30
0.0
 11
141.181428
 21
152.3593
 31
0.0
  0
LINE
  5
A48
330
1D
100
AcDbEntity
  8
0
100
AcDbLine
 10
141.915428
 20
151.8504
 30
0.0
 11
143.689628
 21
153.1712
 31
0.0
  0
LINE
  5
A49
330
1D
100
AcDbEntity
  8
0
100
AcDbLine
 10
141.181428
 20
152.3593
 30
0.0
 11
142.609228
 21
153.398
 31
0.0
  0
LINE
  5
A4A
330
1D
100
AcDbEntity
  8
0
100
AcDbLine
 10
142.609228
 20
153.398
 30
0.0
 11
143.994528
 21
154.4903
 31
0.0
  0
LINE
  5
A4B
330
1D
100
AcDbEntity
  8
0
100
AcDbLine
 10
143.689628
 20
153.1712
 30
0.0
 11
146.205528
 21
155.2924
 31
0.0
  0
LINE
  5
A4C
330
1D
100
AcDbEntity
  8
0
100
AcDbLine
 10
142.609628
 20
153.3981
 30
0.0
 11
143.994428
 21
154.4905
 31
0.0
  0
LINE
  5
A4D
330
1D
100
AcDbEntity
  8
0
100
AcDbLine
 10
141.181728
 20
152.3595
 30
0.0
 11
142.609628
 21
153.3981
 31
0.0
  0
LINE
  5
A4E
330
1D
100
AcDbEntity
  8
0
100
AcDbLine
 10
139.869128
 20
151.4767
 30
0.0
 11
141.181728
 21
152.3595
 31
0.0
  0
LINE
  5
A4F
330
1D
100
AcDbEntity
  8
0
100
AcDbLine
 10
138.538228
 20
150.6491
 30
0.0
 11
139.869128
 21
151.4767
 31
0.0
  0
LINE
  5
A50
330
1D
100
AcDbEntity
  8
0
100
AcDbLine
 10
137.197428
 20
149.8808
 30
0.0
 11
138.538228
 21
150.6491
 31
0.0
  0
LINE
  5
A51
330
1D
100
AcDbEntity
  8
0
100
AcDbLine
 10
135.854028
 20
149.177
 30
0.0
 11
137.197428
 21
149.8808
 31
0.0
  0
LINE
  5
A52
330
1D
100
AcDbEntity
  8
0
100
AcDbLine
 10
135.854028
 20
149.177
 30
0.0
 11
137.197228
 21
149.8807
 31
0.0
  0
LINE
  5
A53
330
1D
100
AcDbEntity
  8
0
100
AcDbLine
 10
134.941728
 20
148.7366
 30
0.0
 11
135.854028
 21
149.177
 31
0.0
  0
LINE
  5
A54
330
1D
100
AcDbEntity
  8
0
100
AcDbLine
 10
134.035128
 20
148.3287
 30
0.0
 11
134.941728
 21
148.7366
 31
0.0
  0
LINE
  5
A55
330
1D
100
AcDbEntity
  8
0
100
AcDbLine
 10
134.035128
 20
148.3287
 30
0.0
 11
134.941928
 21
148.7364
 31
0.0
  0
LINE
  5
A56
330
1D
100
AcDbEntity
  8
0
100
AcDbLine
 10
133.135228
 20
147.9548
 30
0.0
 11
134.035128
 21
148.3287
 31
0.0
  0
LINE
  5
A57
330
1D
100
AcDbEntity
  8
0
100
AcDbLine
 10
132.245928
 20
147.6165
 30
0.0
 11
133.135228
 21
147.9548
 31
0.0
  0
LINE
  5
A58
330
1D
100
AcDbEntity
  8
0
100
AcDbLine
 10
131.369028
 20
147.3142
 30
0.0
 11
132.245928
 21
147.6165
 31
0.0
  0
LINE
  5
A59
330
1D
100
AcDbEntity
  8
0
100
AcDbLine
 10
143.994428
 20
154.4905
 30
0.0
 11
145.327628
 21
155.6282
 31
0.0
  0
LINE
  5
A5A
330
1D
100
AcDbEntity
  8
0
100
AcDbLine
 10
146.205928
 20
155.2927
 30
0.0
 11
148.510628
 21
157.5535
 31
0.0
  0
LINE
  5
A5B
330
1D
100
AcDbEntity
  8
0
100
AcDbLine
 10
145.327628
 20
155.6286
 30
0.0
 11
146.597928
 21
156.8036
 31
0.0
  0
LINE
  5
A5C
330
1D
100
AcDbEntity
  8
0
100
AcDbLine
 10
145.327628
 20
155.6282
 30
0.0
 11
146.598028
 21
156.8034
 31
0.0
  0
LINE
  5
A5D
330
1D
100
AcDbEntity
  8
0
100
AcDbLine
 10
146.205528
 20
155.2924
 30
0.0
 11
148.510628
 21
157.5528
 31
0.0
  0
LINE
  5
A5E
330
1D
100
AcDbEntity
  8
0
100
AcDbLine
 10
143.994528
 20
154.4903
 30
0.0
 11
145.327628
 21
155.6286
 31
0.0
  0
LINE
  5
A5F
330
1D
100
AcDbEntity
  8
0
100
AcDbLine
 10
146.598028
 20
156.8034
 30
0.0
 11
147.796328
 21
158.0068
 31
0.0
  0
LINE
  5
A60
330
1D
100
AcDbEntity
  8
0
100
AcDbLine
 10
146.597928
 20
156.8036
 30
0.0
 11
147.796228
 21
158.007
 31
0.0
  0
LINE
  5
A61
330
1D
100
AcDbEntity
  8
0
100
AcDbLine
 10
147.796228
 20
158.007
 30
0.0
 11
148.914828
 21
159.2306
 31
0.0
  0
LINE
  5
A62
330
1D
100
AcDbEntity
  8
0
100
AcDbLine
 10
148.510628
 20
157.5528
 30
0.0
 11
150.323328
 21
159.6276
 31
0.0
  0
LINE
  5
A63
330
1D
100
AcDbEntity
  8
0
100
AcDbLine
 10
148.914828
 20
159.2306
 30
0.0
 11
149.944828
 21
160.4649
 31
0.0
  0
LINE
  5
A64
330
1D
100
AcDbEntity
  8
0
100
AcDbLine
 10
149.944828
 20
160.4649
 30
0.0
 11
150.878828
 21
161.7008
 31
0.0
  0
LINE
  5
A65
330
1D
100
AcDbEntity
  8
0
100
AcDbLine
 10
150.323328
 20
159.6276
 30
0.0
 11
151.504628
 21
161.1876
 31
0.0
  0
LINE
  5
A66
330
1D
100
AcDbEntity
  8
0
100
AcDbLine
 10
147.796328
 20
158.0068
 30
0.0
 11
148.914828
 21
159.2303
 31
0.0
  0
LINE
  5
A67
330
1D
100
AcDbEntity
  8
0
100
AcDbLine
 10
151.504628
 20
161.1876
 30
0.0
 11
152.823228
 21
163.2478
 31
0.0
  0
LINE
  5
A68
330
1D
100
AcDbEntity
  8
0
100
AcDbLine
 10
150.878828
 20
161.7008
 30
0.0
 11
151.710328
 21
162.9296
 31
0.0
  0
LINE
  5
A69
330
1D
100
AcDbEntity
  8
0
100
AcDbLine
 10
150.879128
 20
161.7011
 30
0.0
 11
151.710228
 21
162.9296
 31
0.0
  0
LINE
  5
A6A
330
1D
100
AcDbEntity
  8
0
100
AcDbLine
 10
151.710328
 20
162.9296
 30
0.0
 11
152.432828
 21
164.1418
 31
0.0
  0
LINE
  5
A6B
330
1D
100
AcDbEntity
  8
0
100
AcDbLine
 10
152.823228
 20
163.2478
 30
0.0
 11
153.825328
 21
165.2527
 31
0.0
  0
LINE
  5
A6C
330
1D
100
AcDbEntity
  8
0
100
AcDbLine
 10
152.823528
 20
163.2475
 30
0.0
 11
153.825528
 21
165.2526
 31
0.0
  0
LINE
  5
A6D
330
1D
100
AcDbEntity
  8
0
100
AcDbLine
 10
151.710228
 20
162.9296
 30
0.0
 11
152.432828
 21
164.1418
 31
0.0
  0
LINE
  5
A6E
330
1D
100
AcDbEntity
  8
0
100
AcDbLine
 10
153.041528
 20
165.3289
 30
0.0
 11
153.532328
 21
166.4826
 31
0.0
  0
LINE
  5
A6F
330
1D
100
AcDbEntity
  8
0
100
AcDbLine
 10
153.825328
 20
165.2527
 30
0.0
 11
154.474628
 21
167.1247
 31
0.0
  0
LINE
  5
A70
330
1D
100
AcDbEntity
  8
0
100
AcDbLine
 10
153.825528
 20
165.2526
 30
0.0
 11
154.475028
 21
167.124
 31
0.0
  0
LINE
  5
A71
330
1D
100
AcDbEntity
  8
0
100
AcDbLine
 10
153.532328
 20
166.4826
 30
0.0
 11
153.768128
 21
167.1551
 31
0.0
  0
LINE
  5
A72
330
1D
100
AcDbEntity
  8
0
100
AcDbLine
 10
153.768128
 20
167.1551
 30
0.0
 11
153.959528
 21
167.8108
 31
0.0
  0
LINE
  5
A73
330
1D
100
AcDbEntity
  8
0
100
AcDbLine
 10
154.474628
 20
167.1247
 30
0.0
 11
154.775128
 21
168.8685
 31
0.0
  0
LINE
  5
A74
330
1D
100
AcDbEntity
  8
0
100
AcDbLine
 10
153.959528
 20
167.8108
 30
0.0
 11
154.106028
 21
168.4478
 31
0.0
  0
LINE
  5
A75
330
1D
100
AcDbEntity
  8
0
100
AcDbLine
 10
154.475028
 20
167.124
 30
0.0
 11
154.775228
 21
168.8682
 31
0.0
  0
LINE
  5
A76
330
1D
100
AcDbEntity
  8
0
100
AcDbLine
 10
154.106028
 20
168.4478
 30
0.0
 11
154.207128
 21
169.0642
 31
0.0
  0
LINE
  5
A77
330
1D
100
AcDbEntity
  8
0
100
AcDbLine
 10
154.106028
 20
168.4478
 30
0.0
 11
154.207328
 21
169.0645
 31
0.0
  0
LINE
  5
A78
330
1D
100
AcDbEntity
  8
0
100
AcDbLine
 10
153.959628
 20
167.811
 30
0.0
 11
154.106028
 21
168.4478
 31
0.0
  0
LINE
  5
A79
330
1D
100
AcDbEntity
  8
0
100
AcDbLine
 10
153.768428
 20
167.1551
 30
0.0
 11
153.959628
 21
167.811
 31
0.0
  0
LINE
  5
A7A
330
1D
100
AcDbEntity
  8
0
100
AcDbLine
 10
153.532028
 20
166.4824
 30
0.0
 11
153.768428
 21
167.1551
 31
0.0
  0
LINE
  5
A7B
330
1D
100
AcDbEntity
  8
0
100
AcDbLine
 10
153.041728
 20
165.3289
 30
0.0
 11
153.532028
 21
166.4824
 31
0.0
  0
LINE
  5
A7C
330
1D
100
AcDbEntity
  8
0
100
AcDbLine
 10
152.432828
 20
164.1418
 30
0.0
 11
153.041728
 21
165.3289
 31
0.0
  0
LINE
  5
A7D
330
1D
100
AcDbEntity
  8
0
100
AcDbLine
 10
152.432828
 20
164.1418
 30
0.0
 11
153.041528
 21
165.3289
 31
0.0
  0
LINE
  5
A7E
330
1D
100
AcDbEntity
  8
0
100
AcDbLine
 10
151.504628
 20
161.1871
 30
0.0
 11
152.823528
 21
163.2475
 31
0.0
  0
LINE
  5
A7F
330
1D
100
AcDbEntity
  8
0
100
AcDbLine
 10
156.833428
 20
168.7649
 30
0.0
 11
157.979179501178
 21
167.399704514331
 31
0.0
  0
LINE
  5
A80
330
1D
100
AcDbEntity
  8
0
100
AcDbLine
 10
156.761028
 20
168.8657
 30
0.0
 11
156.833128
 21
168.7654
 31
0.0
  0
LINE
  5
A81
330
1D
100
AcDbEntity
  8
0
100
AcDbLine
 10
172.537428
 20
162.4295
 30
0.0
 11
175.361545800767
 21
162.200983026099
 31
0.0
  0
LINE
  5
A82
330
1D
100
AcDbEntity
  8
0
100
AcDbLine
 10
179.770828
 20
162.0302
 30
0.0
 11
204.866828
 21
162.0302
 31
0.0
  0
LINE
  5
A83
330
1D
100
AcDbEntity
  8
0
100
AcDbLine
 10
175.361546161144
 20
162.200983007441
 30
0.0
 11
179.770828
 21
162.0302
 31
0.0
  0
LINE
  5
A84
330
1D
100
AcDbEntity
  8
0
100
AcDbLine
 10
175.361545800767
 20
162.200983026099
 30
0.0
 11
179.770828
 21
162.0302
 31
0.0
  0
LINE
  5
A85
330
1D
100
AcDbEntity
  8
0
100
AcDbLine
 10
160.826842686431
 20
165.260425628258
 30
0.0
 11
162.346728
 21
164.5545
 31
0.0
  0
LINE
  5
A86
330
1D
100
AcDbEntity
  8
0
100
AcDbLine
 10
170.149528
 20
162.6744
 30
0.0
 11
172.537428
 21
162.4295
 31
0.0
  0
LINE
  5
A87
330
1D
100
AcDbEntity
  8
0
100
AcDbLine
 10
162.346728
 20
164.5545
 30
0.0
 11
164.900968502464
 21
163.690739558562
 31
0.0
  0
LINE
  5
A88
330
1D
100
AcDbEntity
  8
0
100
AcDbLine
 10
164.900968502464
 20
163.690739558562
 30
0.0
 11
165.882028
 21
163.4118
 31
0.0
  0
LINE
  5
A89
330
1D
100
AcDbEntity
  8
0
100
AcDbLine
 10
165.882028
 20
163.4118
 30
0.0
 11
170.149528
 21
162.6744
 31
0.0
  0
LINE
  5
A8A
330
1D
100
AcDbEntity
  8
0
100
AcDbLine
 10
159.574028
 20
166.0123
 30
0.0
 11
160.826842686433
 21
165.260425628257
 31
0.0
  0
LINE
  5
A8B
330
1D
100
AcDbEntity
  8
0
100
AcDbLine
 10
157.97917950118
 20
167.399704514329
 30
0.0
 11
159.574028
 21
166.0123
 31
0.0
  0
LINE
  5
A8C
330
1D
100
AcDbEntity
  8
0
100
AcDbLine
 10
154.153028
 20
171.2946
 30
0.0
 11
154.235328
 21
170.7754
 31
0.0
  0
LINE
  5
A8D
330
1D
100
AcDbEntity
  8
0
100
AcDbLine
 10
154.152928
 20
171.295
 30
0.0
 11
154.235728
 21
170.7756
 31
0.0
  0
LINE
  5
A8E
330
1D
100
AcDbEntity
  8
0
100
AcDbLine
 10
153.914728
 20
172.097
 30
0.0
 11
154.153028
 21
171.2946
 31
0.0
  0
LINE
  5
A8F
330
1D
100
AcDbEntity
  8
0
100
AcDbLine
 10
153.914728
 20
172.0974
 30
0.0
 11
154.152928
 21
171.295
 31
0.0
  0
LINE
  5
A90
330
1D
100
AcDbEntity
  8
0
100
AcDbLine
 10
154.223928
 20
171.8929
 30
0.0
 11
154.665728
 21
170.6684
 31
0.0
  0
LINE
  5
A91
330
1D
100
AcDbEntity
  8
0
100
AcDbLine
 10
154.207328
 20
169.0645
 30
0.0
 11
154.262528
 21
169.659
 31
0.0
  0
LINE
  5
A92
330
1D
100
AcDbEntity
  8
0
100
AcDbLine
 10
154.235328
 20
170.7754
 30
0.0
 11
154.271828
 21
170.2296
 31
0.0
  0
LINE
  5
A93
330
1D
100
AcDbEntity
  8
0
100
AcDbLine
 10
154.665728
 20
170.6684
 30
0.0
 11
154.775128
 21
168.8685
 31
0.0
  0
LINE
  5
A94
330
1D
100
AcDbEntity
  8
0
100
AcDbLine
 10
154.665828
 20
170.669
 30
0.0
 11
154.775228
 21
168.8682
 31
0.0
  0
LINE
  5
A95
330
1D
100
AcDbEntity
  8
0
100
AcDbLine
 10
154.262528
 20
169.659
 30
0.0
 11
154.272028
 21
170.2301
 31
0.0
  0
LINE
  5
A96
330
1D
100
AcDbEntity
  8
0
100
AcDbLine
 10
154.223928
 20
171.8926
 30
0.0
 11
154.665828
 21
170.669
 31
0.0
  0
LINE
  5
A97
330
1D
100
AcDbEntity
  8
0
100
AcDbLine
 10
154.207128
 20
169.0642
 30
0.0
 11
154.262528
 21
169.659
 31
0.0
  0
LINE
  5
A98
330
1D
100
AcDbEntity
  8
0
100
AcDbLine
 10
130.586128
 20
146.2469
 30
0.0
 11
133.360828
 21
147.1678
 31
0.0
  0
LINE
  5
A99
330
1D
100
AcDbEntity
  8
0
100
AcDbLine
 10
138.130928
 20
193.5311
 30
0.0
 11
143.133028
 21
186.0911
 31
0.0
  0
LINE
  5
A9A
330
1D
100
AcDbEntity
  8
0
100
AcDbLine
 10
143.133028
 20
186.0911
 30
0.0
 11
147.629828
 21
180.0641
 31
0.0
  0
LINE
  5
A9B
330
1D
100
AcDbEntity
  8
0
100
AcDbLine
 10
134.149828
 20
200.1551
 30
0.0
 11
138.130928
 21
193.5311
 31
0.0
  0
LINE
  5
A9C
330
1D
100
AcDbEntity
  8
0
100
AcDbLine
 10
134.149828
 20
200.1551
 30
0.0
 11
138.130928
 21
193.5311
 31
0.0
  0
LINE
  5
A9D
330
1D
100
AcDbEntity
  8
0
100
AcDbLine
 10
153.551728
 20
172.8164
 30
0.0
 11
153.914728
 21
172.097
 31
0.0
  0
LINE
  5
A9E
330
1D
100
AcDbEntity
  8
0
100
AcDbLine
 10
147.629828
 20
180.0641
 30
0.0
 11
153.551828
 21
172.8161
 31
0.0
  0
LINE
  5
A9F
330
1D
100
AcDbEntity
  8
0
100
AcDbLine
 10
147.629828
 20
180.0641
 30
0.0
 11
153.551728
 21
172.8164
 31
0.0
  0
LINE
  5
AA0
330
1D
100
AcDbEntity
  8
0
100
AcDbLine
 10
153.551828
 20
172.8161
 30
0.0
 11
153.914728
 21
172.0974
 31
0.0
  0
LINE
  5
AA1
330
1D
100
AcDbEntity
  8
0
100
AcDbLine
 10
128.152928
 20
209.4541
 30
0.0
 11
128.640428
 21
209.3151
 31
0.0
  0
LINE
  5
AA2
330
1D
100
AcDbEntity
  8
0
100
AcDbLine
 10
128.640428
 20
209.3151
 30
0.0
 11
129.058728
 21
209.0801
 31
0.0
  0
LINE
  5
AA3
330
1D
100
AcDbEntity
  8
0
100
AcDbLine
 10
129.058728
 20
209.0801
 30
0.0
 11
129.336328
 21
208.8291
 31
0.0
  0
LINE
  5
AA4
330
1D
100
AcDbEntity
  8
0
100
AcDbLine
 10
129.336328
 20
208.8291
 30
0.0
 11
129.562628
 21
208.5431
 31
0.0
  0
LINE
  5
AA5
330
1D
100
AcDbEntity
  8
0
100
AcDbLine
 10
129.562628
 20
208.5431
 30
0.0
 11
129.972928
 21
208.0151
 31
0.0
  0
LINE
  5
AA6
330
1D
100
AcDbEntity
  8
0
100
AcDbLine
 10
130.153828
 20
206.9731
 30
0.0
 11
130.235428
 21
206.3751
 31
0.0
  0
LINE
  5
AA7
330
1D
100
AcDbEntity
  8
0
100
AcDbLine
 10
130.153928
 20
206.9731
 30
0.0
 11
130.235428
 21
206.3751
 31
0.0
  0
LINE
  5
AA8
330
1D
100
AcDbEntity
  8
0
100
AcDbLine
 10
130.020428
 20
207.5401
 30
0.0
 11
130.153928
 21
206.9731
 31
0.0
  0
LINE
  5
AA9
330
1D
100
AcDbEntity
  8
0
100
AcDbLine
 10
130.020428
 20
207.5401
 30
0.0
 11
130.153828
 21
206.9731
 31
0.0
  0
LINE
  5
AAA
330
1D
100
AcDbEntity
  8
0
100
AcDbLine
 10
130.235428
 20
206.3751
 30
0.0
 11
130.270828
 21
205.7501
 31
0.0
  0
LINE
  5
AAB
330
1D
100
AcDbEntity
  8
0
100
AcDbLine
 10
130.235428
 20
206.3751
 30
0.0
 11
130.271028
 21
205.7501
 31
0.0
  0
LINE
  5
AAC
330
1D
100
AcDbEntity
  8
0
100
AcDbLine
 10
130.263428
 20
205.1001
 30
0.0
 11
130.270828
 21
205.7501
 31
0.0
  0
LINE
  5
AAD
330
1D
100
AcDbEntity
  8
0
100
AcDbLine
 10
130.263428
 20
205.1001
 30
0.0
 11
130.271028
 21
205.7501
 31
0.0
  0
LINE
  5
AAE
330
1D
100
AcDbEntity
  8
0
100
AcDbLine
 10
132.107928
 20
204.0091
 30
0.0
 11
134.149828
 21
200.1551
 31
0.0
  0
LINE
  5
AAF
330
1D
100
AcDbEntity
  8
0
100
AcDbLine
 10
130.428728
 20
207.2461
 30
0.0
 11
132.107928
 21
204.0091
 31
0.0
  0
LINE
  5
AB0
330
1D
100
AcDbEntity
  8
0
100
AcDbLine
 10
130.243328
 20
207.5621
 30
0.0
 11
130.428628
 21
207.2461
 31
0.0
  0
LINE
  5
AB1
330
1D
100
AcDbEntity
  8
0
100
AcDbLine
 10
130.243228
 20
207.5611
 30
0.0
 11
130.428728
 21
207.2461
 31
0.0
  0
LINE
  5
AB2
330
1D
100
AcDbEntity
  8
0
100
AcDbLine
 10
129.972928
 20
208.0151
 30
0.0
 11
130.243328
 21
207.5621
 31
0.0
  0
LINE
  5
AB3
330
1D
100
AcDbEntity
  8
0
100
AcDbLine
 10
204.866828
 20
196.4491
 30
0.0
 11
205.166828
 21
197.1491
 31
0.0
  0
LINE
  5
AB4
330
1D
100
AcDbEntity
  8
0
100
AcDbLine
 10
204.866828
 20
196.4491
 30
0.0
 11
204.866828
 21
78.4491
 31
0.0
  0
LINE
  5
AB5
330
1D
100
AcDbEntity
  8
0
100
AcDbLine
 10
205.166828
 20
197.1491
 30
0.0
 11
205.866828
 21
197.4491
 31
0.0
  0
LINE
  5
AB9
330
1D
100
AcDbEntity
  8
0
100
AcDbLine
 10
205.866828
 20
197.4491
 30
0.0
 11
225.866828
 21
197.4491
 31
0.0
  0
LINE
  5
ABC
330
1D
100
AcDbEntity
  8
0
100
AcDbLine
 10
153.631221270657
 20
172.658866757726
 30
0.0
 11
156.761028
 21
168.8657
 31
0.0
  0
LINE
  5
ABD
330
1D
100
AcDbEntity
  8
0
100
AcDbLine
 10
127.753328
 20
197.0481
 30
0.0
 11
128.166628
 21
197.8471
 31
0.0
  0
LINE
  5
ABE
330
1D
100
AcDbEntity
  8
0
100
AcDbLine
 10
176.308828
 20
112.2874
 30
0.0
 11
178.857828
 21
112.6987
 31
0.0
  0
LINE
  5
ABF
330
1D
100
AcDbEntity
  8
0
100
AcDbLine
 10
183.475828
 20
113.039
 30
0.0
 11
185.060668216679
 21
113.003807119688
 31
0.0
  0
LINE
  5
AC0
330
1D
100
AcDbEntity
  8
0
100
AcDbLine
 10
168.559628
 20
107.6424
 30
0.0
 11
168.888383820839
 21
108.039326606098
 31
0.0
  0
LINE
  5
AC1
330
1D
100
AcDbEntity
  8
0
100
AcDbLine
 10
138.075628
 20
103.4068
 30
0.0
 11
135.763028
 21
112.6045
 31
0.0
  0
LINE
  5
AC2
330
1D
100
AcDbEntity
  8
0
100
AcDbLine
 10
107.933528
 20
180.7181
 30
0.0
 11
108.566828
 21
180.8721
 31
0.0
  0
LINE
  5
AC3
330
1D
100
AcDbEntity
  8
0
100
AcDbLine
 10
123.582528
 20
191.0361
 30
0.0
 11
124.257628
 21
191.8401
 31
0.0
  0
LINE
  5
AC4
330
1D
100
AcDbEntity
  8
0
100
AcDbLine
 10
128.166628
 20
197.8471
 30
0.0
 11
128.931585273117
 21
199.776196492212
 31
0.0
  0
LINE
  5
AC5
330
1D
100
AcDbEntity
  8
0
100
AcDbLine
 10
128.931585273117
 20
199.776196492212
 30
0.0
 11
129.349901953468
 21
200.975370975885
 31
0.0
  0
LINE
  5
AC6
330
1D
100
AcDbEntity
  8
0
100
AcDbLine
 10
129.349901953468
 20
200.975370975885
 30
0.0
 11
129.733358910457
 21
202.348844076371
 31
0.0
  0
LINE
  5
AC7
330
1D
100
AcDbEntity
  8
0
100
AcDbLine
 10
129.733358910457
 20
202.348844076371
 30
0.0
 11
130.150162920948
 21
204.101980061444
 31
0.0
  0
LINE
  5
AC8
330
1D
100
AcDbEntity
  8
0
100
AcDbLine
 10
130.150162920948
 20
204.101980061444
 30
0.0
 11
130.263428
 21
205.1001
 31
0.0
  0
LINE
  5
AC9
330
1D
100
AcDbEntity
  8
0
100
AcDbLine
 10
140.407653683311
 20
92.337935860101
 30
0.0
 11
140.525205218909
 21
92.482946094725
 31
0.0
  0
LINE
  5
ACA
330
1D
100
AcDbEntity
  8
0
100
AcDbLine
 10
140.525205218909
 20
92.482946094725
 30
0.0
 11
140.845302330967
 21
92.584413734565
 31
0.0
  0
LINE
  5
ACB
330
1D
100
AcDbEntity
  8
0
100
AcDbLine
 10
76.675759
 20
162.1564
 30
0.0
 11
77.542278
 21
165.9713
 31
0.0
  0
LINE
  5
ACC
330
1D
100
AcDbEntity
  8
0
100
AcDbLine
 10
84.365611598242
 20
178.138427071411
 30
0.0
 11
85.097348
 21
178.7311
 31
0.0
  0
LINE
  5
ACD
330
1D
100
AcDbEntity
  8
0
100
AcDbLine
 10
225.866828
 20
78.7491
 30
0.0
 11
225.866828
 21
197.4491
 31
0.0
  0
LINE
  5
ACE
330
1D
100
AcDbEntity
  8
0
100
AcDbLine
 10
15.899928
 20
57.4696
 30
0.0
 11
0.218064
 21
84.63165
 31
0.0
  0
LINE
  5
ACF
330
1D
100
AcDbEntity
  8
0
100
AcDbLine
 10
82.474458
 20
140.6351
 30
0.0
 11
84.861578854133
 21
139.346807161189
 31
0.0
  0
ENDSEC
  0
SECTION
  2
OBJECTS
  0
DICTIONARY
  5
C
330
0
100
AcDbDictionary
281
     1
  3
ACAD_GROUP
350
D
  3
ACAD_LAYOUT
350
1A
  3
ACAD_MLEADERSTYLE
350
AD2
  3
ACAD_MLINESTYLE
350
17
  3
ACAD_PLOTSETTINGS
350
19
  3
ACAD_PLOTSTYLENAME
350
E
  3
ACAD_SCALELIST
350
5B6
  3
AcDbVariableDictionary
350
AD0
  3
DWGPROPS
350
AD5
  0
DICTIONARY
  5
D
102
{ACAD_REACTORS
330
C
102
}
330
C
100
AcDbDictionary
281
     1
  0
DICTIONARY
  5
1A
102
{ACAD_REACTORS
330
C
102
}
330
C
100
AcDbDictionary
281
     1
  3
Layout1
350
1C
  3
Model
350
1E
  0
DICTIONARY
  5
AD2
102
{ACAD_REACTORS
330
C
102
}
330
C
100
AcDbDictionary
281
     1
  0
DICTIONARY
  5
17
102
{ACAD_REACTORS
330
C
102
}
330
C
100
AcDbDictionary
281
     1
  3
Standard
350
18
  0
DICTIONARY
  5
19
102
{ACAD_REACTORS
330
C
102
}
330
C
100
AcDbDictionary
281
     1
  0
ACDBDICTIONARYWDFLT
  5
E
102
{ACAD_REACTORS
330
C
102
}
330
C
100
AcDbDictionary
281
     1
  3
Normal
350
F
100
AcDbDictionaryWithDefault
340
F
  0
DICTIONARY
  5
5B6
102
{ACAD_REACTORS
330
C
102
}
330
C
100
AcDbDictionary
281
     1
  3
A0
350
5B7
  3
A1
350
5B8
  3
A2
350
5B9
  3
A3
350
5BA
  3
A4
350
5BB
  3
A5
350
5BC
  3
A6
350
5BD
  3
A7
350
5BE
  3
A8
350
5BF
  3
A9
350
5C0
  3
B0
350
5C1
  3
B1
350
5C2
  3
B2
350
5C3
  3
B3
350
5C4
  3
B4
350
5C5
  3
B5
350
5C6
  3
B6
350
5C7
  3
B7
350
5C8
  3
B8
350
5C9
  3
B9
350
5CA
  3
C0
350
5CB
  3
C1
350
5CC
  3
C2
350
5CD
  3
C3
350
5CE
  3
C4
350
5CF
  3
C5
350
5D0
  3
C6
350
5D1
  3
C7
350
5D2
  3
C8
350
5D3
  3
C9
350
5D4
  3
D0
350
5D5
  3
D1
350
5D6
  3
D2
350
5D7
  0
DICTIONARY
  5
AD0
102
{ACAD_REACTORS
330
C
102
}
330
C
100
AcDbDictionary
281
     1
  3
CANNOSCALE
350
AD3
  0
XRECORD
  5
AD5
102
{ACAD_REACTORS
330
C
102
}
330
C
100
AcDbXrecord
280
     1
  1
DWGPROPS COOKIE
  2

  3

  4

  6

  7

  8
MARTIN
  9

300
=
301
=
302
=
303
=
304
=
305
=
306
=
307
=
308
=
309
=
 40
0.0
 41
2456184.75031456
 42
2456184.759297488
  1

 90
        0
  0
LAYOUT
  5
1C
102
{ACAD_REACTORS
330
1A
102
}
330
1A
100
AcDbPlotSettings
  1

  2
none_device
  4

  6

 40
0.0
 41
0.0
 42
0.0
 43
0.0
 44
0.0
 45
0.0
 46
0.0
 47
0.0
 48
0.0
 49
0.0
140
0.0
141
0.0
142
1.0
143
1.0
 70
   688
 72
     0
 73
     0
 74
     5
  7

 75
    16
147
1.0
148
0.0
149
0.0
100
AcDbLayout
  1
Layout1
 70
     1
 71
     1
 10
0.0
 20
0.0
 11
12.0
 21
9.0
 12
0.0
 22
0.0
 32
0.0
 14
1.000000000000E+20
 24
1.000000000000E+20
 34
1.000000000000E+20
 15
-1.000000000000E+20
 25
-1.000000000000E+20
 35
-1.000000000000E+20
146
0.0
 13
0.0
 23
0.0
 33
0.0
 16
1.0
 26
0.0
 36
0.0
 17
0.0
 27
1.0
 37
0.0
 76
     0
330
1B
  0
LAYOUT
  5
1E
102
{ACAD_REACTORS
330
1A
102
}
330
1A
100
AcDbPlotSettings
  1

  2
none_device
  4

  6

 40
0.0
 41
0.0
 42
0.0
 43
0.0
 44
0.0
 45
0.0
 46
0.0
 47
0.0
 48
0.0
 49
0.0
140
0.0
141
0.0
142
1.0
143
1.0
 70
  1712
 72
     0
 73
     0
 74
     0
  7

 75
     0
147
1.0
148
0.0
149
0.0
100
AcDbLayout
  1
Model
 70
     1
 71
     0
 10
0.0
 20
0.0
 11
12.0
 21
9.0
 12
0.0
 22
0.0
 32
0.0
 14
0.133172
 24
1.5707
 34
0.0
 15
225.866828
 25
209.5771
 35
0.0
146
0.0
 13
0.0
 23
0.0
 33
0.0
 16
1.0
 26
0.0
 36
0.0
 17
0.0
 27
1.0
 37
0.0
 76
     0
330
1D
331
5B1
  0
MLINESTYLE
  5
18
102
{ACAD_REACTORS
330
17
102
}
330
17
100
AcDbMlineStyle
  2
Standard
 70
     0
  3

 62
   256
 51
90.0
 52
90.0
 71
     2
 49
0.5
 62
   256
  6
BYLAYER
 49
-0.5
 62
   256
  6
BYLAYER
  0
ACDBPLACEHOLDER
  5
F
102
{ACAD_REACTORS
330
E
102
}
330
E
  0
SCALE
  5
5B7
102
{ACAD_REACTORS
330
5B6
102
}
330
5B6
100
AcDbScale
 70
     0
300
1:1
140
1.0
141
1.0
290
     1
  0
SCALE
  5
5B8
102
{ACAD_REACTORS
330
5B6
102
}
330
5B6
100
AcDbScale
 70
     0
300
1:2
140
1.0
141
2.0
290
     0
  0
SCALE
  5
5B9
102
{ACAD_REACTORS
330
5B6
102
}
330
5B6
100
AcDbScale
 70
     0
300
1:4
140
1.0
141
4.0
290
     0
  0
SCALE
  5
5BA
102
{ACAD_REACTORS
330
5B6
102
}
330
5B6
100
AcDbScale
 70
     0
300
1:5
140
1.0
141
5.0
290
     0
  0
SCALE
  5
5BB
102
{ACAD_REACTORS
330
5B6
102
}
330
5B6
100
AcDbScale
 70
     0
300
1:8
140
1.0
141
8.0
290
     0
  0
SCALE
  5
5BC
102
{ACAD_REACTORS
330
5B6
102
}
330
5B6
100
AcDbScale
 70
     0
300
1:10
140
1.0
141
10.0
290
     0
  0
SCALE
  5
5BD
102
{ACAD_REACTORS
330
5B6
102
}
330
5B6
100
AcDbScale
 70
     0
300
1:16
140
1.0
141
16.0
290
     0
  0
SCALE
  5
5BE
102
{ACAD_REACTORS
330
5B6
102
}
330
5B6
100
AcDbScale
 70
     0
300
1:20
140
1.0
141
20.0
290
     0
  0
SCALE
  5
5BF
102
{ACAD_REACTORS
330
5B6
102
}
330
5B6
100
AcDbScale
 70
     0
300
1:30
140
1.0
141
30.0
290
     0
  0
SCALE
  5
5C0
102
{ACAD_REACTORS
330
5B6
102
}
330
5B6
100
AcDbScale
 70
     0
300
1:40
140
1.0
141
40.0
290
     0
  0
SCALE
  5
5C1
102
{ACAD_REACTORS
330
5B6
102
}
330
5B6
100
AcDbScale
 70
     0
300
1:50
140
1.0
141
50.0
290
     0
  0
SCALE
  5
5C2
102
{ACAD_REACTORS
330
5B6
102
}
330
5B6
100
AcDbScale
 70
     0
300
1:100
140
1.0
141
100.0
290
     0
  0
SCALE
  5
5C3
102
{ACAD_REACTORS
330
5B6
102
}
330
5B6
100
AcDbScale
 70
     0
300
2:1
140
2.0
141
1.0
290
     0
  0
SCALE
  5
5C4
102
{ACAD_REACTORS
330
5B6
102
}
330
5B6
100
AcDbScale
 70
     0
300
4:1
140
4.0
141
1.0
290
     0
  0
SCALE
  5
5C5
102
{ACAD_REACTORS
330
5B6
102
}
330
5B6
100
AcDbScale
 70
     0
300
8:1
140
8.0
141
1.0
290
     0
  0
SCALE
  5
5C6
102
{ACAD_REACTORS
330
5B6
102
}
330
5B6
100
AcDbScale
 70
     0
300
10:1
140
10.0
141
1.0
290
     0
  0
SCALE
  5
5C7
102
{ACAD_REACTORS
330
5B6
102
}
330
5B6
100
AcDbScale
 70
     0
300
100:1
140
100.0
141
1.0
290
     0
  0
SCALE
  5
5C8
102
{ACAD_REACTORS
330
5B6
102
}
330
5B6
100
AcDbScale
 70
     0
300
1/128" = 1'-0"
140
0.0078125
141
12.0
290
     0
  0
SCALE
  5
5C9
102
{ACAD_REACTORS
330
5B6
102
}
330
5B6
100
AcDbScale
 70
     0
300
1/64" = 1'-0"
140
0.015625
141
12.0
290
     0
  0
SCALE
  5
5CA
102
{ACAD_REACTORS
330
5B6
102
}
330
5B6
100
AcDbScale
 70
     0
300
1/32" = 1'-0"
140
0.03125
141
12.0
290
     0
  0
SCALE
  5
5CB
102
{ACAD_REACTORS
330
5B6
102
}
330
5B6
100
AcDbScale
 70
     0
300
1/16" = 1'-0"
140
0.0625
141
12.0
290
     0
  0
SCALE
  5
5CC
102
{ACAD_REACTORS
330
5B6
102
}
330
5B6
100
AcDbScale
 70
     0
300
3/32" = 1'-0"
140
0.09375
141
12.0
290
     0
  0
SCALE
  5
5CD
102
{ACAD_REACTORS
330
5B6
102
}
330
5B6
100
AcDbScale
 70
     0
300
1/8" = 1'-0"
140
0.125
141
12.0
290
     0
  0
SCALE
  5
5CE
102
{ACAD_REACTORS
330
5B6
102
}
330
5B6
100
AcDbScale
 70
     0
300
3/16" = 1'-0"
140
0.1875
141
12.0
290
     0
  0
SCALE
  5
5CF
102
{ACAD_REACTORS
330
5B6
102
}
330
5B6
100
AcDbScale
 70
     0
300
1/4" = 1'-0"
140
0.25
141
12.0
290
     0
  0
SCALE
  5
5D0
102
{ACAD_REACTORS
330
5B6
102
}
330
5B6
100
AcDbScale
 70
     0
300
3/8" = 1'-0"
140
0.375
141
12.0
290
     0
  0
SCALE
  5
5D1
102
{ACAD_REACTORS
330
5B6
102
}
330
5B6
100
AcDbScale
 70
     0
300
1/2" = 1'-0"
140
0.5
141
12.0
290
     0
  0
SCALE
  5
5D2
102
{ACAD_REACTORS
330
5B6
102
}
330
5B6
100
AcDbScale
 70
     0
300
3/4" = 1'-0"
140
0.75
141
12.0
290
     0
  0
SCALE
  5
5D3
102
{ACAD_REACTORS
330
5B6
102
}
330
5B6
100
AcDbScale
 70
     0
300
1" = 1'-0"
140
1.0
141
12.0
290
     0
  0
SCALE
  5
5D4
102
{ACAD_REACTORS
330
5B6
102
}
330
5B6
100
AcDbScale
 70
     0
300
1-1/2" = 1'-0"
140
1.5
141
12.0
290
     0
  0
SCALE
  5
5D5
102
{ACAD_REACTORS
330
5B6
102
}
330
5B6
100
AcDbScale
 70
     0
300
3" = 1'-0"
140
3.0
141
12.0
290
     0
  0
SCALE
  5
5D6
102
{ACAD_REACTORS
330
5B6
102
}
330
5B6
100
AcDbScale
 70
     0
300
6" = 1'-0"
140
6.0
141
12.0
290
     0
  0
SCALE
  5
5D7
102
{ACAD_REACTORS
330
5B6
102
}
330
5B6
100
AcDbScale
 70
     0
300
1'-0" = 1'-0"
140
12.0
141
12.0
290
     0
  0
DICTIONARYVAR
  5
AD3
102
{ACAD_REACTORS
330
AD0
102
}
330
AD0
100
DictionaryVariables
280
     0
  1
1:1
  0
ENDSEC
  0
SECTION
  2
THUMBNAILIMAGE
 90
    16364
310
28000000B40000005500000001000800000000000000000000000000000000000000000000000000FFFFFF000000FF0000FFFF0000FF0000FFFF0000FF000000FF00FF000000000080808000C0C0C0000000FF007F7FFF000000A5005252A50000007F003F3F7F0000004C0026264C000000260013132600003FFF007F9FFF
310
000029A5005267A500001F7F003F4F7F0000134C00262F4C000009260013172600007FFF007FBFFF000052A500527CA500003F7F003F5F7F0000264C0026394C0000132600131C260000BFFF007FDFFF00007CA5005291A500005F7F003F6F7F0000394C0026424C00001C26001321260000FFFF007FFFFF0000A5A50052A5
310
A500007F7F003F7F7F00004C4C00264C4C00002626001326260000FFBF007FFFDF0000A57C0052A59100007F5F003F7F6F00004C3900264C420000261C001326210000FF7F007FFFBF0000A5520052A57C00007F3F003F7F5F00004C2600264C39000026130013261C0000FF3F007FFF9F0000A5290052A56700007F1F003F
310
7F4F00004C1300264C2F00002609001326170000FF00007FFF7F0000A5000052A55200007F00003F7F3F00004C0000264C260000260000132613003FFF00009FFF7F0029A5000067A552001F7F00004F7F3F00134C00002F4C260009260000172613007FFF0000BFFF7F0052A500007CA552003F7F00005F7F3F00264C0000
310
394C2600132600001C261300BFFF0000DFFF7F007CA5000091A552005F7F00006F7F3F00394C0000424C26001C26000021261300FFFF0000FFFF7F00A5A50000A5A552007F7F00007F7F3F004C4C00004C4C26002626000026261300FFBF0000FFDF7F00A57C0000A59152007F5F00007F6F3F004C3900004C422600261C00
310
0026211300FF7F0000FFBF7F00A5520000A57C52007F3F00007F5F3F004C2600004C39260026130000261C1300FF3F0000FF9F7F00A5290000A56752007F1F00007F4F3F004C1300004C2F26002609000026171300FF000000FF7F7F00A5000000A55252007F0000007F3F3F004C0000004C2626002600000026131300FF00
310
3F00FF7F9F00A5002900A55267007F001F007F3F4F004C0013004C262F002600090026131700FF007F00FF7FBF00A5005200A5527C007F003F007F3F5F004C0026004C2639002600130026131C00FF00BF00FF7FDF00A5007C00A55291007F005F007F3F6F004C0039004C26420026001C0026132100FF00FF00FF7FFF00A5
310
00A500A552A5007F007F007F3F7F004C004C004C264C002600260026132600BF00FF00DF7FFF007C00A5009152A5005F007F006F3F7F0039004C0042264C001C002600211326007F00FF00BF7FFF005200A5007C52A5003F007F005F3F7F0026004C0039264C00130026001C1326003F00FF009F7FFF002900A5006752A500
310
1F007F004F3F7F0013004C002F264C000900260017132600000000002D2D2D005B5B5B0089898900B7B7B700B3B3B30000000000000000000000000000000000000000000000000000000000000000000000000000000000000000000000000000000000000000000000000000000000000000000000000000000000000000
310
00000000000000000000000000000000000000000000000707000000000000000000000000000000000000000000000000000000000000000000000000000000000000000000000000000000000000000000000000000000000000000000000000000000000000000000000000000000000000000000000000000000000000
310
00000000000000000000000000000000000000000000000000000000000000000000000000000000000000000000000000000000000000000000000000000000000000000000000000070707070007070000000000000000000000000000000000000000000000000000000000000000000000000000000000000000000000
310
00000000000000000000000000000000000000000000000000000000000000000000000000000000000000000000000000000000000000000000000000000000000000000000000000000000000000000000000000000000000000000000000000000000000000000000000000000000000000000000000000000000000007
310
00000000000700000000000000000000000000000000000000000000000000000000000000000000000000000000000000000000000000000000000000000000000000000000000000000000000000000000000000000000000000000000000000000000000000000000000000000000000000000000000000000000000000
310
00000000000000000000000000000000000000000000000000000000000000000000000000000000000000000000000000000000070000000000070000000000000000000000000000000000000000000000000000000000000000000000000000000000000000000000000000000000000000000000000000000000000000
310
00000000000000000000000000000000000000000000000000000000000000000000000000000000000000000000000000000000000000000000000000000000000000000000000000000000000000000000000000000000000000000000000000000000000000000007070000000707000000000000000000000000000000
310
00000000000000000000000000000000000000000000000000000000000000000000000000000000000000000000000000000000000000000000000000000000000000000000000000000000000000000000000000000000000000000000000000000000000000000000000000000000000000000000000000000000000000
310
00000000000000000000000000000000000000000000000000000000000000070007070700070000000000000000000000000000000000000000000000000000000000000000000000000000000000000000000000000000000000000000000000000000000000000000000000000000000000000000000000000000000000
310
00000000000000000000000000000000000000000000000000000000000000000000000000000000000000000000000000000000000000000000000000000000000000000000000000000000000000000000000007000000000007000000000000000000000000000000000000000000000000000000000000000000000000
310
00000000000000000000000000000000000000000000000000000000000000000000000000000000000000000000000000000000000000000000000000000000000000000000000000000000000000000000000000000000000000000000000000000000000000000000000000000000000000000000000000000000000000
310
00000000000000000000070000000000070000000000000000000000000000000000000000000000000000000000000000000000000000000000000000000000000000000000000000000000000000000000000000000000000000000000000000000000000000000000000000000000000000000000000000000000000000
310
00000000000000000000000000000000000000000000000000000000000000000000000000000000000000000000000000000000000000000000000000000007000000000000070000000000000000000000000000000000000000000000000000000000000000000000000000000000000000000000000000000000000000
310
00000000000000000000000000000000000000000000000000000000000000000000000000000000000000000000000000000000000000000000000000000000000000000000000000000000000000000000000000000000000000000000000000000000000000000000000000000000000000000007000000000007000000
310
00000000000000000000000000000000000000000000000000000000000000000000000000000000000000000000000000000000000000000000000000000000000000000000000000000000000000000000000000000000000000000000000000000000000000000000000000000000000000000000000000000000000000
310
00000000000000000000000000000000000000000000000000000000000000000000000000000000000000070000000000070000000000000000000000000000000000000000000000000000000000000000000000000000000000000000000000000000000000000000000000000000000000000000000000000000000000
310
00000000000000000000000000000000000000000000000000000000000000000000000000000000000000000000000000000000000000000000000000000000000000000000000000000000000000000000000000000000000000000000000007000000000007000000000000000000000000000000000000000000000000
310
00000000000000000000000000000000000000000000000000000000000000000000000000000000000000000000000000000000000000000000000000000000000000000000000000000000000000000000000000000000000000000000000000000000000000000000000000000000000000000000000000000000000000
310
00000000000000000000000000000000000000000000070000000000070000000000000000000000000000000000000000000000000000000000000000000000000000000000000000000000000000000000000000000000000000000000000000000000000000000000000000000000000000000000000000000000000000
310
00000000000000000000000000000000000000000000000000000000000000000000000000000000000000000000000000000000000000000000000000000000000000000000000000000007000000000007000000000000000000000000000000000000000000000000000000000000000000000000000000000000000000
310
00000000000000000000000000000000000000000000000000000000000000000000000000000000000000000000000000000000000000000000000000000000000000000000000000000000000000000000000000000000000000000000000000000000000000000000000000000000000000000000000000000000000000
310
00070000000000070000000000000000000000000000000000000000000000000000000000000000000000000000000000000000000000000000000000000000000000000000000000000000000000000000000000000000000000000000000000000000000000000000000000000000000000000000000000000000000000
310
00000000000000000000000000000000000000000000000000000000000000000000000000000000000000000000000000000000000007000000000007000000000000000000000000000000000000000000000000000000000000000000000000000000000000000000000000000000000000000000000000000000000000
310
00000000000000000000000000000000000000000000000000000000000000000000000000000000000000000000000000000000000000000000000000000000000000000000000000000000000000000000000000000000000000000000000000000000000000000000000700000000000700000000000000000000000000
310
00000000000000000000000000000000000000000000000000000000000000000000000000000000000000000000000000000000000000000000000000000000000000000000000000000000000000000000000000000000000000000000000000000000000000000000000000000000000000000000000000000000000000
310
00000000000000000000000000000000000000000000000000000000000000000007000000000007000000000000000000000000000000000000000000000000000000000000000000000000000000000000000000000000000000000000000000000000000000000000000000000000000000000000000000000000000000
310
00000000000000000000000000000000000000000000000000000000000000000000000000000000000000000000000000000000000000000000000000000000000000000000000000000000000000000000000000000700000000000700000000000000000000000000000000000000000000000000000000000000000000
310
00000000000000000000000000000000000000000000000000000000000000000000000000000000000000000000000000000000000000000000000000000000000000000000000000000000000000000000000000000000000000000000000000000000000000000000000000000000000000000000000000000000000000
310
00000000000000000000000007000000000000070000000000000000000000000000000000000000000000000000000000000000000000000000000000000000000000000000000000000000000000000000000000000000000000000000000000000000000000000000000000000000000000000000000000000000000000
310
00000000000000000000000000000000000000000000000000000000000000000000000000000000000000000000000000000000000000000000000000000000000007000000000007000000000000000000000000000000000000000000000000000000000000000000000000000000000000000000000000000000000000
310
00000000000000000000000000000000000000000000000000000000000000000000000000000000000000000000000000000000000000000000000000000000000000000000000000000000000000000000000000000000000000000000000000000000000000000000000000000000000000000000000700000000000700
310
00000000000000000000000000000000000000000000000000000000000000000000000000000000000000000000000000000000000000000000000000000000000000000000000000000000000000000000000000000000000000000000000000000000000000000000000000000000000000000000000000000000000000
310
00000000000000000000000000000000000000000000000000000000000000000000000000000000000000000007000000000007000000000000000000000000000000000000000000000000000000000000000000000000000000000000000000000000000000000000000000000000000000000000000000000000000000
310
00000000000000000000000000000000000000000000000000000000000000000000000000000000000000000000000007070000000000000000000000000000000000000000000000000000000000000000000000000000000000000000000000000700000000000700000000000000000000000000000000000000000000
310
00000000000000000000000000000000000000000000000000000000000000000000000000000000000000000000000000000000000000000000000000000000000000000000000000000000000000000000000000000000000000000000000000000000070000070700000000000000000000000000000000000000000000
310
00000000000000000000000000000000000000000000000007000000070707070000000000000000000000000000000000000000000000000000000000000000000000000000000000000000000000000000000000000000000000000000000000000000000000000000000000000000000000000000000000000000000000
310
00000000000000000000000000000000000000000000000000000700000000070700000000000000000000000000000000000000000000000000000000000000000000000000000000000000070707070700000007000000000000000000000000000000000000000000000000000000000000000000000000000000000000
310
00000000000000000000000000000000000000000000000000000000000000000000000000000000000000000000000000000000000000000000000000000000000000000000000000000000000007000000000000000707000000000000000000000000000000000000000000000000000000000000000000000000000000
310
00000700000000000000070000000000000000000000000000000000000000000000000000000000000000000000000000000000000000000000000000000000000000000000000000000000000000000000000000000000000000000000000000000000000000000000000000000000000000000000000000000000000000
310
00000000070000000000000000000707000000000000000000000000000000000000000000000000000000000000000000000000000000070000000000000007000000000000000000000000000000000000000000000000000000000000000000000000000000000000000000000000000000000000000000000000000000
310
00000000000000000000000000000000000000000000000000000000000000000000000000000000000000000000000000000000000000000700000000000000000000000007070000000000000000000000000000000000000000000000000000000000000000000000000007000000000000000007000000000000000000
310
00000000000000000000000000000000000000000000000000000000000000000000000000000000000000000000000000000000000000000000000000000000000000000000000000000000000000000000000000000000000000000000000000000000000000000000000007000000000000000000000000000000070700
310
00000000000000000000000000000000000000000000000000000000000000000000070000000000000000070000000000000000000000000000000000000000000000000000000000000000000000000000000000000000000000000000000000000000000000000000000000000000000000000000000000000000000000
310
00000000000000000000000000000000000000000000000000000000000000000000070000000000000000000000000000000000070700000000000000000000000000000000000000000000000000000000000000000007000000000000000007000000000000000000000000000000000000000000000000000000000000
310
00000000000000000000000000000000000000000000000000000000000000000000000000000000000000000000000000000000000000000000000000000000000000000000000000000000000000000000000000000700000000000000000000000000000000000000000707000000000000000000000000000000000000
310
00000000000000000000000000070000000000000000070000000000000000000000000000000000070707070707070707000000000000000000000000000000000000000000000000000000000000000000000000000000000000000000000000000000000000000000000000000000000000000000000000000000000000
310
00000000000000000000000007000000000000000000000000000000000000000000000707070000000000000000000000000000000000000000000000000000000000070000000000000007000000000000000000000000000000000007000000000000000700000000000000000000000000000000000000000000000000
310
00000000000000000000000000000000000000000000000000000000000000000000000000000000000000000000000000000000000000000000000000000000000000000000000000000000000000000000000000000000000000070700000000000000000000000000000000000000000000000000000007000000000000
310
00070000000000000000000000000000000000070000000000000007000000000000000000000000000000000000000000000000000000000000000000000000000000000000000000000000000000000000000000000000000000000000000000000000000000000000000000000000000000000007000000000000000000
310
00000000000000000000000000000000000000070700000000000000000000000000000000000000000000000000070000000000000000070000000000000000000000000000000007000000000000000700000000000000000000000000000000000000000000000000000000000000000000000000000000000000000000
310
00000000000000000000000000000000000000000000000000000000000000000000000000000000000000000707000000000000000000000000000000000000000000000000000000000707000000000000000000000000000000000000000000000007000000000000000007000000000000000000000000000000000700
310
00000000000007000000000000000000000000000000000000000000000000000000000000000000000000000000000000000000000000000000000000000000000000000000000000000000000000000000000000000000000000000000000000000007070000000000000000000000000000000000000000000000000000
310
00000707000000000000000000000000000000000000000000070000000007070707070000000000000000000000000000000007000000000000000700000000000000000000000000000000000000000000000000000000000000000000000000000000000000000000000000000000000000000000000000000000000000
310
00000000000000000000000000000000000000000000000000000007000000000000000000000000000000000000000000000000000000000007070000000000000000000000000000000000000007070707070707000007000000000000000000000000000000000700000000000000070000000000000000000000000000
310
00000000000000000000000000000000000000000000000000000000000000000000000000000000000000000000000000000000000000000000000000000000000000000000000000000000000000000007070000000000000000000000000000000000000000000000000000000000070700000000000000000000000000
310
00000007000000000000000000000700000000000000000000000000000007000000000000000700000000000000000000000000000000000000000000000000000000000000000000000000000000000000000000000000000000000000000000000000000000000000000000000000000000000000000000000000000000
310
00000000000000000007000000000000000000000000000000000000000000000000000000000000070707000000000000000000000000000700000000000000000000070000000000000000000000000000000700000000000000070000000000000000000000000000000000000000000000000000000000000000000000
310
00000000000000000000000000000000000000000000000000000000000000000000000000000000000000000000000000000000000000000000000000000007070000000000000000000000000000000000000000000000000000000000000007070707000000000000000000070000000000000000000007000000000000
310
00000000000000000007000000000000000700000000000000000000000000000000000000000000000000000000000000000000000000000000000000000000000000000000000000000000000000000000000000000000000000000000000000000000000000000000000000000000000000000000070700000000000000
310
00000000000000000000000000000000000000000000000000000707070700000000000700000000000000000000070000000000000000000000000000000700000000000000070000000000000000000000000000000000000000000000000000000000000000000000000000000000000000000000000000000000000000
310
00000000000000000000000000000000000000000000000000000000000000000000000000000000000000000000070000000000000000000000000000000000000000000000000000000000000000000000000707070700070000000000000000000000070000000000000000000000000000070000000000000007000000
310
00000000000000000000000000000000000000000000000000000000000000000000000000000000000000000000000000000000000000000000000000000000000000000000000000000000000000000000000000000000000000000000000000000000070700000000000000000000000000000000000000000000000000
310
00000000000000000000000000070000000000000000000000000707000000000000000000000000000700000000000000070000000000000000000000000000000000000000000000000000000000000000000000000000000000000000000000000000000000000000000000000000000000000000000000000000000000
310
00000000000000000000000000000000000000000000000000000000070000000000000000000000000000000000000000000000000000000000000000000000000007000000000000000000000000000707070000000000000000000000070000000000000007000000000000000000000000000000000000000000000000
310
00000000000000000000000000000000000000000000000000000000000000000000000000000000000000000000000000000000000000000000000000000000000000000000000000000000000000000000070000000000000000000000000000000000000000000000000000000000000000000000000000000000000000
310
00000000000000000007070707070707070707070700000000000000070000000000000000000000000000000000000000000000000000000000000000000000000000000000000000000000000000000000000000000000000000000000000000000000000000000000000000000000000000000000000000000000000000
310
00000000000000000007070000000000000000000000000000000000000000000000000000000000000000000007000000000000000000000000000000000000000000000000000000070000000000000007000000000000000000000000000000000000000000000000000000000000000000000000000000000000000000
310
00000000000000000000000000000000000000000000000000000000000000000000000000000000000000000000000000000000000000000000000000000000070000000000000000000000000000000000000000000000000000000000000000070000000000000000000000000000000000000000000000000000000007
310
00000000000000070000000000000000000000000000000000000000000000000000000000000000000000000000000000000000000000000000000000000000000000000000000000000000000000000000000000000000000000000000000000000000000000000000000000000000000000000000070700000000000000
310
00000000000000000000000000000000000000000000000700000000000000000000000000000000000000000000000000000000070000000000000007000000000000000000000000000000000000000000000000000000000000000000000000000000000000000000000000000000000000000000000000000000000000
310
00000000000000000000000000000000000000000000000000000000000000000000000000000000000000000000070000000000000000000000000000000000000000000000000000000000070000000000000000000000000000000000000000000000000000000007000000000000000700000000000000000000000000
310
00000000000000000000000000000000000000000000000000000000000000000000000000000000000000000000000000000000000000000000000000000000000000000000000000000000000000000000000000000000000000000000000000000000070700000000000000000000000000000000000000000000000000
310
00070000000000000000000000000000000000000000000000000000000000070000000000000007000000000000000000000000000000000000000000000000000000000000000000000000000000000000000000000000000000000000000000000000000000000000000000000000000000000000000000000000000000
310
00000000000000000000000000000000000000000000000000000000070700000000000000000000000000000000000000000000000007000000000000000000000000000000000000000000000000000000000007000000000000000700000000000000000000000000000000000000000000000000000000000000000000
310
00000000000000000000000000000000000000000000000000000000000000000000000000000000000000000000000000000000000000000000000000000000000000000000000000000000000000000000000700000000000000000000000000000000000000000000070000000000000000000000000000000000000000
310
00000000000000000000070000000000000007000000000000000000000000000000000000000000000000000000000000000000000000000000000000000000000000000000000000000000000000000000000000000000000000000000000000000000000000000000000000000000000000000000000000000000000000
310
00000000000000000000070700000000000000000000000000000000000000000700000000000000000000000000000000000000000000000000000000000007000000000000000700000000000000000000000000000000000000000000000000000000000000000000000000000000000000000000000000000000000000
310
00000000000000000000000000000000000000000000000000000000000000000000000000000000000000000000000000000000000000000000000000000000000707000000000000000000000000000000000000070000000000000000000000000000000000000000000000000000000000000700000000000000070000
310
00000000000000000000000000000000000000000000000000000000000000000000000000000000000000000000000000000000000000000000000000000000000000000000000000000000000000000000000000000000000000000000000000000000000000000000000000000000000000000000000007070000000000
310
00000000000000000000070000000000000000000000000000000000000000000000000000000000000007000000000000000700000000000000000000000000000000000000000000000000000000000000000000000000000000000000000000000000000000000000000000000000000000000000000000000000000000
310
00000000000000000000000000000000000000000000000000000000000000000000000000000000000000000007070007070000000000000000000000000700000000000000000000000000000000000000000000000000000000000000000700000000000000070000000000000000000000000000000000000000000000
310
00000000000000000000000000000000000000000000000000000000000000000000000000000000000000000000000000000000000000000000000000000000000000000000000000000000000000000000000000000000000000000000000000070700000000070000000000000000000000070000000000000000000000
310
00000000000000000000000000000000000000000007000000000000000700000000000000000000000000000000000000000000000000000000000000000000000000000000000000000000000000000000000000000000000000000000000000000000000000000000000000000000000000000000000000000000000000
310
00000000000000000000000000000000000000000000000700000000000007070700000000000000070707070707000000000000000000000000000000000000000000000000000000000700000000000000070000000000000000000000000000000000000000000000000000000000000000000000000000000000000000
310
00000000000000000000000000000000000000000000000000000000000000000000000000000000000000000000000000000000000000000000000000000000000000000000000000000000070000000000000007000707000000000007000000000707070000000000000000000000000000000000000000000000000000
310
07000000000000000700000000000000000000000000000000000000000000000000000000000000000000000000000000000000000000000000000000000000000000000000000000000000000000000000000000000000000000000000000000000000000000000000000000000000000000000000000000000000000000
310
00070000000000000000070000000700000007000000000000000707070000000000000000000000000000000000000000000000000700000000000000070000000000000000000000000000000000000000000000000000000000000000000000000000000000000000000000000000000000000000000000000000000000
310
00000000000000000000000000000000000000000000000000000000000000000000000000000000000000000000000000000000000007000000000000000007070000000707070700000000000000000007000000000000000000000000000000000000000000000000070000000000000007000000000000000000000000
310
00000000000000000000000000000000000000000000000000000000000000000000000000000000000000000000000000000000000000000000000000000000000000000000000000000000000000000000000000000000000000000000000000000000000000000000000700000000000000000007070000000007000000
310
00000000000000000707000000000000000000000000000000000000000000000700000000000000070000000000000000000000000000000000000000000000000000000000000000000000000000000000000000000000000000000000000000000000000000000000000000000000000000000000000000000000000000
310
00000000000000000000000000000000000000000000000000000000000000000007000000000000000000000700000000070000000000000000000000000707000000000000000000000000000000000000000000070000000000000007000000000000000000000000000000000000000000000000000000000000000000
310
00000000000000000000000000000000000000000000000000000000000000000000000000000000000000000000000000000000000000000000000000000000000000000000000000000000000000000000000000000707000000000000000000070700000700000000000000000000000000000700000000000000000707
310
07070707070707070707070700000000000000070000000000000000000000000000000000000000000000000000000000000000000000000000000000000000000000000000000000000000000000000000000000000000000000000000000000000000000000000000000000000000000000000000000000000000000000
310
00000000000000000000000000070000000000000000000007070700000000000000000000000000000007070000000707070700000000000000000000000000070000000000000007000000000000000000000000000000000000000000000000000000000000000000000000000000000000000000000000000000000000
310
00000000000000000000000000000000000000000000000000000000000000000000000000000000000000000000000000000000000000000000000000000000000007000000000000000000000000070000000000000000000000000000000007070707000000000000000000000000000000000007000000000000000700
310
00000000000000000000000000000000000000000000000000000000000000000000000000000000000000000000000000000000000000000000000000000000000000000000000000000000000000000000000000000000000000000000000000000000000000000000000000000000000000000000000700000000000000
310
00000000070000000000000000000000000000000000070700000000000000000000000000000000000000070000000000000007000000000000000000000000000000000000000000000000000000000000000000000000000000000000000000000000000000000000000000000000000000000000000000000000000000
310
00000000000000000000000000000000000000000000000000000000000000000000000000000000000000000000070000000000000000000707000000000000000000000000000000000007070000000000000000000000000000000000000007000000000000000700000000000000000000000000000000000000000000
310
00000000000000000000000000000000000000000000000000000000000000000000000000000000000000000000000000000000000000000000000000000000000000000000000000000000000000000000000000000000000000000000000000000007000000000000000707070000000000000000000000000000000000
310
00070000000000000000000000000000000000000000070000000000000007000000000000000000000000000000000000000000000000000000000000000000000000000000000000000000000000000000000000000000000000000000000000000000000000000000000000000000000000000000000000000000000000
310
00000000000000000000000000000000000000000000000000000700000007070700000700000000000000000000000000000000000700000000000000000000000000000000000000000007000000000000000700000000000000000000000000000000000000000000000000000000000000000000000000000000000000
310
00000000000000000000000000000000000000000000000000000000000000000000000000000000000000000000000000000000000000000000000000000000000000000000000000000000000000000707070000000007000000000000000000000000000000000007000000000000000000000000000000000000000000
310
00070000000000000007000000000000000000000000000000000000000000000000000000000000000000000000000000000000000000000000000000000000000000000000000000000000000000000000000000000000000000000000000000000000000000000000000000000000000000000000000000000000000000
310
00000000000000000000000007070707070700000000000000000000000007000000000000000000000000000000000000000000000007000000000000000700000000000000000000000000000000000000000000000000000000000000000000000000000000000000000000000000000000000000000000000000000000
310
00000000000000000000000000000000000000000000000000000000000000000000000000000000000000000000000000000000000000000000000000000000000700000000070707000000000000000000000700000000000000000000000000000000000000000000000700000000000000070000000000000000000000
310
00000000000000000000000000000000000000000000000000000000000000000000000000000000000000000000000000000000000000000000000000000000000000000000000000000000000000000000000000000000000000000000000000000000000000000000000000000000000000000000070000000000000707
310
00000000000000000700000000000000000000000000000000000000000000000007000000000000000700000000000000000000000000000000000000000000000000000000000000000000000000000000000000000000000000000000000000000000000000000000000000000000000000000000000000000000000000
310
00000000000000000000000000000000000000000000000000000000000000000000000000000000000000000707000000000000070700000000000007000000000000000000000000000000000000000000000000000700000000000000070000000000000000000000000000000000000000000000000000000000000000
310
00000000000000000000000000000000000000000000000000000000000000000000000000000000000000000000000000000000000000000000000000000000000000000000000000000000000000000000000000000000000000000000000000000700000000000000070700000000000700000000000000000000000000
310
00000000000000000000000007000000000000000700000000000000000000000000000000000000000000000000000000000000000000000000000000000000000000000000000000000000000000000000000000000000000000000000000000000000000000000000000000000000000000000000000000000000000000
310
00000000000000000000000000000000000000000000000000070000000000000007000000000700000000000000000000000000000000000000000000000000000700000000000000070000000000000000000000000000000000000000000000000000000000000000000000000000000000000000000000000000000000
310
00000000000000000000000000000000000000000000000000000000000000000000000000000000000000000000000000000000000000000000000000000000000000000000000000000000000007070000000000000007000007000000000000000000000000000000000000000000000000000000070707070707070700
310
00000000000000000000000000000000000000000000000000000000000000000000000000000000000000000000000000000000000000000000000000000000000000000000000000000000000000000000000000000000000000000000000000000000000000000000000000000000000000000000000000000000000000
310
00000000000007000000000000070007000000000000000000000000000000000000000000000000000000000000000000000000000000000000000000000000000000000000000000000000000000000000000000000000000000000000000000000000000000000000000000000000000000000000000000000000000000
310
00000000000000000000000000000000000000000000000000000000000000000000000000000000000000000000000000000000000000000000000007000000000000070700000000000000000000000000000000000000000000000000000000000000000000000000000000000000000000000000000000000000000000
310
00000000000000000000000000000000000000000000000000000000000000000000000000000000000000000000000000000000000000000000000000000000000000000000000000000000000000000000000000000000000000000000000000000000000000000000000000000000000007070000000007070000000000
310
00000000000000000000000000000000000000000000000000000000000000000000000000000000000000000000000000000000000000000000000000000000000000000000000000000000000000000000000000000000000000000000000000000000000000000000000000000000000000000000000000000000000000
310
00000000000000000000000000000000000000000000000000000000000000000000000000000000000007070000070000000000000000000000000000000000000000000000000000000000000000000000000000000000000000000000000000000000000000000000000000000000000000000000000000000000000000
310
00000000000000000000000000000000000000000000000000000000000000000000000000000000000000000000000000000000000000000000000000000000000000000000000000000000000000000000000000000000000000000000000007070707000000000000000000000000000000000000000000000000000000
310
00000000000000000000000000000000000000000000000000000000000000000000000000000000000000000000000000000000000000000000000000000000000000000000000000000000000000000000000000000000000000000000000000000000000000000000000000000000000000000000000000000000000000
310
000000000000000000000000000000000000000000000000000000000000000000000000000000000000000000000000000000000000000000000000000000000000000000000000000000000000000000000000000000000000000000000000000000000000000000000000
  0
ENDSEC
  0
EOF
