  0
SECTION
  2
HEADER
  9
$ACADVER
  1
AC1014
  9
$ACADMAINTVER
 70
     9
  9
$DWGCODEPAGE
  3
ANSI_1252
  9
$INSBASE
 10
0.0
 20
0.0
 30
0.0
  9
$EXTMIN
 10
0.243365000000009
 20
-0.0327000000000232
 30
0.0
  9
$EXTMAX
 10
65.756635
 20
705.0327
 30
0.0
  9
$LIMMIN
 10
0.0
 20
0.0
  9
$LIMMAX
 10
12.0
 20
9.0
  9
$ORTHOMODE
 70
     0
  9
$REGENMODE
 70
     1
  9
$FILLMODE
 70
     1
  9
$QTEXTMODE
 70
     0
  9
$MIRRTEXT
 70
     1
  9
$DRAGMODE
 70
     2
  9
$LTSCALE
 40
1.0
  9
$OSMODE
 70
    37
  9
$ATTMODE
 70
     1
  9
$TEXTSIZE
 40
0.2
  9
$TRACEWID
 40
0.05
  9
$TEXTSTYLE
  7
STANDARD
  9
$CLAYER
  8
0
  9
$CELTYPE
  6
CONTINUOUS
  9
$CECOLOR
 62
   256
  9
$CELTSCALE
 40
1.0
  9
$DELOBJ
 70
     1
  9
$DISPSILH
 70
     0
  9
$DIMSCALE
 40
1.0
  9
$DIMASZ
 40
0.18
  9
$DIMEXO
 40
0.0625
  9
$DIMDLI
 40
0.38
  9
$DIMRND
 40
0.0
  9
$DIMDLE
 40
0.0
  9
$DIMEXE
 40
0.18
  9
$DIMTP
 40
0.0
  9
$DIMTM
 40
0.0
  9
$DIMTXT
 40
0.18
  9
$DIMCEN
 40
0.09
  9
$DIMTSZ
 40
0.0
  9
$DIMTOL
 70
     0
  9
$DIMLIM
 70
     0
  9
$DIMTIH
 70
     1
  9
$DIMTOH
 70
     1
  9
$DIMSE1
 70
     0
  9
$DIMSE2
 70
     0
  9
$DIMTAD
 70
     0
  9
$DIMZIN
 70
     0
  9
$DIMBLK
  1

  9
$DIMASO
 70
     1
  9
$DIMSHO
 70
     1
  9
$DIMPOST
  1

  9
$DIMAPOST
  1

  9
$DIMALT
 70
     0
  9
$DIMALTD
 70
     2
  9
$DIMALTF
 40
25.4
  9
$DIMLFAC
 40
1.0
  9
$DIMTOFL
 70
     0
  9
$DIMTVP
 40
0.0
  9
$DIMTIX
 70
     0
  9
$DIMSOXD
 70
     0
  9
$DIMSAH
 70
     0
  9
$DIMBLK1
  1

  9
$DIMBLK2
  1

  9
$DIMSTYLE
  2
STANDARD
  9
$DIMCLRD
 70
     0
  9
$DIMCLRE
 70
     0
  9
$DIMCLRT
 70
     0
  9
$DIMTFAC
 40
1.0
  9
$DIMGAP
 40
0.09
  9
$DIMJUST
 70
     0
  9
$DIMSD1
 70
     0
  9
$DIMSD2
 70
     0
  9
$DIMTOLJ
 70
     1
  9
$DIMTZIN
 70
     0
  9
$DIMALTZ
 70
     0
  9
$DIMALTTZ
 70
     0
  9
$DIMFIT
 70
     3
  9
$DIMUPT
 70
     0
  9
$DIMUNIT
 70
     2
  9
$DIMDEC
 70
     4
  9
$DIMTDEC
 70
     4
  9
$DIMALTU
 70
     2
  9
$DIMALTTD
 70
     2
  9
$DIMTXSTY
  7
STANDARD
  9
$DIMAUNIT
 70
     0
  9
$LUNITS
 70
     2
  9
$LUPREC
 70
     4
  9
$SKETCHINC
 40
0.1
  9
$FILLETRAD
 40
0.0
  9
$AUNITS
 70
     0
  9
$AUPREC
 70
     0
  9
$MENU
  1
.
  9
$ELEVATION
 40
0.0
  9
$PELEVATION
 40
0.0
  9
$THICKNESS
 40
0.0
  9
$LIMCHECK
 70
     0
  9
$BLIPMODE
 70
     0
  9
$CHAMFERA
 40
0.0
  9
$CHAMFERB
 40
0.0
  9
$CHAMFERC
 40
0.0
  9
$CHAMFERD
 40
0.0
  9
$SKPOLY
 70
     0
  9
$TDCREATE
 40
2454697.350355902
  9
$TDUPDATE
 40
2454697.354418935
  9
$TDINDWG
 40
0.0040632176
  9
$TDUSRTIMER
 40
0.0040632176
  9
$USRTIMER
 70
     1
  9
$ANGBASE
 50
0.0
  9
$ANGDIR
 70
     0
  9
$PDMODE
 70
     0
  9
$PDSIZE
 40
0.0
  9
$PLINEWID
 40
0.0
  9
$COORDS
 70
     1
  9
$SPLFRAME
 70
     0
  9
$SPLINETYPE
 70
     6
  9
$SPLINESEGS
 70
     8
  9
$ATTDIA
 70
     0
  9
$ATTREQ
 70
     1
  9
$HANDLING
 70
 22529
  9
$HANDSEED
  5
91F
  9
$SURFTAB1
 70
     6
  9
$SURFTAB2
 70
     6
  9
$SURFTYPE
 70
     6
  9
$SURFU
 70
     6
  9
$SURFV
 70
     6
  9
$UCSNAME
  2

  9
$UCSORG
 10
0.0
 20
0.0
 30
0.0
  9
$UCSXDIR
 10
1.0
 20
0.0
 30
0.0
  9
$UCSYDIR
 10
0.0
 20
1.0
 30
0.0
  9
$PUCSNAME
  2

  9
$PUCSORG
 10
0.0
 20
0.0
 30
0.0
  9
$PUCSXDIR
 10
1.0
 20
0.0
 30
0.0
  9
$PUCSYDIR
 10
0.0
 20
1.0
 30
0.0
  9
$USERI1
 70
     0
  9
$USERI2
 70
     0
  9
$USERI3
 70
     0
  9
$USERI4
 70
     0
  9
$USERI5
 70
     0
  9
$USERR1
 40
0.0
  9
$USERR2
 40
0.0
  9
$USERR3
 40
0.0
  9
$USERR4
 40
0.0
  9
$USERR5
 40
0.0
  9
$WORLDVIEW
 70
     1
  9
$SHADEDGE
 70
     3
  9
$SHADEDIF
 70
    70
  9
$TILEMODE
 70
     1
  9
$MAXACTVP
 70
    64
  9
$PINSBASE
 10
0.0
 20
0.0
 30
0.0
  9
$PLIMCHECK
 70
     0
  9
$PEXTMIN
 10
1.000000000000000E+20
 20
1.000000000000000E+20
 30
1.000000000000000E+20
  9
$PEXTMAX
 10
-1.000000000000000E+20
 20
-1.000000000000000E+20
 30
-1.000000000000000E+20
  9
$PLIMMIN
 10
0.0
 20
0.0
  9
$PLIMMAX
 10
12.0
 20
9.0
  9
$UNITMODE
 70
     0
  9
$VISRETAIN
 70
     1
  9
$PLINEGEN
 70
     0
  9
$PSLTSCALE
 70
     1
  9
$TREEDEPTH
 70
  3020
  9
$PICKSTYLE
 70
     1
  9
$CMLSTYLE
  2
STANDARD
  9
$CMLJUST
 70
     0
  9
$CMLSCALE
 40
1.0
  9
$PROXYGRAPHICS
 70
     1
  9
$MEASUREMENT
 70
     0
  0
ENDSEC
  0
SECTION
  2
CLASSES
  0
CLASS
  1
ACDBDICTIONARYWDFLT
  2
AcDbDictionaryWithDefault
  3
AutoCAD 2000
 90
        0
280
     0
281
     0
  0
CLASS
  1
ACDBPLACEHOLDER
  2
AcDbPlaceHolder
  3
AutoCAD 2000
 90
        0
280
     0
281
     0
  0
CLASS
  1
LAYOUT
  2
AcDbLayout
  3
AutoCAD 2000
 90
        0
280
     0
281
     0
  0
CLASS
  1
DICTIONARYVAR
  2
AcDbDictionaryVar
  3
AutoCAD 2000
 90
        0
280
     0
281
     0
  0
CLASS
  1
LONG_TRANSACTION
  2
AcDbLongTransaction
  3
AutoCAD 2000
 90
        0
280
     0
281
     0
  0
CLASS
  1
LWPOLYLINE
  2
AcDbPolyline
  3
AutoCAD 2000
 90
        0
280
     0
281
     1
  0
CLASS
  1
HATCH
  2
AcDbHatch
  3
AutoCAD 2000
 90
        0
280
     0
281
     1
  0
CLASS
  1
XRECORD
  2
AcDbXrecord
  3
AutoCAD 2000
 90
        0
280
     0
281
     0
  0
ENDSEC
  0
SECTION
  2
TABLES
  0
TABLE
  2
VPORT
  5
8
330
0
100
AcDbSymbolTable
 70
     2
  0
VPORT
  5
8FA
330
8
100
AcDbSymbolTableRecord
100
AcDbViewportTableRecord
  2
*ACTIVE
 70
     0
 10
0.0
 20
0.0
 11
1.0
 21
1.0
 12
33.0
 22
352.4999999999999
 13
0.0
 23
0.0
 14
1.0
 24
1.0
 15
0.0
 25
0.0
 16
0.0
 26
0.0
 36
1.0
 17
0.0
 27
0.0
 37
0.0
 40
710.4751089514065
 41
2.078104993597951
 42
50.0
 43
0.0
 44
0.0
 50
0.0
 51
0.0
 71
     0
 72
   100
 73
     1
 74
     3
 75
     0
 76
     0
 77
     0
 78
     0
  0
ENDTAB
  0
TABLE
  2
LTYPE
  5
5
330
0
100
AcDbSymbolTable
 70
     1
  0
LTYPE
  5
13
330
5
100
AcDbSymbolTableRecord
100
AcDbLinetypeTableRecord
  2
BYBLOCK
 70
     0
  3

 72
    65
 73
     0
 40
0.0
  0
LTYPE
  5
14
330
5
100
AcDbSymbolTableRecord
100
AcDbLinetypeTableRecord
  2
BYLAYER
 70
     0
  3

 72
    65
 73
     0
 40
0.0
  0
LTYPE
  5
15
330
5
100
AcDbSymbolTableRecord
100
AcDbLinetypeTableRecord
  2
CONTINUOUS
 70
     0
  3
Solid line
 72
    65
 73
     0
 40
0.0
  0
ENDTAB
  0
TABLE
  2
LAYER
  5
2
330
0
100
AcDbSymbolTable
 70
     1
  0
LAYER
  5
10
330
2
100
AcDbSymbolTableRecord
100
AcDbLayerTableRecord
  2
0
 70
     0
 62
     7
  6
CONTINUOUS
  0
ENDTAB
  0
TABLE
  2
STYLE
  5
3
330
0
100
AcDbSymbolTable
 70
     1
  0
STYLE
  5
11
330
3
100
AcDbSymbolTableRecord
100
AcDbTextStyleTableRecord
  2
STANDARD
 70
     0
 40
0.0
 41
1.0
 50
0.0
 71
     0
 42
0.2
  3
txt
  4

  0
ENDTAB
  0
TABLE
  2
VIEW
  5
6
330
0
100
AcDbSymbolTable
 70
     0
  0
ENDTAB
  0
TABLE
  2
UCS
  5
7
330
0
100
AcDbSymbolTable
 70
     0
  0
ENDTAB
  0
TABLE
  2
APPID
  5
9
330
0
100
AcDbSymbolTable
 70
     1
  0
APPID
  5
12
330
9
100
AcDbSymbolTableRecord
100
AcDbRegAppTableRecord
  2
ACAD
 70
     0
  0
ENDTAB
  0
TABLE
  2
DIMSTYLE
  5
A
330
0
100
AcDbSymbolTable
 70
     1
  0
DIMSTYLE
105
8F4
330
A
100
AcDbSymbolTableRecord
100
AcDbDimStyleTableRecord
  2
STANDARD
 70
     0
  3

  4

  5

  6

  7

 40
1.0
 41
0.18
 42
0.0625
 43
0.38
 44
0.18
 45
0.0
 46
0.0
 47
0.0
 48
0.0
140
0.18
141
0.09
142
0.0
143
25.4
144
1.0
145
0.0
146
1.0
147
0.09
 71
     0
 72
     0
 73
     1
 74
     1
 75
     0
 76
     0
 77
     0
 78
     0
170
     0
171
     2
172
     0
173
     0
174
     0
175
     0
176
     0
177
     0
178
     0
270
     2
271
     4
272
     4
273
     2
274
     2
340
11
275
     0
280
     0
281
     0
282
     0
283
     1
284
     0
285
     0
286
     0
287
     3
288
     0
  0
ENDTAB
  0
TABLE
  2
BLOCK_RECORD
  5
1
330
0
100
AcDbSymbolTable
 70
     0
  0
BLOCK_RECORD
  5
1E
102
{ACAD_XDICTIONARY
360
91D
102
}
330
1
100
AcDbSymbolTableRecord
100
AcDbBlockTableRecord
  2
*MODEL_SPACE
  0
BLOCK_RECORD
  5
1A
102
{ACAD_XDICTIONARY
360
91B
102
}
330
1
100
AcDbSymbolTableRecord
100
AcDbBlockTableRecord
  2
*PAPER_SPACE
  0
ENDTAB
  0
ENDSEC
  0
SECTION
  2
BLOCKS
  0
BLOCK
  5
1F
330
1E
100
AcDbEntity
  8
0
100
AcDbBlockBegin
  2
*MODEL_SPACE
 70
     0
 10
0.0
 20
0.0
 30
0.0
  3
*MODEL_SPACE
  1

  0
ENDBLK
  5
20
330
1E
100
AcDbEntity
  8
0
100
AcDbBlockEnd
  0
BLOCK
  5
1B
330
1A
100
AcDbEntity
 67
     1
  8
0
100
AcDbBlockBegin
  2
*PAPER_SPACE
 70
     0
 10
0.0
 20
0.0
 30
0.0
  3
*PAPER_SPACE
  1

  0
ENDBLK
  5
1C
330
1A
100
AcDbEntity
 67
     1
  8
0
100
AcDbBlockEnd
  0
ENDSEC
  0
SECTION
  2
ENTITIES
  0
LINE
  5
22
330
1E
100
AcDbEntity
  8
0
100
AcDbLine
 10
20.231335
 20
661.4357
 30
0.0
 11
20.514035
 21
661.5527
 31
0.0
  0
LINE
  5
23
330
1E
100
AcDbEntity
  8
0
100
AcDbLine
 10
20.160735
 20
661.0727
 30
0.0
 11
20.231335
 21
661.4357
 31
0.0
  0
LINE
  5
24
330
1E
100
AcDbEntity
  8
0
100
AcDbLine
 10
20.160735
 20
661.0727
 30
0.0
 11
22.98933499999999
 21
654.2517
 31
0.0
  0
LINE
  5
26
330
1E
100
AcDbEntity
  8
0
100
AcDbLine
 10
18.384335
 20
665.7757
 30
0.0
 11
18.666935
 21
665.8927
 31
0.0
  0
LINE
  5
27
330
1E
100
AcDbEntity
  8
0
100
AcDbLine
 10
18.666935
 20
665.8927
 30
0.0
 11
19.420735
 21
666.2056999999999
 31
0.0
  0
LINE
  5
28
330
1E
100
AcDbEntity
  8
0
100
AcDbLine
 10
20.514035
 20
661.5527
 30
0.0
 11
21.267735
 21
661.8656999999999
 31
0.0
  0
LINE
  5
29
330
1E
100
AcDbEntity
  8
0
100
AcDbLine
 10
20.514035
 20
661.5527
 30
0.0
 11
20.56667457950939
 21
661.5745604065099
 31
0.0
  0
LINE
  5
2A
330
1E
100
AcDbEntity
  8
0
100
AcDbLine
 10
21.267735
 20
661.8656999999999
 30
0.0
 11
22.492635
 21
662.3727
 31
0.0
  0
LINE
  5
2C
330
1E
100
AcDbEntity
  8
0
100
AcDbLine
 10
22.98933499999999
 20
654.2517
 30
0.0
 11
23.295635
 21
654.0456999999999
 31
0.0
  0
LINE
  5
2D
330
1E
100
AcDbEntity
  8
0
100
AcDbLine
 10
23.295635
 20
654.0456999999999
 30
0.0
 11
23.57833499999999
 21
654.1627
 31
0.0
  0
LINE
  5
2E
330
1E
100
AcDbEntity
  8
0
100
AcDbLine
 10
23.57833499999999
 20
654.1627
 30
0.0
 11
24.332035
 21
654.4756999999999
 31
0.0
  0
LINE
  5
2F
330
1E
100
AcDbEntity
  8
0
100
AcDbLine
 10
23.57833499999999
 20
654.1627
 30
0.0
 11
23.71997061925089
 21
654.221519090919
 31
0.0
  0
LINE
  5
31
330
1E
100
AcDbEntity
  8
0
100
AcDbLine
 10
22.492635
 20
662.3727
 30
0.0
 11
24.094435
 21
663.0377
 31
0.0
  0
LINE
  5
33
330
1E
100
AcDbEntity
  8
0
100
AcDbLine
 10
0.3773350000000089
 20
692.8007
 30
0.0
 11
16.109435
 21
669.5526999999999
 31
0.0
  0
LINE
  5
34
330
1E
100
AcDbEntity
  8
0
100
AcDbLine
 10
0.243365000000009
 20
695.0326999999999
 30
0.0
 11
0.5897750000000091
 21
695.2327
 31
0.0
  0
LINE
  5
35
330
1E
100
AcDbEntity
  8
0
100
AcDbLine
 10
0.5897750000000091
 20
695.2327
 30
0.0
 11
1.36919500000001
 21
695.6826999999999
 31
0.0
  0
LINE
  5
36
330
1E
100
AcDbEntity
  8
0
100
AcDbLine
 10
1.36919500000001
 20
695.6826999999999
 30
0.0
 11
2.754835000000009
 21
696.4827
 31
0.0
  0
LINE
  5
37
330
1E
100
AcDbEntity
  8
0
100
AcDbLine
 10
0.243365000000009
 20
695.0326999999999
 30
0.0
 11
0.3773350000000089
 21
692.8007
 31
0.0
  0
LINE
  5
38
330
1E
100
AcDbEntity
  8
0
100
AcDbLine
 10
0.243365000000009
 20
695.0326999999999
 30
0.0
 11
0.5897750000000091
 21
695.2327
 31
0.0
  0
LINE
  5
39
330
1E
100
AcDbEntity
  8
0
100
AcDbLine
 10
0.3773350000000089
 20
692.8007
 30
0.0
 11
16.109435
 21
669.5526999999999
 31
0.0
  0
LINE
  5
3A
330
1E
100
AcDbEntity
  8
0
100
AcDbLine
 10
2.754835000000009
 20
696.4827
 30
0.0
 11
4.573485000000009
 21
697.5327
 31
0.0
  0
LINE
  5
3B
330
1E
100
AcDbEntity
  8
0
100
AcDbLine
 10
4.573485000000009
 20
697.5327
 30
0.0
 11
6.651945000000009
 21
698.7327
 31
0.0
  0
LINE
  5
3C
330
1E
100
AcDbEntity
  8
0
100
AcDbLine
 10
16.36923499999999
 20
669.7027
 30
0.0
 11
17.148635
 21
670.1526999999999
 31
0.0
  0
LINE
  5
3D
330
1E
100
AcDbEntity
  8
0
100
AcDbLine
 10
16.109435
 20
669.5526999999999
 30
0.0
 11
16.36923499999999
 21
669.7027
 31
0.0
  0
LINE
  5
3E
330
1E
100
AcDbEntity
  8
0
100
AcDbLine
 10
13.233735
 20
702.5326999999999
 30
0.0
 11
15.052435
 21
703.5827
 31
0.0
  0
LINE
  5
3F
330
1E
100
AcDbEntity
  8
0
100
AcDbLine
 10
11.155235
 20
701.3327
 30
0.0
 11
13.233735
 21
702.5326999999999
 31
0.0
  0
LINE
  5
40
330
1E
100
AcDbEntity
  8
0
100
AcDbLine
 10
8.90363500000001
 20
700.0326999999999
 30
0.0
 11
11.155235
 21
701.3327
 31
0.0
  0
LINE
  5
41
330
1E
100
AcDbEntity
  8
0
100
AcDbLine
 10
15.052435
 20
703.5827
 30
0.0
 11
16.43803499999999
 21
704.3827
 31
0.0
  0
LINE
  5
42
330
1E
100
AcDbEntity
  8
0
100
AcDbLine
 10
16.50295694955909
 20
669.779906668337
 30
0.0
 11
18.078035
 21
665.9817
 31
0.0
  0
LINE
  5
43
330
1E
100
AcDbEntity
  8
0
100
AcDbLine
 10
18.078035
 20
665.9817
 30
0.0
 11
18.384335
 21
665.7757
 31
0.0
  0
LINE
  5
45
330
1E
100
AcDbEntity
  8
0
100
AcDbLine
 10
18.361035
 20
670.8527
 30
0.0
 11
20.00653499999999
 21
671.8026999999999
 31
0.0
  0
LINE
  5
46
330
1E
100
AcDbEntity
  8
0
100
AcDbLine
 10
17.148635
 20
670.1526999999999
 30
0.0
 11
18.361035
 21
670.8527
 31
0.0
  0
LINE
  5
47
330
1E
100
AcDbEntity
  8
0
100
AcDbLine
 10
17.217435
 20
704.8327
 30
0.0
 11
17.563835
 21
705.0327
 31
0.0
  0
LINE
  5
48
330
1E
100
AcDbEntity
  8
0
100
AcDbLine
 10
16.43803499999999
 20
704.3827
 30
0.0
 11
17.217435
 21
704.8327
 31
0.0
  0
LINE
  5
49
330
1E
100
AcDbEntity
  8
0
100
AcDbLine
 10
17.563835
 20
705.0327
 30
0.0
 11
19.429935
 21
703.8007
 31
0.0
  0
LINE
  5
4A
330
1E
100
AcDbEntity
  8
0
100
AcDbLine
 10
6.651945000000009
 20
698.7327
 30
0.0
 11
8.90363500000001
 21
700.0326999999999
 31
0.0
  0
LINE
  5
4C
330
1E
100
AcDbEntity
  8
0
100
AcDbLine
 10
19.420735
 20
666.2056999999999
 30
0.0
 11
20.645635
 21
666.7137
 31
0.0
  0
LINE
  5
4E
330
1E
100
AcDbEntity
  8
0
100
AcDbLine
 10
20.645635
 20
666.7137
 30
0.0
 11
22.247335
 21
667.3777
 31
0.0
  0
LINE
  5
50
330
1E
100
AcDbEntity
  8
0
100
AcDbLine
 10
20.00653499999999
 20
671.8026999999999
 30
0.0
 11
21.911735
 21
672.9027
 31
0.0
  0
LINE
  5
51
330
1E
100
AcDbEntity
  8
0
100
AcDbLine
 10
22.247335
 20
667.3777
 30
0.0
 11
24.068935
 21
668.1327
 31
0.0
  0
LINE
  5
53
330
1E
100
AcDbEntity
  8
0
100
AcDbLine
 10
21.911735
 20
672.9027
 30
0.0
 11
23.903635
 21
674.0527
 31
0.0
  0
LINE
  5
54
330
1E
100
AcDbEntity
  8
0
100
AcDbLine
 10
19.429935
 20
703.8007
 30
0.0
 11
31.69783499999999
 21
678.5527
 31
0.0
  0
LINE
  5
56
330
1E
100
AcDbEntity
  8
0
100
AcDbLine
 10
18.7076271678779
 20
665.9095965886789
 30
0.0
 11
20.56667457950939
 21
661.5745604065099
 31
0.0
  0
LINE
  5
57
330
1E
100
AcDbEntity
  8
0
100
AcDbLine
 10
25.616835
 20
647.7776999999999
 30
0.0
 11
25.712735
 21
648.1346999999999
 31
0.0
  0
LINE
  5
58
330
1E
100
AcDbEntity
  8
0
100
AcDbLine
 10
25.616835
 20
647.7776999999999
 30
0.0
 11
27.958335
 21
640.7747
 31
0.0
  0
LINE
  5
59
330
1E
100
AcDbEntity
  8
0
100
AcDbLine
 10
25.712735
 20
648.1346999999999
 30
0.0
 11
26.002935
 21
648.2317
 31
0.0
  0
LINE
  5
5A
330
1E
100
AcDbEntity
  8
0
100
AcDbLine
 10
26.002935
 20
648.2317
 30
0.0
 11
26.776835
 21
648.4906999999999
 31
0.0
  0
LINE
  5
5B
330
1E
100
AcDbEntity
  8
0
100
AcDbLine
 10
26.002935
 20
648.2317
 30
0.0
 11
26.1280738573737
 21
648.2735800414261
 31
0.0
  0
LINE
  5
5D
330
1E
100
AcDbEntity
  8
0
100
AcDbLine
 10
27.958335
 20
640.7747
 30
0.0
 11
28.24943499999999
 21
640.5476999999999
 31
0.0
  0
LINE
  5
5E
330
1E
100
AcDbEntity
  8
0
100
AcDbLine
 10
28.24943499999999
 20
640.5476999999999
 30
0.0
 11
28.53963499999999
 21
640.6447
 31
0.0
  0
LINE
  5
5F
330
1E
100
AcDbEntity
  8
0
100
AcDbLine
 10
28.53963499999999
 20
640.6447
 30
0.0
 11
29.313535
 21
640.9027
 31
0.0
  0
LINE
  5
61
330
1E
100
AcDbEntity
  8
0
100
AcDbLine
 10
26.776835
 20
648.4906999999999
 30
0.0
 11
28.034435
 21
648.9107
 31
0.0
  0
LINE
  5
63
330
1E
100
AcDbEntity
  8
0
100
AcDbLine
 10
28.034435
 20
648.9107
 30
0.0
 11
29.678935
 21
649.4607
 31
0.0
  0
LINE
  5
65
330
1E
100
AcDbEntity
  8
0
100
AcDbLine
 10
34.788235
 20
620.2507
 30
0.0
 11
34.915335
 21
620.5977
 31
0.0
  0
LINE
  5
66
330
1E
100
AcDbEntity
  8
0
100
AcDbLine
 10
34.788235
 20
620.2507
 30
0.0
 11
36.498635
 21
613.0676999999999
 31
0.0
  0
LINE
  5
67
330
1E
100
AcDbEntity
  8
0
100
AcDbLine
 10
36.498635
 20
613.0676999999999
 30
0.0
 11
36.768335
 21
612.8156999999999
 31
0.0
  0
LINE
  5
68
330
1E
100
AcDbEntity
  8
0
100
AcDbLine
 10
36.768335
 20
612.8156999999999
 30
0.0
 11
37.06603499999999
 21
612.8857
 31
0.0
  0
LINE
  5
69
330
1E
100
AcDbEntity
  8
0
100
AcDbLine
 10
37.06603499999999
 20
612.8857
 30
0.0
 11
37.85983499999999
 21
613.0747
 31
0.0
  0
LINE
  5
6C
330
1E
100
AcDbEntity
  8
0
100
AcDbLine
 10
34.915335
 20
620.5977
 30
0.0
 11
35.213035
 21
620.6686999999999
 31
0.0
  0
LINE
  5
6D
330
1E
100
AcDbEntity
  8
0
100
AcDbLine
 10
34.915335
 20
620.5977
 30
0.0
 11
35.09778986730049
 21
620.641214597173
 31
0.0
  0
LINE
  5
6E
330
1E
100
AcDbEntity
  8
0
100
AcDbLine
 10
33.461635
 20
626.4547
 30
0.0
 11
33.75303499999999
 21
626.5476999999999
 31
0.0
  0
LINE
  5
6F
330
1E
100
AcDbEntity
  8
0
100
AcDbLine
 10
33.461635
 20
626.4547
 30
0.0
 11
33.6084996277727
 21
626.5015716897149
 31
0.0
  0
LINE
  5
70
330
1E
100
AcDbEntity
  8
0
100
AcDbLine
 10
35.213035
 20
620.6686999999999
 30
0.0
 11
36.00683499999999
 21
620.8577
 31
0.0
  0
LINE
  5
71
330
1E
100
AcDbEntity
  8
0
100
AcDbLine
 10
36.00683499999999
 20
620.8577
 30
0.0
 11
37.29683499999999
 21
621.1647
 31
0.0
  0
LINE
  5
73
330
1E
100
AcDbEntity
  8
0
100
AcDbLine
 10
37.85983499999999
 20
613.0747
 30
0.0
 11
39.149735
 21
613.3827
 31
0.0
  0
LINE
  5
75
330
1E
100
AcDbEntity
  8
0
100
AcDbLine
 10
37.29683499999999
 20
621.1647
 30
0.0
 11
38.983635
 21
621.5666999999999
 31
0.0
  0
LINE
  5
77
330
1E
100
AcDbEntity
  8
0
100
AcDbLine
 10
37.06854392908079
 20
612.886297364067
 30
0.0
 11
38.75412666903229
 21
606.253529282358
 31
0.0
  0
LINE
  5
78
330
1E
100
AcDbEntity
  8
0
100
AcDbLine
 10
29.313535
 20
640.9027
 30
0.0
 11
30.571035
 21
641.3237
 31
0.0
  0
LINE
  5
7A
330
1E
100
AcDbEntity
  8
0
100
AcDbLine
 10
29.678935
 20
649.4607
 30
0.0
 11
31.54923499999999
 21
650.0856999999999
 31
0.0
  0
LINE
  5
7B
330
1E
100
AcDbEntity
  8
0
100
AcDbLine
 10
30.918235
 20
633.7166999999999
 30
0.0
 11
31.01843499999999
 21
634.0727000000001
 31
0.0
  0
LINE
  5
7C
330
1E
100
AcDbEntity
  8
0
100
AcDbLine
 10
30.918235
 20
633.7166999999999
 30
0.0
 11
33.17343499999999
 21
626.6856999999999
 31
0.0
  0
LINE
  5
7D
330
1E
100
AcDbEntity
  8
0
100
AcDbLine
 10
31.01843499999999
 20
634.0727000000001
 30
0.0
 11
31.30983499999999
 21
634.1657
 31
0.0
  0
LINE
  5
7E
330
1E
100
AcDbEntity
  8
0
100
AcDbLine
 10
31.30983499999999
 20
634.1657
 30
0.0
 11
32.086835
 21
634.4147
 31
0.0
  0
LINE
  5
80
330
1E
100
AcDbEntity
  8
0
100
AcDbLine
 10
33.17343499999999
 20
626.6856999999999
 30
0.0
 11
33.461635
 21
626.4547
 31
0.0
  0
LINE
  5
81
330
1E
100
AcDbEntity
  8
0
100
AcDbLine
 10
33.75303499999999
 20
626.5476999999999
 30
0.0
 11
34.53003499999999
 21
626.7977
 31
0.0
  0
LINE
  5
83
330
1E
100
AcDbEntity
  8
0
100
AcDbLine
 10
34.53003499999999
 20
626.7977
 30
0.0
 11
35.79263499999999
 21
627.2016999999999
 31
0.0
  0
LINE
  5
85
330
1E
100
AcDbEntity
  8
0
100
AcDbLine
 10
32.086835
 20
634.4147
 30
0.0
 11
33.34953499999999
 21
634.8196999999999
 31
0.0
  0
LINE
  5
87
330
1E
100
AcDbEntity
  8
0
100
AcDbLine
 10
33.34953499999999
 20
634.8196999999999
 30
0.0
 11
35.000735
 21
635.3496999999999
 31
0.0
  0
LINE
  5
89
330
1E
100
AcDbEntity
  8
0
100
AcDbLine
 10
35.79263499999999
 20
627.2016999999999
 30
0.0
 11
37.443835
 21
627.7317
 31
0.0
  0
LINE
  5
8B
330
1E
100
AcDbEntity
  8
0
100
AcDbLine
 10
37.443835
 20
627.7317
 30
0.0
 11
39.321635
 21
628.3337
 31
0.0
  0
LINE
  5
8D
330
1E
100
AcDbEntity
  8
0
100
AcDbLine
 10
35.000735
 20
635.3496999999999
 30
0.0
 11
36.87843499999999
 21
635.9516999999999
 31
0.0
  0
LINE
  5
8F
330
1E
100
AcDbEntity
  8
0
100
AcDbLine
 10
36.87843499999999
 20
635.9516999999999
 30
0.0
 11
38.91813499999999
 21
636.6056999999999
 31
0.0
  0
LINE
  5
90
330
1E
100
AcDbEntity
  8
0
100
AcDbLine
 10
30.571035
 20
641.3237
 30
0.0
 11
32.215635
 21
641.8737
 31
0.0
  0
LINE
  5
91
330
1E
100
AcDbEntity
  8
0
100
AcDbLine
 10
32.215635
 20
641.8737
 30
0.0
 11
34.08583499999999
 21
642.4986999999999
 31
0.0
  0
LINE
  5
93
330
1E
100
AcDbEntity
  8
0
100
AcDbLine
 10
38.14873499999999
 20
643.8567
 30
0.0
 11
40.019035
 21
644.4827
 31
0.0
  0
LINE
  5
94
330
1E
100
AcDbEntity
  8
0
100
AcDbLine
 10
36.11733499999999
 20
643.1776999999999
 30
0.0
 11
38.14873499999999
 21
643.8567
 31
0.0
  0
LINE
  5
96
330
1E
100
AcDbEntity
  8
0
100
AcDbLine
 10
34.08583499999999
 20
642.4986999999999
 30
0.0
 11
36.11733499999999
 21
643.1776999999999
 31
0.0
  0
LINE
  5
99
330
1E
100
AcDbEntity
  8
0
100
AcDbLine
 10
33.6084996277727
 20
626.5015716897149
 30
0.0
 11
35.09778986730049
 21
620.641214597173
 31
0.0
  0
LINE
  5
9A
330
1E
100
AcDbEntity
  8
0
100
AcDbLine
 10
28.7481222963134
 20
640.7142047453789
 30
0.0
 11
31.0468927021952
 21
634.0817822453809
 31
0.0
  0
LINE
  5
9C
330
1E
100
AcDbEntity
  8
0
100
AcDbLine
 10
24.068935
 20
668.1327
 30
0.0
 11
26.047635
 21
668.9537
 31
0.0
  0
LINE
  5
9D
330
1E
100
AcDbEntity
  8
0
100
AcDbLine
 10
24.094435
 20
663.0377
 30
0.0
 11
25.916035
 21
663.7926999999999
 31
0.0
  0
LINE
  5
9F
330
1E
100
AcDbEntity
  8
0
100
AcDbLine
 10
23.747000101282
 20
654.232744018444
 30
0.0
 11
25.527035
 21
650.0077
 31
0.0
  0
LINE
  5
A0
330
1E
100
AcDbEntity
  8
0
100
AcDbLine
 10
24.332035
 20
654.4756999999999
 30
0.0
 11
25.556935
 21
654.9837
 31
0.0
  0
LINE
  5
A1
330
1E
100
AcDbEntity
  8
0
100
AcDbLine
 10
25.556935
 20
654.9837
 30
0.0
 11
27.15873499999999
 21
655.6477
 31
0.0
  0
LINE
  5
A3
330
1E
100
AcDbEntity
  8
0
100
AcDbLine
 10
27.15873499999999
 20
655.6477
 30
0.0
 11
28.980335
 21
656.4027
 31
0.0
  0
LINE
  5
A4
330
1E
100
AcDbEntity
  8
0
100
AcDbLine
 10
30.95893499999999
 20
657.2237
 30
0.0
 11
32.93753499999999
 21
658.0436999999999
 31
0.0
  0
LINE
  5
A5
330
1E
100
AcDbEntity
  8
0
100
AcDbLine
 10
32.93753499999999
 20
658.0436999999999
 30
0.0
 11
34.759135
 21
658.7987
 31
0.0
  0
LINE
  5
A7
330
1E
100
AcDbEntity
  8
0
100
AcDbLine
 10
28.980335
 20
656.4027
 30
0.0
 11
30.95893499999999
 21
657.2237
 31
0.0
  0
LINE
  5
A9
330
1E
100
AcDbEntity
  8
0
100
AcDbLine
 10
26.047635
 20
668.9537
 30
0.0
 11
28.02623499999999
 21
669.7737
 31
0.0
  0
LINE
  5
AA
330
1E
100
AcDbEntity
  8
0
100
AcDbLine
 10
28.02623499999999
 20
669.7737
 30
0.0
 11
29.84783499999999
 21
670.5286999999999
 31
0.0
  0
LINE
  5
AB
330
1E
100
AcDbEntity
  8
0
100
AcDbLine
 10
29.84783499999999
 20
670.5286999999999
 30
0.0
 11
31.44963499999999
 21
671.1937
 31
0.0
  0
LINE
  5
AE
330
1E
100
AcDbEntity
  8
0
100
AcDbLine
 10
31.44963499999999
 20
671.1937
 30
0.0
 11
32.67443499999999
 21
671.7016999999999
 31
0.0
  0
LINE
  5
B0
330
1E
100
AcDbEntity
  8
0
100
AcDbLine
 10
32.67443499999999
 20
671.7016999999999
 30
0.0
 11
33.428235
 21
672.0137
 31
0.0
  0
LINE
  5
B1
330
1E
100
AcDbEntity
  8
0
100
AcDbLine
 10
33.29663499999999
 20
666.8527
 30
0.0
 11
34.521435
 21
667.3606999999999
 31
0.0
  0
LINE
  5
B3
330
1E
100
AcDbEntity
  8
0
100
AcDbLine
 10
31.694835
 20
666.1887
 30
0.0
 11
33.29663499999999
 21
666.8527
 31
0.0
  0
LINE
  5
B5
330
1E
100
AcDbEntity
  8
0
100
AcDbLine
 10
29.873235
 20
665.4337
 30
0.0
 11
31.694835
 21
666.1887
 31
0.0
  0
LINE
  5
B7
330
1E
100
AcDbEntity
  8
0
100
AcDbLine
 10
27.894635
 20
664.6126999999999
 30
0.0
 11
29.873235
 21
665.4337
 31
0.0
  0
LINE
  5
B8
330
1E
100
AcDbEntity
  8
0
100
AcDbLine
 10
25.916035
 20
663.7926999999999
 30
0.0
 11
27.894635
 21
664.6126999999999
 31
0.0
  0
LINE
  5
B9
330
1E
100
AcDbEntity
  8
0
100
AcDbLine
 10
34.759135
 20
658.7987
 30
0.0
 11
36.36093499999999
 21
659.4637
 31
0.0
  0
LINE
  5
BB
330
1E
100
AcDbEntity
  8
0
100
AcDbLine
 10
34.8700877278806
 20
667.505470899213
 30
0.0
 11
35.27523499999999
 21
667.6737000000001
 31
0.0
  0
LINE
  5
BC
330
1E
100
AcDbEntity
  8
0
100
AcDbLine
 10
35.557935
 20
667.7907
 30
0.0
 11
35.864235
 21
667.5847
 31
0.0
  0
LINE
  5
BD
330
1E
100
AcDbEntity
  8
0
100
AcDbLine
 10
35.27523499999999
 20
667.6737000000001
 30
0.0
 11
35.557935
 21
667.7907
 31
0.0
  0
LINE
  5
BE
330
1E
100
AcDbEntity
  8
0
100
AcDbLine
 10
34.521435
 20
667.3606999999999
 30
0.0
 11
35.27523499999999
 21
667.6737000000001
 31
0.0
  0
LINE
  5
C0
330
1E
100
AcDbEntity
  8
0
100
AcDbLine
 10
36.36093499999999
 20
659.4637
 30
0.0
 11
37.58583499999999
 21
659.9717
 31
0.0
  0
LINE
  5
C1
330
1E
100
AcDbEntity
  8
0
100
AcDbLine
 10
35.864235
 20
667.5847
 30
0.0
 11
38.69283499999999
 21
660.7636999999999
 31
0.0
  0
LINE
  5
C3
330
1E
100
AcDbEntity
  8
0
100
AcDbLine
 10
37.58583499999999
 20
659.9717
 30
0.0
 11
38.33953499999999
 21
660.2837
 31
0.0
  0
LINE
  5
C5
330
1E
100
AcDbEntity
  8
0
100
AcDbLine
 10
37.48243499999999
 20
652.0697
 30
0.0
 11
39.12693499999999
 21
652.6196999999999
 31
0.0
  0
LINE
  5
C7
330
1E
100
AcDbEntity
  8
0
100
AcDbLine
 10
35.61213499999999
 20
651.4437
 30
0.0
 11
37.48243499999999
 21
652.0697
 31
0.0
  0
LINE
  5
C9
330
1E
100
AcDbEntity
  8
0
100
AcDbLine
 10
33.580635
 20
650.7646999999999
 30
0.0
 11
35.61213499999999
 21
651.4437
 31
0.0
  0
LINE
  5
CA
330
1E
100
AcDbEntity
  8
0
100
AcDbLine
 10
31.54923499999999
 20
650.0856999999999
 30
0.0
 11
33.580635
 21
650.7646999999999
 31
0.0
  0
LINE
  5
CC
330
1E
100
AcDbEntity
  8
0
100
AcDbLine
 10
25.527035
 20
650.0077
 30
0.0
 11
26.1280738573737
 21
648.2735800414261
 31
0.0
  0
LINE
  5
CD
330
1E
100
AcDbEntity
  8
0
100
AcDbLine
 10
42.787335
 20
584.3187
 30
0.0
 11
43.08923499999999
 21
584.3687
 31
0.0
  0
LINE
  5
CE
330
1E
100
AcDbEntity
  8
0
100
AcDbLine
 10
43.08923499999999
 20
584.3687
 30
0.0
 11
43.89413499999999
 21
584.5026999999999
 31
0.0
  0
LINE
  5
CF
330
1E
100
AcDbEntity
  8
0
100
AcDbLine
 10
38.25373499999999
 20
605.8257
 30
0.0
 11
38.38513499999999
 21
606.1707
 31
0.0
  0
LINE
  5
D0
330
1E
100
AcDbEntity
  8
0
100
AcDbLine
 10
38.25373499999999
 20
605.8257
 30
0.0
 11
39.87573499999999
 21
598.6217
 31
0.0
  0
LINE
  5
D1
330
1E
100
AcDbEntity
  8
0
100
AcDbLine
 10
38.38513499999999
 20
606.1707
 30
0.0
 11
38.683735
 21
606.2377
 31
0.0
  0
LINE
  5
D2
330
1E
100
AcDbEntity
  8
0
100
AcDbLine
 10
38.683735
 20
606.2377
 30
0.0
 11
39.47973499999999
 21
606.4167
 31
0.0
  0
LINE
  5
D3
330
1E
100
AcDbEntity
  8
0
100
AcDbLine
 10
38.683735
 20
606.2377
 30
0.0
 11
38.75412666903229
 21
606.253529282358
 31
0.0
  0
LINE
  5
D5
330
1E
100
AcDbEntity
  8
0
100
AcDbLine
 10
39.87573499999999
 20
598.6217
 30
0.0
 11
40.14233499999999
 21
598.3657
 31
0.0
  0
LINE
  5
D6
330
1E
100
AcDbEntity
  8
0
100
AcDbLine
 10
40.14233499999999
 20
598.3657
 30
0.0
 11
40.440835
 21
598.4326999999999
 31
0.0
  0
LINE
  5
D7
330
1E
100
AcDbEntity
  8
0
100
AcDbLine
 10
40.440835
 20
598.4326999999999
 30
0.0
 11
41.23693499999999
 21
598.6127
 31
0.0
  0
LINE
  5
D9
330
1E
100
AcDbEntity
  8
0
100
AcDbLine
 10
39.47973499999999
 20
606.4167
 30
0.0
 11
40.77333499999999
 21
606.7087
 31
0.0
  0
LINE
  5
DB
330
1E
100
AcDbEntity
  8
0
100
AcDbLine
 10
39.149735
 20
613.3827
 30
0.0
 11
40.836635
 21
613.7836999999999
 31
0.0
  0
LINE
  5
DD
330
1E
100
AcDbEntity
  8
0
100
AcDbLine
 10
38.91813499999999
 20
636.6056999999999
 30
0.0
 11
40.95783499999999
 21
637.2596999999999
 31
0.0
  0
LINE
  5
DE
330
1E
100
AcDbEntity
  8
0
100
AcDbLine
 10
39.321635
 20
628.3337
 30
0.0
 11
41.36133499999999
 21
628.9877
 31
0.0
  0
LINE
  5
DF
330
1E
100
AcDbEntity
  8
0
100
AcDbLine
 10
40.019035
 20
644.4827
 30
0.0
 11
41.66353499999999
 21
645.0317
 31
0.0
  0
LINE
  5
E1
330
1E
100
AcDbEntity
  8
0
100
AcDbLine
 10
40.38443499999999
 20
653.0397
 30
0.0
 11
41.15833499999999
 21
653.2987
 31
0.0
  0
LINE
  5
E2
330
1E
100
AcDbEntity
  8
0
100
AcDbLine
 10
39.12693499999999
 20
652.6196999999999
 30
0.0
 11
40.38443499999999
 21
653.0397
 31
0.0
  0
LINE
  5
E4
330
1E
100
AcDbEntity
  8
0
100
AcDbLine
 10
38.983635
 20
621.5666999999999
 30
0.0
 11
40.902035
 21
622.0227
 31
0.0
  0
LINE
  5
E6
330
1E
100
AcDbEntity
  8
0
100
AcDbLine
 10
41.324635
 20
591.8727
 30
0.0
 11
41.475335
 21
592.2096999999999
 31
0.0
  0
LINE
  5
E7
330
1E
100
AcDbEntity
  8
0
100
AcDbLine
 10
41.324635
 20
591.8727
 30
0.0
 11
42.535635
 21
584.5887
 31
0.0
  0
LINE
  5
E8
330
1E
100
AcDbEntity
  8
0
100
AcDbLine
 10
42.535635
 20
584.5887
 30
0.0
 11
42.787335
 21
584.3187
 31
0.0
  0
LINE
  5
EB
330
1E
100
AcDbEntity
  8
0
100
AcDbLine
 10
41.475335
 20
592.2096999999999
 30
0.0
 11
41.77723499999999
 21
592.2607
 31
0.0
  0
LINE
  5
EC
330
1E
100
AcDbEntity
  8
0
100
AcDbLine
 10
41.475335
 20
592.2096999999999
 30
0.0
 11
41.63763161287399
 21
592.237116784553
 31
0.0
  0
LINE
  5
ED
330
1E
100
AcDbEntity
  8
0
100
AcDbLine
 10
40.77333499999999
 20
606.7087
 30
0.0
 11
42.465035
 21
607.0897
 31
0.0
  0
LINE
  5
EF
330
1E
100
AcDbEntity
  8
0
100
AcDbLine
 10
40.836635
 20
613.7836999999999
 30
0.0
 11
42.755035
 21
614.2406999999999
 31
0.0
  0
LINE
  5
F0
330
1E
100
AcDbEntity
  8
0
100
AcDbLine
 10
40.8927433987227
 20
653.2098148407669
 30
0.0
 11
41.15833499999999
 21
653.2987
 31
0.0
  0
LINE
  5
F3
330
1E
100
AcDbEntity
  8
0
100
AcDbLine
 10
41.23693499999999
 20
598.6127
 30
0.0
 11
42.530535
 21
598.9036999999999
 31
0.0
  0
LINE
  5
F5
330
1E
100
AcDbEntity
  8
0
100
AcDbLine
 10
42.530535
 20
598.9036999999999
 30
0.0
 11
44.22213499999999
 21
599.2847
 31
0.0
  0
LINE
  5
F7
330
1E
100
AcDbEntity
  8
0
100
AcDbLine
 10
40.95783499999999
 20
637.2596999999999
 30
0.0
 11
42.83563499999999
 21
637.8627
 31
0.0
  0
LINE
  5
F8
330
1E
100
AcDbEntity
  8
0
100
AcDbLine
 10
41.36133499999999
 20
628.9877
 30
0.0
 11
43.400935
 21
629.6427
 31
0.0
  0
LINE
  5
FA
330
1E
100
AcDbEntity
  8
0
100
AcDbLine
 10
41.66353499999999
 20
645.0317
 30
0.0
 11
42.921135
 21
645.4527
 31
0.0
  0
LINE
  5
FB
330
1E
100
AcDbEntity
  8
0
100
AcDbLine
 10
41.739635
 20
653.1686999999999
 30
0.0
 11
44.08113499999999
 21
646.1647
 31
0.0
  0
LINE
  5
FD
330
1E
100
AcDbEntity
  8
0
100
AcDbLine
 10
41.44863499999999
 20
653.3957
 30
0.0
 11
41.739635
 21
653.1686999999999
 31
0.0
  0
LINE
  5
FE
330
1E
100
AcDbEntity
  8
0
100
AcDbLine
 10
41.15833499999999
 20
653.2987
 30
0.0
 11
41.44863499999999
 21
653.3957
 31
0.0
  0
LINE
  5
FF
330
1E
100
AcDbEntity
  8
0
100
AcDbLine
 10
42.465035
 20
607.0897
 30
0.0
 11
44.38893499999999
 21
607.5226999999999
 31
0.0
  0
LINE
  5
101
330
1E
100
AcDbEntity
  8
0
100
AcDbLine
 10
40.902035
 20
622.0227
 30
0.0
 11
42.98573499999999
 21
622.5196999999999
 31
0.0
  0
LINE
  5
102
330
1E
100
AcDbEntity
  8
0
100
AcDbLine
 10
41.77723499999999
 20
592.2607
 30
0.0
 11
42.582135
 21
592.3936999999999
 31
0.0
  0
LINE
  5
103
330
1E
100
AcDbEntity
  8
0
100
AcDbLine
 10
42.755035
 20
614.2406999999999
 30
0.0
 11
44.838735
 21
614.7367
 31
0.0
  0
LINE
  5
104
330
1E
100
AcDbEntity
  8
0
100
AcDbLine
 10
42.83563499999999
 20
637.8627
 30
0.0
 11
44.48673499999999
 21
638.3917
 31
0.0
  0
LINE
  5
105
330
1E
100
AcDbEntity
  8
0
100
AcDbLine
 10
42.921135
 20
645.4527
 30
0.0
 11
43.69503499999999
 21
645.7116999999999
 31
0.0
  0
LINE
  5
106
330
1E
100
AcDbEntity
  8
0
100
AcDbLine
 10
43.400935
 20
629.6427
 30
0.0
 11
45.278735
 21
630.2446999999999
 31
0.0
  0
LINE
  5
10A
330
1E
100
AcDbEntity
  8
0
100
AcDbLine
 10
42.98573499999999
 20
622.5196999999999
 30
0.0
 11
45.06953499999999
 21
623.0157
 31
0.0
  0
LINE
  5
10B
330
1E
100
AcDbEntity
  8
0
100
AcDbLine
 10
42.582135
 20
592.3936999999999
 30
0.0
 11
43.89023499999999
 21
592.6117
 31
0.0
  0
LINE
  5
10D
330
1E
100
AcDbEntity
  8
0
100
AcDbLine
 10
40.45974304234579
 20
598.436975150888
 30
0.0
 11
41.63763161287399
 21
592.237116784553
 31
0.0
  0
LINE
  5
10E
330
1E
100
AcDbEntity
  8
0
100
AcDbLine
 10
43.13119634156261
 20
584.375685737072
 30
0.0
 11
44.22703499999999
 21
578.6077
 31
0.0
  0
LINE
  5
10F
330
1E
100
AcDbEntity
  8
0
100
AcDbLine
 10
47.13203499999999
 20
552.9906999999999
 30
0.0
 11
47.37673499999999
 21
552.7147
 31
0.0
  0
LINE
  5
110
330
1E
100
AcDbEntity
  8
0
100
AcDbLine
 10
46.105435
 20
560.3037
 30
0.0
 11
46.26473499999999
 21
560.6367
 31
0.0
  0
LINE
  5
111
330
1E
100
AcDbEntity
  8
0
100
AcDbLine
 10
46.105435
 20
560.3037
 30
0.0
 11
47.13203499999999
 21
552.9906999999999
 31
0.0
  0
LINE
  5
112
330
1E
100
AcDbEntity
  8
0
100
AcDbLine
 10
45.15703499999999
 20
569.6706999999999
 30
0.0
 11
45.45943499999999
 21
569.7177
 31
0.0
  0
LINE
  5
113
330
1E
100
AcDbEntity
  8
0
100
AcDbLine
 10
46.26473499999999
 20
560.6367
 30
0.0
 11
46.56773499999999
 21
560.6787
 31
0.0
  0
LINE
  5
114
330
1E
100
AcDbEntity
  8
0
100
AcDbLine
 10
46.56773499999999
 20
560.6787
 30
0.0
 11
47.37583499999999
 21
560.7927
 31
0.0
  0
LINE
  5
115
330
1E
100
AcDbEntity
  8
0
100
AcDbLine
 10
46.56773499999999
 20
560.6787
 30
0.0
 11
46.62156676024379
 21
560.686294135216
 31
0.0
  0
LINE
  5
118
330
1E
100
AcDbEntity
  8
0
100
AcDbLine
 10
47.329235
 20
544.3266999999999
 30
0.0
 11
47.517035
 21
544.6446999999999
 31
0.0
  0
LINE
  5
119
330
1E
100
AcDbEntity
  8
0
100
AcDbLine
 10
47.329235
 20
544.3266999999999
 30
0.0
 11
47.710435
 21
536.9517
 31
0.0
  0
LINE
  5
11A
330
1E
100
AcDbEntity
  8
0
100
AcDbLine
 10
48.960635
 20
8.83009999999999
 30
0.0
 11
49.266635
 21
8.83009999999999
 31
0.0
  0
LINE
  5
11B
330
1E
100
AcDbEntity
  8
0
100
AcDbLine
 10
49.266635
 20
8.83009999999999
 30
0.0
 11
50.08263499999999
 21
8.83009999999999
 31
0.0
  0
LINE
  5
11C
330
1E
100
AcDbEntity
  8
0
100
AcDbLine
 10
49.266635
 20
8.83009999999999
 30
0.0
 11
49.32485613408011
 21
8.83009999999999
 31
0.0
  0
LINE
  5
11D
330
1E
100
AcDbEntity
  8
0
100
AcDbLine
 10
48.75663499999999
 20
9.137699999999989
 30
0.0
 11
48.960635
 21
8.83009999999999
 31
0.0
  0
LINE
  5
11E
330
1E
100
AcDbEntity
  8
0
100
AcDbLine
 10
48.75663499999999
 20
9.137699999999989
 30
0.0
 11
48.75663499999999
 21
16.5224
 31
0.0
  0
LINE
  5
120
330
1E
100
AcDbEntity
  8
0
100
AcDbLine
 10
48.75663499999999
 20
16.5224
 30
0.0
 11
48.960635
 21
16.82999999999999
 31
0.0
  0
LINE
  5
121
330
1E
100
AcDbEntity
  8
0
100
AcDbLine
 10
48.75663499999999
 20
16.5224
 30
0.0
 11
48.75663499999999
 21
9.137699999999989
 31
0.0
  0
LINE
  5
122
330
1E
100
AcDbEntity
  8
0
100
AcDbLine
 10
48.75663499999999
 20
25.1377
 30
0.0
 11
48.960635
 21
24.83
 31
0.0
  0
LINE
  5
123
330
1E
100
AcDbEntity
  8
0
100
AcDbLine
 10
48.75663499999999
 20
25.1377
 30
0.0
 11
48.75663499999999
 21
32.5224
 31
0.0
  0
LINE
  5
124
330
1E
100
AcDbEntity
  8
0
100
AcDbLine
 10
48.960635
 20
24.83
 30
0.0
 11
49.266635
 21
24.83
 31
0.0
  0
LINE
  5
126
330
1E
100
AcDbEntity
  8
0
100
AcDbLine
 10
48.960635
 20
40.83
 30
0.0
 11
49.266635
 21
40.83
 31
0.0
  0
LINE
  5
127
330
1E
100
AcDbEntity
  8
0
100
AcDbLine
 10
48.960635
 20
32.82999999999999
 30
0.0
 11
49.266635
 21
32.82999999999999
 31
0.0
  0
LINE
  5
128
330
1E
100
AcDbEntity
  8
0
100
AcDbLine
 10
48.75663499999999
 20
32.5224
 30
0.0
 11
48.960635
 21
32.82999999999999
 31
0.0
  0
LINE
  5
129
330
1E
100
AcDbEntity
  8
0
100
AcDbLine
 10
48.75663499999999
 20
32.5224
 30
0.0
 11
48.75663499999999
 21
25.1377
 31
0.0
  0
LINE
  5
12B
330
1E
100
AcDbEntity
  8
0
100
AcDbLine
 10
48.960635
 20
16.82999999999999
 30
0.0
 11
49.266635
 21
16.82999999999999
 31
0.0
  0
LINE
  5
12C
330
1E
100
AcDbEntity
  8
0
100
AcDbLine
 10
49.266635
 20
24.83
 30
0.0
 11
50.08263499999999
 21
24.83
 31
0.0
  0
LINE
  5
12D
330
1E
100
AcDbEntity
  8
0
100
AcDbLine
 10
49.266635
 20
40.83
 30
0.0
 11
50.08263499999999
 21
40.83
 31
0.0
  0
LINE
  5
12E
330
1E
100
AcDbEntity
  8
0
100
AcDbLine
 10
49.266635
 20
32.82999999999999
 30
0.0
 11
50.08263499999999
 21
32.82999999999999
 31
0.0
  0
LINE
  5
12F
330
1E
100
AcDbEntity
  8
0
100
AcDbLine
 10
49.266635
 20
16.82999999999999
 30
0.0
 11
50.08263499999999
 21
16.82999999999999
 31
0.0
  0
LINE
  5
131
330
1E
100
AcDbEntity
  8
0
100
AcDbLine
 10
49.3125321267754
 20
24.83
 30
0.0
 11
49.31869416894049
 21
16.82999999999999
 31
0.0
  0
LINE
  5
132
330
1E
100
AcDbEntity
  8
0
100
AcDbLine
 10
48.75663499999999
 20
41.1377
 30
0.0
 11
48.960635
 21
40.83
 31
0.0
  0
LINE
  5
133
330
1E
100
AcDbEntity
  8
0
100
AcDbLine
 10
48.75663499999999
 20
41.1377
 30
0.0
 11
48.75663499999999
 21
48.5224
 31
0.0
  0
LINE
  5
134
330
1E
100
AcDbEntity
  8
0
100
AcDbLine
 10
48.75663499999999
 20
48.5224
 30
0.0
 11
48.960635
 21
48.83
 31
0.0
  0
LINE
  5
135
330
1E
100
AcDbEntity
  8
0
100
AcDbLine
 10
48.75663499999999
 20
48.5224
 30
0.0
 11
48.75663499999999
 21
41.1377
 31
0.0
  0
LINE
  5
136
330
1E
100
AcDbEntity
  8
0
100
AcDbLine
 10
48.75663499999999
 20
57.1377
 30
0.0
 11
48.960635
 21
56.8297
 31
0.0
  0
LINE
  5
137
330
1E
100
AcDbEntity
  8
0
100
AcDbLine
 10
48.75663499999999
 20
57.1377
 30
0.0
 11
48.75663499999999
 21
64.5227
 31
0.0
  0
LINE
  5
138
330
1E
100
AcDbEntity
  8
0
100
AcDbLine
 10
48.960635
 20
48.83
 30
0.0
 11
49.266635
 21
48.83
 31
0.0
  0
LINE
  5
13B
330
1E
100
AcDbEntity
  8
0
100
AcDbLine
 10
48.960635
 20
56.8297
 30
0.0
 11
49.266635
 21
56.8297
 31
0.0
  0
LINE
  5
13D
330
1E
100
AcDbEntity
  8
0
100
AcDbLine
 10
48.75663499999999
 20
64.5227
 30
0.0
 11
48.960635
 21
64.8297
 31
0.0
  0
LINE
  5
13E
330
1E
100
AcDbEntity
  8
0
100
AcDbLine
 10
48.75663499999999
 20
64.5227
 30
0.0
 11
48.75663499999999
 21
57.1377
 31
0.0
  0
LINE
  5
13F
330
1E
100
AcDbEntity
  8
0
100
AcDbLine
 10
48.75663499999999
 20
73.13769999999999
 30
0.0
 11
48.960635
 21
72.8297
 31
0.0
  0
LINE
  5
140
330
1E
100
AcDbEntity
  8
0
100
AcDbLine
 10
48.75663499999999
 20
73.13769999999999
 30
0.0
 11
48.75663499999999
 21
80.5227
 31
0.0
  0
LINE
  5
141
330
1E
100
AcDbEntity
  8
0
100
AcDbLine
 10
48.75663499999999
 20
80.5227
 30
0.0
 11
48.960635
 21
80.82970000000001
 31
0.0
  0
LINE
  5
142
330
1E
100
AcDbEntity
  8
0
100
AcDbLine
 10
48.75663499999999
 20
80.5227
 30
0.0
 11
48.75663499999999
 21
73.13769999999999
 31
0.0
  0
LINE
  5
143
330
1E
100
AcDbEntity
  8
0
100
AcDbLine
 10
48.75663499999999
 20
89.13769999999999
 30
0.0
 11
48.960635
 21
88.8297
 31
0.0
  0
LINE
  5
144
330
1E
100
AcDbEntity
  8
0
100
AcDbLine
 10
48.75663499999999
 20
89.13769999999999
 30
0.0
 11
48.75663499999999
 21
96.52270000000001
 31
0.0
  0
LINE
  5
145
330
1E
100
AcDbEntity
  8
0
100
AcDbLine
 10
48.960635
 20
72.8297
 30
0.0
 11
49.266635
 21
72.8297
 31
0.0
  0
LINE
  5
146
330
1E
100
AcDbEntity
  8
0
100
AcDbLine
 10
48.960635
 20
80.82970000000001
 30
0.0
 11
49.266635
 21
80.82970000000001
 31
0.0
  0
LINE
  5
147
330
1E
100
AcDbEntity
  8
0
100
AcDbLine
 10
48.960635
 20
88.8297
 30
0.0
 11
49.266635
 21
88.8297
 31
0.0
  0
LINE
  5
148
330
1E
100
AcDbEntity
  8
0
100
AcDbLine
 10
48.960635
 20
88.8297
 30
0.0
 11
49.2632360205307
 21
88.8297
 31
0.0
  0
LINE
  5
149
330
1E
100
AcDbEntity
  8
0
100
AcDbLine
 10
48.960635
 20
96.8297
 30
0.0
 11
49.266635
 21
96.8297
 31
0.0
  0
LINE
  5
14A
330
1E
100
AcDbEntity
  8
0
100
AcDbLine
 10
48.75663499999999
 20
96.52270000000001
 30
0.0
 11
48.960635
 21
96.8297
 31
0.0
  0
LINE
  5
14B
330
1E
100
AcDbEntity
  8
0
100
AcDbLine
 10
48.75663499999999
 20
96.52270000000001
 30
0.0
 11
48.75663499999999
 21
89.13769999999999
 31
0.0
  0
LINE
  5
14C
330
1E
100
AcDbEntity
  8
0
100
AcDbLine
 10
48.75663499999999
 20
105.1377
 30
0.0
 11
48.960635
 21
104.8297
 31
0.0
  0
LINE
  5
14D
330
1E
100
AcDbEntity
  8
0
100
AcDbLine
 10
48.75663499999999
 20
105.1377
 30
0.0
 11
48.75663499999999
 21
112.5226999999999
 31
0.0
  0
LINE
  5
14E
330
1E
100
AcDbEntity
  8
0
100
AcDbLine
 10
48.960635
 20
104.8297
 30
0.0
 11
49.266635
 21
104.8297
 31
0.0
  0
LINE
  5
14F
330
1E
100
AcDbEntity
  8
0
100
AcDbLine
 10
48.960635
 20
104.8297
 30
0.0
 11
49.2509119362004
 21
104.8297
 31
0.0
  0
LINE
  5
150
330
1E
100
AcDbEntity
  8
0
100
AcDbLine
 10
48.960635
 20
120.8296999999999
 30
0.0
 11
49.266635
 21
120.8296999999999
 31
0.0
  0
LINE
  5
151
330
1E
100
AcDbEntity
  8
0
100
AcDbLine
 10
48.960635
 20
120.8296999999999
 30
0.0
 11
49.2385878518701
 21
120.8296999999999
 31
0.0
  0
LINE
  5
152
330
1E
100
AcDbEntity
  8
0
100
AcDbLine
 10
48.960635
 20
112.8297
 30
0.0
 11
49.266635
 21
112.8297
 31
0.0
  0
LINE
  5
153
330
1E
100
AcDbEntity
  8
0
100
AcDbLine
 10
48.75663499999999
 20
112.5226999999999
 30
0.0
 11
48.960635
 21
112.8297
 31
0.0
  0
LINE
  5
154
330
1E
100
AcDbEntity
  8
0
100
AcDbLine
 10
48.75663499999999
 20
112.5226999999999
 30
0.0
 11
48.75663499999999
 21
105.1377
 31
0.0
  0
LINE
  5
15B
330
1E
100
AcDbEntity
  8
0
100
AcDbLine
 10
48.960635
 20
64.8297
 30
0.0
 11
49.266635
 21
64.8297
 31
0.0
  0
LINE
  5
15D
330
1E
100
AcDbEntity
  8
0
100
AcDbLine
 10
49.266635
 20
48.83
 30
0.0
 11
50.08263499999999
 21
48.83
 31
0.0
  0
LINE
  5
15E
330
1E
100
AcDbEntity
  8
0
100
AcDbLine
 10
49.266635
 20
56.8297
 30
0.0
 11
50.08263499999999
 21
56.8297
 31
0.0
  0
LINE
  5
15F
330
1E
100
AcDbEntity
  8
0
100
AcDbLine
 10
49.266635
 20
72.8297
 30
0.0
 11
50.08263499999999
 21
72.8297
 31
0.0
  0
LINE
  5
160
330
1E
100
AcDbEntity
  8
0
100
AcDbLine
 10
49.266635
 20
80.82970000000001
 30
0.0
 11
50.08263499999999
 21
80.82970000000001
 31
0.0
  0
LINE
  5
161
330
1E
100
AcDbEntity
  8
0
100
AcDbLine
 10
49.266635
 20
88.8297
 30
0.0
 11
50.08263499999999
 21
88.8297
 31
0.0
  0
LINE
  5
162
330
1E
100
AcDbEntity
  8
0
100
AcDbLine
 10
49.266635
 20
64.8297
 30
0.0
 11
50.08263499999999
 21
64.8297
 31
0.0
  0
LINE
  5
163
330
1E
100
AcDbEntity
  8
0
100
AcDbLine
 10
49.275560104861
 20
72.8297
 30
0.0
 11
49.28172214702621
 21
64.8297
 31
0.0
  0
LINE
  5
164
330
1E
100
AcDbEntity
  8
0
100
AcDbLine
 10
49.266635
 20
96.8297
 30
0.0
 11
50.08263499999999
 21
96.8297
 31
0.0
  0
LINE
  5
165
330
1E
100
AcDbEntity
  8
0
100
AcDbLine
 10
49.266635
 20
120.8296999999999
 30
0.0
 11
50.08263499999999
 21
120.8296999999999
 31
0.0
  0
LINE
  5
166
330
1E
100
AcDbEntity
  8
0
100
AcDbLine
 10
49.266635
 20
104.8297
 30
0.0
 11
50.08263499999999
 21
104.8297
 31
0.0
  0
LINE
  5
167
330
1E
100
AcDbEntity
  8
0
100
AcDbLine
 10
49.266635
 20
112.8297
 30
0.0
 11
50.08263499999999
 21
112.8297
 31
0.0
  0
LINE
  5
168
330
1E
100
AcDbEntity
  8
0
100
AcDbLine
 10
49.2632360205307
 20
88.8297
 30
0.0
 11
49.26939806269589
 21
80.82970000000001
 31
0.0
  0
LINE
  5
169
330
1E
100
AcDbEntity
  8
0
100
AcDbLine
 10
49.2632360205307
 20
88.8297
 30
0.0
 11
49.26939806269589
 21
80.8296999999999
 31
0.0
  0
LINE
  5
16A
330
1E
100
AcDbEntity
  8
0
100
AcDbLine
 10
49.2509119362004
 20
104.8297
 30
0.0
 11
49.25707397836561
 21
96.8297
 31
0.0
  0
LINE
  5
16B
330
1E
100
AcDbEntity
  8
0
100
AcDbLine
 10
49.2509119362004
 20
104.8297
 30
0.0
 11
49.25707397836561
 21
96.8296999999999
 31
0.0
  0
LINE
  5
16C
330
1E
100
AcDbEntity
  8
0
100
AcDbLine
 10
48.75663499999999
 20
121.1376999999999
 30
0.0
 11
48.960635
 21
120.8296999999999
 31
0.0
  0
LINE
  5
16D
330
1E
100
AcDbEntity
  8
0
100
AcDbLine
 10
48.75663499999999
 20
121.1376999999999
 30
0.0
 11
48.75663499999999
 21
128.5226999999999
 31
0.0
  0
LINE
  5
16F
330
1E
100
AcDbEntity
  8
0
100
AcDbLine
 10
48.75663499999999
 20
128.5226999999999
 30
0.0
 11
48.960635
 21
128.8297
 31
0.0
  0
LINE
  5
170
330
1E
100
AcDbEntity
  8
0
100
AcDbLine
 10
48.75663499999999
 20
128.5226999999999
 30
0.0
 11
48.75663499999999
 21
121.1376999999999
 31
0.0
  0
LINE
  5
171
330
1E
100
AcDbEntity
  8
0
100
AcDbLine
 10
48.75663499999999
 20
137.1377
 30
0.0
 11
48.75663499999999
 21
144.5226999999999
 31
0.0
  0
LINE
  5
172
330
1E
100
AcDbEntity
  8
0
100
AcDbLine
 10
48.75663499999999
 20
137.1377
 30
0.0
 11
48.960635
 21
136.8297
 31
0.0
  0
LINE
  5
173
330
1E
100
AcDbEntity
  8
0
100
AcDbLine
 10
48.75663499999999
 20
144.5226999999999
 30
0.0
 11
48.960635
 21
144.8296999999999
 31
0.0
  0
LINE
  5
174
330
1E
100
AcDbEntity
  8
0
100
AcDbLine
 10
48.75663499999999
 20
153.1376999999999
 30
0.0
 11
48.960635
 21
152.8297
 31
0.0
  0
LINE
  5
175
330
1E
100
AcDbEntity
  8
0
100
AcDbLine
 10
48.75663499999999
 20
153.1376999999999
 30
0.0
 11
48.75663499999999
 21
160.5227
 31
0.0
  0
LINE
  5
176
330
1E
100
AcDbEntity
  8
0
100
AcDbLine
 10
48.960635
 20
136.8297
 30
0.0
 11
49.266635
 21
136.8297
 31
0.0
  0
LINE
  5
177
330
1E
100
AcDbEntity
  8
0
100
AcDbLine
 10
48.960635
 20
136.8297
 30
0.0
 11
49.2262637675398
 21
136.8297
 31
0.0
  0
LINE
  5
178
330
1E
100
AcDbEntity
  8
0
100
AcDbLine
 10
48.960635
 20
144.8296999999999
 30
0.0
 11
49.266635
 21
144.8296999999999
 31
0.0
  0
LINE
  5
179
330
1E
100
AcDbEntity
  8
0
100
AcDbLine
 10
48.960635
 20
152.8297
 30
0.0
 11
49.266635
 21
152.8297
 31
0.0
  0
LINE
  5
17A
330
1E
100
AcDbEntity
  8
0
100
AcDbLine
 10
48.960635
 20
152.8297
 30
0.0
 11
49.21393968320949
 21
152.8297
 31
0.0
  0
LINE
  5
17B
330
1E
100
AcDbEntity
  8
0
100
AcDbLine
 10
48.960635
 20
160.8297
 30
0.0
 11
49.266635
 21
160.8297
 31
0.0
  0
LINE
  5
17C
330
1E
100
AcDbEntity
  8
0
100
AcDbLine
 10
48.75663499999999
 20
160.5227
 30
0.0
 11
48.960635
 21
160.8297
 31
0.0
  0
LINE
  5
17D
330
1E
100
AcDbEntity
  8
0
100
AcDbLine
 10
48.75663499999999
 20
160.5227
 30
0.0
 11
48.75663499999999
 21
153.1376999999999
 31
0.0
  0
LINE
  5
17E
330
1E
100
AcDbEntity
  8
0
100
AcDbLine
 10
48.75663499999999
 20
169.1376999999999
 30
0.0
 11
48.960635
 21
168.8297
 31
0.0
  0
LINE
  5
17F
330
1E
100
AcDbEntity
  8
0
100
AcDbLine
 10
48.75663499999999
 20
169.1376999999999
 30
0.0
 11
48.75663499999999
 21
176.5226999999999
 31
0.0
  0
LINE
  5
180
330
1E
100
AcDbEntity
  8
0
100
AcDbLine
 10
48.960635
 20
168.8297
 30
0.0
 11
49.266635
 21
168.8297
 31
0.0
  0
LINE
  5
181
330
1E
100
AcDbEntity
  8
0
100
AcDbLine
 10
48.960635
 20
168.8297
 30
0.0
 11
49.2016155988792
 21
168.8297
 31
0.0
  0
LINE
  5
182
330
1E
100
AcDbEntity
  8
0
100
AcDbLine
 10
48.75663499999999
 20
185.1377
 30
0.0
 11
48.960635
 21
184.8297
 31
0.0
  0
LINE
  5
183
330
1E
100
AcDbEntity
  8
0
100
AcDbLine
 10
48.75663499999999
 20
185.1377
 30
0.0
 11
48.75663499999999
 21
192.5226999999999
 31
0.0
  0
LINE
  5
184
330
1E
100
AcDbEntity
  8
0
100
AcDbLine
 10
48.75663499999999
 20
192.5226999999999
 30
0.0
 11
48.960635
 21
192.8297
 31
0.0
  0
LINE
  5
185
330
1E
100
AcDbEntity
  8
0
100
AcDbLine
 10
48.75663499999999
 20
192.5226999999999
 30
0.0
 11
48.75663499999999
 21
185.1377
 31
0.0
  0
LINE
  5
186
330
1E
100
AcDbEntity
  8
0
100
AcDbLine
 10
48.960635
 20
176.8297
 30
0.0
 11
49.266635
 21
176.8297
 31
0.0
  0
LINE
  5
187
330
1E
100
AcDbEntity
  8
0
100
AcDbLine
 10
48.75663499999999
 20
176.5226999999999
 30
0.0
 11
48.960635
 21
176.8297
 31
0.0
  0
LINE
  5
188
330
1E
100
AcDbEntity
  8
0
100
AcDbLine
 10
48.75663499999999
 20
176.5226999999999
 30
0.0
 11
48.75663499999999
 21
169.1376999999999
 31
0.0
  0
LINE
  5
18D
330
1E
100
AcDbEntity
  8
0
100
AcDbLine
 10
48.960635
 20
184.8297
 30
0.0
 11
49.266635
 21
184.8297
 31
0.0
  0
LINE
  5
18E
330
1E
100
AcDbEntity
  8
0
100
AcDbLine
 10
48.960635
 20
184.8297
 30
0.0
 11
49.1892915145489
 21
184.8297
 31
0.0
  0
LINE
  5
190
330
1E
100
AcDbEntity
  8
0
100
AcDbLine
 10
48.960635
 20
192.8297
 30
0.0
 11
49.266635
 21
192.8297
 31
0.0
  0
LINE
  5
194
330
1E
100
AcDbEntity
  8
0
100
AcDbLine
 10
48.960635
 20
200.8297
 30
0.0
 11
49.266635
 21
200.8297
 31
0.0
  0
LINE
  5
195
330
1E
100
AcDbEntity
  8
0
100
AcDbLine
 10
48.960635
 20
200.8297
 30
0.0
 11
49.1769674302186
 21
200.8297
 31
0.0
  0
LINE
  5
196
330
1E
100
AcDbEntity
  8
0
100
AcDbLine
 10
48.960635
 20
128.8297
 30
0.0
 11
49.266635
 21
128.8297
 31
0.0
  0
LINE
  5
198
330
1E
100
AcDbEntity
  8
0
100
AcDbLine
 10
49.1892915145489
 20
184.8297
 30
0.0
 11
49.195453556714
 21
176.8297
 31
0.0
  0
LINE
  5
199
330
1E
100
AcDbEntity
  8
0
100
AcDbLine
 10
48.75663499999999
 20
201.1376999999999
 30
0.0
 11
48.960635
 21
200.8297
 31
0.0
  0
LINE
  5
19A
330
1E
100
AcDbEntity
  8
0
100
AcDbLine
 10
48.75663499999999
 20
201.1376999999999
 30
0.0
 11
48.75663499999999
 21
208.5226999999999
 31
0.0
  0
LINE
  5
19C
330
1E
100
AcDbEntity
  8
0
100
AcDbLine
 10
48.960635
 20
216.8296999999999
 30
0.0
 11
49.266635
 21
216.8296999999999
 31
0.0
  0
LINE
  5
19D
330
1E
100
AcDbEntity
  8
0
100
AcDbLine
 10
48.960635
 20
216.8296999999999
 30
0.0
 11
49.1646433458883
 21
216.8296999999999
 31
0.0
  0
LINE
  5
19E
330
1E
100
AcDbEntity
  8
0
100
AcDbLine
 10
48.960635
 20
208.8296999999999
 30
0.0
 11
49.266635
 21
208.8296999999999
 31
0.0
  0
LINE
  5
19F
330
1E
100
AcDbEntity
  8
0
100
AcDbLine
 10
48.75663499999999
 20
208.5226999999999
 30
0.0
 11
48.960635
 21
208.8296999999999
 31
0.0
  0
LINE
  5
1A0
330
1E
100
AcDbEntity
  8
0
100
AcDbLine
 10
48.75663499999999
 20
208.5226999999999
 30
0.0
 11
48.75663499999999
 21
201.1376999999999
 31
0.0
  0
LINE
  5
1A2
330
1E
100
AcDbEntity
  8
0
100
AcDbLine
 10
49.1769674302186
 20
200.8297
 30
0.0
 11
49.18312947238369
 21
192.8297
 31
0.0
  0
LINE
  5
1A3
330
1E
100
AcDbEntity
  8
0
100
AcDbLine
 10
49.1769674302186
 20
200.8297
 30
0.0
 11
49.18312947238369
 21
192.8297
 31
0.0
  0
LINE
  5
1A4
330
1E
100
AcDbEntity
  8
0
100
AcDbLine
 10
49.21393968320949
 20
152.8297
 30
0.0
 11
49.22010172537469
 21
144.8296999999999
 31
0.0
  0
LINE
  5
1A5
330
1E
100
AcDbEntity
  8
0
100
AcDbLine
 10
49.2016155988792
 20
168.8297
 30
0.0
 11
49.20777764104439
 21
160.8297
 31
0.0
  0
LINE
  5
1A6
330
1E
100
AcDbEntity
  8
0
100
AcDbLine
 10
49.2262637675398
 20
136.8297
 30
0.0
 11
49.232425809705
 21
128.8297
 31
0.0
  0
LINE
  5
1A7
330
1E
100
AcDbEntity
  8
0
100
AcDbLine
 10
49.21393968320949
 20
152.8297
 30
0.0
 11
49.22010172537469
 21
144.8296999999999
 31
0.0
  0
LINE
  5
1A8
330
1E
100
AcDbEntity
  8
0
100
AcDbLine
 10
49.2016155988792
 20
168.8297
 30
0.0
 11
49.20777764104439
 21
160.8297
 31
0.0
  0
LINE
  5
1A9
330
1E
100
AcDbEntity
  8
0
100
AcDbLine
 10
49.1892915145489
 20
184.8297
 30
0.0
 11
49.195453556714
 21
176.8297
 31
0.0
  0
LINE
  5
1AA
330
1E
100
AcDbEntity
  8
0
100
AcDbLine
 10
48.75663499999999
 20
217.1377
 30
0.0
 11
48.960635
 21
216.8296999999999
 31
0.0
  0
LINE
  5
1AB
330
1E
100
AcDbEntity
  8
0
100
AcDbLine
 10
48.75663499999999
 20
217.1377
 30
0.0
 11
48.75663499999999
 21
224.5226999999999
 31
0.0
  0
LINE
  5
1AD
330
1E
100
AcDbEntity
  8
0
100
AcDbLine
 10
48.75663499999999
 20
224.5226999999999
 30
0.0
 11
48.960635
 21
224.8296999999999
 31
0.0
  0
LINE
  5
1AE
330
1E
100
AcDbEntity
  8
0
100
AcDbLine
 10
48.75663499999999
 20
224.5226999999999
 30
0.0
 11
48.75663499999999
 21
217.1377
 31
0.0
  0
LINE
  5
1AF
330
1E
100
AcDbEntity
  8
0
100
AcDbLine
 10
48.75663499999999
 20
233.1376999999999
 30
0.0
 11
48.960635
 21
232.8297
 31
0.0
  0
LINE
  5
1B0
330
1E
100
AcDbEntity
  8
0
100
AcDbLine
 10
48.75663499999999
 20
233.1376999999999
 30
0.0
 11
48.75663499999999
 21
240.5227
 31
0.0
  0
LINE
  5
1B1
330
1E
100
AcDbEntity
  8
0
100
AcDbLine
 10
48.960635
 20
232.8297
 30
0.0
 11
49.266635
 21
232.8297
 31
0.0
  0
LINE
  5
1B2
330
1E
100
AcDbEntity
  8
0
100
AcDbLine
 10
48.960635
 20
232.8297
 30
0.0
 11
49.152319261558
 21
232.8297
 31
0.0
  0
LINE
  5
1B3
330
1E
100
AcDbEntity
  8
0
100
AcDbLine
 10
48.960635
 20
240.8297
 30
0.0
 11
49.266635
 21
240.8297
 31
0.0
  0
LINE
  5
1B4
330
1E
100
AcDbEntity
  8
0
100
AcDbLine
 10
48.75663499999999
 20
240.5227
 30
0.0
 11
48.960635
 21
240.8297
 31
0.0
  0
LINE
  5
1B5
330
1E
100
AcDbEntity
  8
0
100
AcDbLine
 10
48.75663499999999
 20
240.5227
 30
0.0
 11
48.75663499999999
 21
233.1376999999999
 31
0.0
  0
LINE
  5
1B6
330
1E
100
AcDbEntity
  8
0
100
AcDbLine
 10
48.75663499999999
 20
249.1376999999999
 30
0.0
 11
48.960635
 21
248.8297
 31
0.0
  0
LINE
  5
1B7
330
1E
100
AcDbEntity
  8
0
100
AcDbLine
 10
48.75663499999999
 20
249.1376999999999
 30
0.0
 11
48.75663499999999
 21
256.5226999999999
 31
0.0
  0
LINE
  5
1B8
330
1E
100
AcDbEntity
  8
0
100
AcDbLine
 10
48.960635
 20
248.8297
 30
0.0
 11
49.266635
 21
248.8297
 31
0.0
  0
LINE
  5
1B9
330
1E
100
AcDbEntity
  8
0
100
AcDbLine
 10
48.960635
 20
248.8297
 30
0.0
 11
49.1399951772277
 21
248.8297
 31
0.0
  0
LINE
  5
1BA
330
1E
100
AcDbEntity
  8
0
100
AcDbLine
 10
48.960635
 20
256.8297
 30
0.0
 11
49.266635
 21
256.8297
 31
0.0
  0
LINE
  5
1BB
330
1E
100
AcDbEntity
  8
0
100
AcDbLine
 10
48.75663499999999
 20
256.5226999999999
 30
0.0
 11
48.960635
 21
256.8297
 31
0.0
  0
LINE
  5
1BC
330
1E
100
AcDbEntity
  8
0
100
AcDbLine
 10
48.75663499999999
 20
256.5226999999999
 30
0.0
 11
48.75663499999999
 21
249.1376999999999
 31
0.0
  0
LINE
  5
1C1
330
1E
100
AcDbEntity
  8
0
100
AcDbLine
 10
48.960635
 20
224.8296999999999
 30
0.0
 11
49.266635
 21
224.8296999999999
 31
0.0
  0
LINE
  5
1C3
330
1E
100
AcDbEntity
  8
0
100
AcDbLine
 10
49.1399951772277
 20
248.8297
 30
0.0
 11
49.1461572193928
 21
240.8297
 31
0.0
  0
LINE
  5
1C4
330
1E
100
AcDbEntity
  8
0
100
AcDbLine
 10
48.75663499999999
 20
265.0237
 30
0.0
 11
48.960635
 21
264.7157
 31
0.0
  0
LINE
  5
1C5
330
1E
100
AcDbEntity
  8
0
100
AcDbLine
 10
48.75663499999999
 20
265.0237
 30
0.0
 11
48.75663499999999
 21
272.4076999999999
 31
0.0
  0
LINE
  5
1C6
330
1E
100
AcDbEntity
  8
0
100
AcDbLine
 10
48.960635
 20
264.7157
 30
0.0
 11
49.266635
 21
264.7157
 31
0.0
  0
LINE
  5
1C7
330
1E
100
AcDbEntity
  8
0
100
AcDbLine
 10
48.960635
 20
264.7157
 30
0.0
 11
49.12775890199821
 21
264.7157
 31
0.0
  0
LINE
  5
1C9
330
1E
100
AcDbEntity
  8
0
100
AcDbLine
 10
48.75663499999999
 20
281.0237
 30
0.0
 11
48.960635
 21
280.7157
 31
0.0
  0
LINE
  5
1CA
330
1E
100
AcDbEntity
  8
0
100
AcDbLine
 10
48.75663499999999
 20
281.0237
 30
0.0
 11
48.75663499999999
 21
288.4076999999999
 31
0.0
  0
LINE
  5
1CB
330
1E
100
AcDbEntity
  8
0
100
AcDbLine
 10
48.960635
 20
280.7157
 30
0.0
 11
49.266635
 21
280.7157
 31
0.0
  0
LINE
  5
1CC
330
1E
100
AcDbEntity
  8
0
100
AcDbLine
 10
48.960635
 20
280.7157
 30
0.0
 11
49.1154348176679
 21
280.7157
 31
0.0
  0
LINE
  5
1CD
330
1E
100
AcDbEntity
  8
0
100
AcDbLine
 10
48.77973499999999
 20
296.6557
 30
0.0
 11
49.085735
 21
296.6557
 31
0.0
  0
LINE
  5
1CE
330
1E
100
AcDbEntity
  8
0
100
AcDbLine
 10
48.960635
 20
288.7157
 30
0.0
 11
49.266635
 21
288.7157
 31
0.0
  0
LINE
  5
1CF
330
1E
100
AcDbEntity
  8
0
100
AcDbLine
 10
48.75663499999999
 20
288.4076999999999
 30
0.0
 11
48.960635
 21
288.7157
 31
0.0
  0
LINE
  5
1D0
330
1E
100
AcDbEntity
  8
0
100
AcDbLine
 10
48.75663499999999
 20
288.4076999999999
 30
0.0
 11
48.75663499999999
 21
281.0237
 31
0.0
  0
LINE
  5
1D3
330
1E
100
AcDbEntity
  8
0
100
AcDbLine
 10
48.960635
 20
272.7157
 30
0.0
 11
49.266635
 21
272.7157
 31
0.0
  0
LINE
  5
1D4
330
1E
100
AcDbEntity
  8
0
100
AcDbLine
 10
48.75663499999999
 20
272.4076999999999
 30
0.0
 11
48.960635
 21
272.7157
 31
0.0
  0
LINE
  5
1D5
330
1E
100
AcDbEntity
  8
0
100
AcDbLine
 10
48.75663499999999
 20
272.4076999999999
 30
0.0
 11
48.75663499999999
 21
265.0237
 31
0.0
  0
LINE
  5
1D6
330
1E
100
AcDbEntity
  8
0
100
AcDbLine
 10
49.085735
 20
296.6557
 30
0.0
 11
49.901735
 21
296.6557
 31
0.0
  0
LINE
  5
1D8
330
1E
100
AcDbEntity
  8
0
100
AcDbLine
 10
48.57573499999999
 20
296.9627
 30
0.0
 11
48.57573499999999
 21
304.3476999999999
 31
0.0
  0
LINE
  5
1D9
330
1E
100
AcDbEntity
  8
0
100
AcDbLine
 10
48.57573499999999
 20
296.9627
 30
0.0
 11
48.77973499999999
 21
296.6557
 31
0.0
  0
LINE
  5
1DA
330
1E
100
AcDbEntity
  8
0
100
AcDbLine
 10
48.57573499999999
 20
304.3476999999999
 30
0.0
 11
48.77973499999999
 21
304.6557
 31
0.0
  0
LINE
  5
1DB
330
1E
100
AcDbEntity
  8
0
100
AcDbLine
 10
48.57573499999999
 20
312.9626999999999
 30
0.0
 11
48.77973499999999
 21
312.6557
 31
0.0
  0
LINE
  5
1DC
330
1E
100
AcDbEntity
  8
0
100
AcDbLine
 10
48.57573499999999
 20
312.9626999999999
 30
0.0
 11
48.57573499999999
 21
320.3476999999999
 31
0.0
  0
LINE
  5
1DD
330
1E
100
AcDbEntity
  8
0
100
AcDbLine
 10
48.77973499999999
 20
304.6557
 30
0.0
 11
49.085735
 21
304.6557
 31
0.0
  0
LINE
  5
1E0
330
1E
100
AcDbEntity
  8
0
100
AcDbLine
 10
48.77973499999999
 20
312.6557
 30
0.0
 11
49.085735
 21
312.6557
 31
0.0
  0
LINE
  5
1E2
330
1E
100
AcDbEntity
  8
0
100
AcDbLine
 10
48.57573499999999
 20
320.3476999999999
 30
0.0
 11
48.77973499999999
 21
320.6557
 31
0.0
  0
LINE
  5
1E3
330
1E
100
AcDbEntity
  8
0
100
AcDbLine
 10
48.57573499999999
 20
320.3476999999999
 30
0.0
 11
48.57573499999999
 21
312.9626999999999
 31
0.0
  0
LINE
  5
1E4
330
1E
100
AcDbEntity
  8
0
100
AcDbLine
 10
48.515435
 20
345.0237
 30
0.0
 11
48.515435
 21
352.4076999999999
 31
0.0
  0
LINE
  5
1E5
330
1E
100
AcDbEntity
  8
0
100
AcDbLine
 10
48.515435
 20
345.0237
 30
0.0
 11
48.719435
 21
344.7157
 31
0.0
  0
LINE
  5
1E6
330
1E
100
AcDbEntity
  8
0
100
AcDbLine
 10
48.57573499999999
 20
328.9626999999999
 30
0.0
 11
48.77973499999999
 21
328.6557
 31
0.0
  0
LINE
  5
1E7
330
1E
100
AcDbEntity
  8
0
100
AcDbLine
 10
48.57573499999999
 20
328.9626999999999
 30
0.0
 11
48.57573499999999
 21
336.3476999999999
 31
0.0
  0
LINE
  5
1E8
330
1E
100
AcDbEntity
  8
0
100
AcDbLine
 10
48.57573499999999
 20
336.3476999999999
 30
0.0
 11
48.77973499999999
 21
336.6557
 31
0.0
  0
LINE
  5
1E9
330
1E
100
AcDbEntity
  8
0
100
AcDbLine
 10
48.57573499999999
 20
336.3476999999999
 30
0.0
 11
48.57573499999999
 21
328.9626999999999
 31
0.0
  0
LINE
  5
1EA
330
1E
100
AcDbEntity
  8
0
100
AcDbLine
 10
48.719435
 20
344.7157
 30
0.0
 11
49.025435
 21
344.7157
 31
0.0
  0
LINE
  5
1EB
330
1E
100
AcDbEntity
  8
0
100
AcDbLine
 10
48.719435
 20
352.7157
 30
0.0
 11
49.025435
 21
352.7157
 31
0.0
  0
LINE
  5
1EC
330
1E
100
AcDbEntity
  8
0
100
AcDbLine
 10
48.515435
 20
352.4076999999999
 30
0.0
 11
48.719435
 21
352.7157
 31
0.0
  0
LINE
  5
1ED
330
1E
100
AcDbEntity
  8
0
100
AcDbLine
 10
48.515435
 20
361.0237
 30
0.0
 11
48.719435
 21
360.7157
 31
0.0
  0
LINE
  5
1EE
330
1E
100
AcDbEntity
  8
0
100
AcDbLine
 10
48.515435
 20
361.0237
 30
0.0
 11
48.515435
 21
368.4076999999999
 31
0.0
  0
LINE
  5
1EF
330
1E
100
AcDbEntity
  8
0
100
AcDbLine
 10
48.77973499999999
 20
328.6557
 30
0.0
 11
49.085735
 21
328.6557
 31
0.0
  0
LINE
  5
1F0
330
1E
100
AcDbEntity
  8
0
100
AcDbLine
 10
48.77973499999999
 20
328.6557
 30
0.0
 11
49.0785087799932
 21
328.6557
 31
0.0
  0
LINE
  5
1F1
330
1E
100
AcDbEntity
  8
0
100
AcDbLine
 10
48.77973499999999
 20
336.6557
 30
0.0
 11
49.085735
 21
336.6557
 31
0.0
  0
LINE
  5
1F2
330
1E
100
AcDbEntity
  8
0
100
AcDbLine
 10
48.719435
 20
360.7157
 30
0.0
 11
49.025435
 21
360.7157
 31
0.0
  0
LINE
  5
1F3
330
1E
100
AcDbEntity
  8
0
100
AcDbLine
 10
48.719435
 20
376.7157
 30
0.0
 11
49.025435
 21
376.7157
 31
0.0
  0
LINE
  5
1F4
330
1E
100
AcDbEntity
  8
0
100
AcDbLine
 10
48.719435
 20
368.7157
 30
0.0
 11
49.025435
 21
368.7157
 31
0.0
  0
LINE
  5
1F5
330
1E
100
AcDbEntity
  8
0
100
AcDbLine
 10
48.515435
 20
368.4076999999999
 30
0.0
 11
48.719435
 21
368.7157
 31
0.0
  0
LINE
  5
1F6
330
1E
100
AcDbEntity
  8
0
100
AcDbLine
 10
48.515435
 20
368.4076999999999
 30
0.0
 11
48.515435
 21
361.0237
 31
0.0
  0
LINE
  5
1FB
330
1E
100
AcDbEntity
  8
0
100
AcDbLine
 10
49.025435
 20
344.7157
 30
0.0
 11
49.841435
 21
344.7157
 31
0.0
  0
LINE
  5
1FC
330
1E
100
AcDbEntity
  8
0
100
AcDbLine
 10
49.025435
 20
352.7157
 30
0.0
 11
49.841435
 21
352.7157
 31
0.0
  0
LINE
  5
1FD
330
1E
100
AcDbEntity
  8
0
100
AcDbLine
 10
49.025435
 20
360.7157
 30
0.0
 11
49.841435
 21
360.7157
 31
0.0
  0
LINE
  5
1FF
330
1E
100
AcDbEntity
  8
0
100
AcDbLine
 10
49.025435
 20
376.7157
 30
0.0
 11
49.841435
 21
376.7157
 31
0.0
  0
LINE
  5
200
330
1E
100
AcDbEntity
  8
0
100
AcDbLine
 10
49.025435
 20
368.7157
 30
0.0
 11
49.841435
 21
368.7157
 31
0.0
  0
LINE
  5
202
330
1E
100
AcDbEntity
  8
0
100
AcDbLine
 10
48.77973499999999
 20
320.6557
 30
0.0
 11
49.085735
 21
320.6557
 31
0.0
  0
LINE
  5
204
330
1E
100
AcDbEntity
  8
0
100
AcDbLine
 10
49.0661384803467
 20
344.7157
 30
0.0
 11
49.07234673782809
 21
336.6557
 31
0.0
  0
LINE
  5
205
330
1E
100
AcDbEntity
  8
0
100
AcDbLine
 10
49.0661384803467
 20
344.7157
 30
0.0
 11
49.07234673782809
 21
336.6557
 31
0.0
  0
LINE
  5
206
330
1E
100
AcDbEntity
  8
0
100
AcDbLine
 10
49.0538143960164
 20
360.7157
 30
0.0
 11
49.0599764381815
 21
352.7157
 31
0.0
  0
LINE
  5
207
330
1E
100
AcDbEntity
  8
0
100
AcDbLine
 10
48.515435
 20
377.0237
 30
0.0
 11
48.719435
 21
376.7157
 31
0.0
  0
LINE
  5
208
330
1E
100
AcDbEntity
  8
0
100
AcDbLine
 10
48.515435
 20
377.0237
 30
0.0
 11
48.515435
 21
384.4077
 31
0.0
  0
LINE
  5
20A
330
1E
100
AcDbEntity
  8
0
100
AcDbLine
 10
48.57573499999999
 20
392.8577
 30
0.0
 11
48.77973499999999
 21
392.5497
 31
0.0
  0
LINE
  5
20B
330
1E
100
AcDbEntity
  8
0
100
AcDbLine
 10
48.57573499999999
 20
392.8577
 30
0.0
 11
48.57573499999999
 21
400.2416999999999
 31
0.0
  0
LINE
  5
20C
330
1E
100
AcDbEntity
  8
0
100
AcDbLine
 10
48.57573499999999
 20
400.2416999999999
 30
0.0
 11
48.77973499999999
 21
400.5497
 31
0.0
  0
LINE
  5
20D
330
1E
100
AcDbEntity
  8
0
100
AcDbLine
 10
48.57573499999999
 20
400.2416999999999
 30
0.0
 11
48.57573499999999
 21
392.8577
 31
0.0
  0
LINE
  5
20E
330
1E
100
AcDbEntity
  8
0
100
AcDbLine
 10
48.515435
 20
408.9177
 30
0.0
 11
48.719435
 21
408.6096999999999
 31
0.0
  0
LINE
  5
20F
330
1E
100
AcDbEntity
  8
0
100
AcDbLine
 10
48.515435
 20
408.9177
 30
0.0
 11
48.515435
 21
416.3027
 31
0.0
  0
LINE
  5
210
330
1E
100
AcDbEntity
  8
0
100
AcDbLine
 10
48.515435
 20
424.9177
 30
0.0
 11
48.719435
 21
424.6096999999999
 31
0.0
  0
LINE
  5
211
330
1E
100
AcDbEntity
  8
0
100
AcDbLine
 10
48.515435
 20
424.9177
 30
0.0
 11
48.515435
 21
432.3027
 31
0.0
  0
LINE
  5
212
330
1E
100
AcDbEntity
  8
0
100
AcDbLine
 10
48.515435
 20
432.3027
 30
0.0
 11
48.719435
 21
432.6096999999999
 31
0.0
  0
LINE
  5
213
330
1E
100
AcDbEntity
  8
0
100
AcDbLine
 10
48.515435
 20
432.3027
 30
0.0
 11
48.515435
 21
424.9177
 31
0.0
  0
LINE
  5
214
330
1E
100
AcDbEntity
  8
0
100
AcDbLine
 10
48.515435
 20
416.3027
 30
0.0
 11
48.719435
 21
416.6096999999999
 31
0.0
  0
LINE
  5
215
330
1E
100
AcDbEntity
  8
0
100
AcDbLine
 10
48.515435
 20
416.3027
 30
0.0
 11
48.515435
 21
408.9177
 31
0.0
  0
LINE
  5
216
330
1E
100
AcDbEntity
  8
0
100
AcDbLine
 10
48.77973499999999
 20
392.5497
 30
0.0
 11
49.085735
 21
392.5497
 31
0.0
  0
LINE
  5
217
330
1E
100
AcDbEntity
  8
0
100
AcDbLine
 10
48.77973499999999
 20
392.5497
 30
0.0
 11
49.0292940897307
 21
392.5497
 31
0.0
  0
LINE
  5
218
330
1E
100
AcDbEntity
  8
0
100
AcDbLine
 10
48.77973499999999
 20
400.5497
 30
0.0
 11
49.085735
 21
400.5497
 31
0.0
  0
LINE
  5
219
330
1E
100
AcDbEntity
  8
0
100
AcDbLine
 10
48.719435
 20
408.6096999999999
 30
0.0
 11
49.025435
 21
408.6096999999999
 31
0.0
  0
LINE
  5
21A
330
1E
100
AcDbEntity
  8
0
100
AcDbLine
 10
48.719435
 20
408.6096999999999
 30
0.0
 11
49.01692379008419
 21
408.6096999999999
 31
0.0
  0
LINE
  5
21C
330
1E
100
AcDbEntity
  8
0
100
AcDbLine
 10
48.719435
 20
424.6096999999999
 30
0.0
 11
49.025435
 21
424.6096999999999
 31
0.0
  0
LINE
  5
21D
330
1E
100
AcDbEntity
  8
0
100
AcDbLine
 10
48.719435
 20
424.6096999999999
 30
0.0
 11
49.00459970575379
 21
424.6096999999999
 31
0.0
  0
LINE
  5
21E
330
1E
100
AcDbEntity
  8
0
100
AcDbLine
 10
48.719435
 20
432.6096999999999
 30
0.0
 11
49.025435
 21
432.6096999999999
 31
0.0
  0
LINE
  5
21F
330
1E
100
AcDbEntity
  8
0
100
AcDbLine
 10
48.719435
 20
416.6096999999999
 30
0.0
 11
49.025435
 21
416.6096999999999
 31
0.0
  0
LINE
  5
221
330
1E
100
AcDbEntity
  8
0
100
AcDbLine
 10
48.719435
 20
440.6096999999999
 30
0.0
 11
49.025435
 21
440.6096999999999
 31
0.0
  0
LINE
  5
222
330
1E
100
AcDbEntity
  8
0
100
AcDbLine
 10
48.719435
 20
440.6096999999999
 30
0.0
 11
48.99227562142359
 21
440.6096999999999
 31
0.0
  0
LINE
  5
223
330
1E
100
AcDbEntity
  8
0
100
AcDbLine
 10
48.719435
 20
384.7157
 30
0.0
 11
49.025435
 21
384.7157
 31
0.0
  0
LINE
  5
224
330
1E
100
AcDbEntity
  8
0
100
AcDbLine
 10
48.515435
 20
384.4077
 30
0.0
 11
48.719435
 21
384.7157
 31
0.0
  0
LINE
  5
225
330
1E
100
AcDbEntity
  8
0
100
AcDbLine
 10
48.515435
 20
384.4077
 30
0.0
 11
48.515435
 21
377.0237
 31
0.0
  0
LINE
  5
22B
330
1E
100
AcDbEntity
  8
0
100
AcDbLine
 10
48.515435
 20
440.9177
 30
0.0
 11
48.719435
 21
440.6096999999999
 31
0.0
  0
LINE
  5
22C
330
1E
100
AcDbEntity
  8
0
100
AcDbLine
 10
48.515435
 20
440.9177
 30
0.0
 11
48.515435
 21
448.3026999999999
 31
0.0
  0
LINE
  5
22E
330
1E
100
AcDbEntity
  8
0
100
AcDbLine
 10
48.77973499999999
 20
456.6557
 30
0.0
 11
49.085735
 21
456.6557
 31
0.0
  0
LINE
  5
22F
330
1E
100
AcDbEntity
  8
0
100
AcDbLine
 10
48.77973499999999
 20
456.6557
 30
0.0
 11
48.9799161053508
 21
456.6557
 31
0.0
  0
LINE
  5
230
330
1E
100
AcDbEntity
  8
0
100
AcDbLine
 10
48.719435
 20
448.6097
 30
0.0
 11
49.025435
 21
448.6097
 31
0.0
  0
LINE
  5
231
330
1E
100
AcDbEntity
  8
0
100
AcDbLine
 10
48.515435
 20
448.3026999999999
 30
0.0
 11
48.719435
 21
448.6097
 31
0.0
  0
LINE
  5
232
330
1E
100
AcDbEntity
  8
0
100
AcDbLine
 10
48.515435
 20
448.3026999999999
 30
0.0
 11
48.515435
 21
440.9177
 31
0.0
  0
LINE
  5
234
330
1E
100
AcDbEntity
  8
0
100
AcDbLine
 10
48.99227562142359
 20
440.6096999999999
 30
0.0
 11
48.9984376635887
 21
432.6096999999999
 31
0.0
  0
LINE
  5
235
330
1E
100
AcDbEntity
  8
0
100
AcDbLine
 10
49.025435
 20
408.6096999999999
 30
0.0
 11
49.841435
 21
408.6096999999999
 31
0.0
  0
LINE
  5
236
330
1E
100
AcDbEntity
  8
0
100
AcDbLine
 10
49.025435
 20
384.7157
 30
0.0
 11
49.841435
 21
384.7157
 31
0.0
  0
LINE
  5
237
330
1E
100
AcDbEntity
  8
0
100
AcDbLine
 10
49.025435
 20
424.6096999999999
 30
0.0
 11
49.841435
 21
424.6096999999999
 31
0.0
  0
LINE
  5
238
330
1E
100
AcDbEntity
  8
0
100
AcDbLine
 10
49.025435
 20
432.6096999999999
 30
0.0
 11
49.841435
 21
432.6096999999999
 31
0.0
  0
LINE
  5
239
330
1E
100
AcDbEntity
  8
0
100
AcDbLine
 10
49.025435
 20
416.6096999999999
 30
0.0
 11
49.841435
 21
416.6096999999999
 31
0.0
  0
LINE
  5
23A
330
1E
100
AcDbEntity
  8
0
100
AcDbLine
 10
49.025435
 20
440.6096999999999
 30
0.0
 11
49.841435
 21
440.6096999999999
 31
0.0
  0
LINE
  5
23B
330
1E
100
AcDbEntity
  8
0
100
AcDbLine
 10
49.025435
 20
448.6097
 30
0.0
 11
49.841435
 21
448.6097
 31
0.0
  0
LINE
  5
23C
330
1E
100
AcDbEntity
  8
0
100
AcDbLine
 10
49.01692379008419
 20
408.6096999999999
 30
0.0
 11
49.0231320475656
 21
400.5497
 31
0.0
  0
LINE
  5
23D
330
1E
100
AcDbEntity
  8
0
100
AcDbLine
 10
49.01692379008419
 20
408.6096999999999
 30
0.0
 11
49.02313204756549
 21
400.5497
 31
0.0
  0
LINE
  5
23E
330
1E
100
AcDbEntity
  8
0
100
AcDbLine
 10
49.00459970575379
 20
424.6096999999999
 30
0.0
 11
49.01076174791899
 21
416.6096999999999
 31
0.0
  0
LINE
  5
23F
330
1E
100
AcDbEntity
  8
0
100
AcDbLine
 10
48.57573499999999
 20
456.9626999999999
 30
0.0
 11
48.77973499999999
 21
456.6557
 31
0.0
  0
LINE
  5
240
330
1E
100
AcDbEntity
  8
0
100
AcDbLine
 10
48.57573499999999
 20
456.9626999999999
 30
0.0
 11
48.57573499999999
 21
464.3476999999999
 31
0.0
  0
LINE
  5
242
330
1E
100
AcDbEntity
  8
0
100
AcDbLine
 10
48.57573499999999
 20
464.3476999999999
 30
0.0
 11
48.77973499999999
 21
464.6557
 31
0.0
  0
LINE
  5
243
330
1E
100
AcDbEntity
  8
0
100
AcDbLine
 10
48.57573499999999
 20
464.3476999999999
 30
0.0
 11
48.57573499999999
 21
456.9626999999999
 31
0.0
  0
LINE
  5
244
330
1E
100
AcDbEntity
  8
0
100
AcDbLine
 10
48.515435
 20
473.0237
 30
0.0
 11
48.719435
 21
472.7157
 31
0.0
  0
LINE
  5
245
330
1E
100
AcDbEntity
  8
0
100
AcDbLine
 10
48.515435
 20
473.0237
 30
0.0
 11
48.515435
 21
480.4076999999999
 31
0.0
  0
LINE
  5
246
330
1E
100
AcDbEntity
  8
0
100
AcDbLine
 10
48.719435
 20
472.7157
 30
0.0
 11
49.025435
 21
472.7157
 31
0.0
  0
LINE
  5
247
330
1E
100
AcDbEntity
  8
0
100
AcDbLine
 10
48.719435
 20
472.7157
 30
0.0
 11
48.9675458057042
 21
472.7157
 31
0.0
  0
LINE
  5
248
330
1E
100
AcDbEntity
  8
0
100
AcDbLine
 10
48.719435
 20
480.7157
 30
0.0
 11
49.025435
 21
480.7157
 31
0.0
  0
LINE
  5
249
330
1E
100
AcDbEntity
  8
0
100
AcDbLine
 10
48.515435
 20
480.4076999999999
 30
0.0
 11
48.719435
 21
480.7157
 31
0.0
  0
LINE
  5
24A
330
1E
100
AcDbEntity
  8
0
100
AcDbLine
 10
48.515435
 20
480.4076999999999
 30
0.0
 11
48.515435
 21
473.0237
 31
0.0
  0
LINE
  5
24B
330
1E
100
AcDbEntity
  8
0
100
AcDbLine
 10
48.515435
 20
489.0236999999999
 30
0.0
 11
48.719435
 21
488.7157
 31
0.0
  0
LINE
  5
24C
330
1E
100
AcDbEntity
  8
0
100
AcDbLine
 10
48.515435
 20
489.0236999999999
 30
0.0
 11
48.515435
 21
496.4076999999999
 31
0.0
  0
LINE
  5
24D
330
1E
100
AcDbEntity
  8
0
100
AcDbLine
 10
48.719435
 20
488.7157
 30
0.0
 11
49.025435
 21
488.7157
 31
0.0
  0
LINE
  5
24E
330
1E
100
AcDbEntity
  8
0
100
AcDbLine
 10
48.719435
 20
488.7157
 30
0.0
 11
48.9552217213739
 21
488.7157
 31
0.0
  0
LINE
  5
24F
330
1E
100
AcDbEntity
  8
0
100
AcDbLine
 10
48.719435
 20
504.6096999999999
 30
0.0
 11
49.025435
 21
504.6096999999999
 31
0.0
  0
LINE
  5
250
330
1E
100
AcDbEntity
  8
0
100
AcDbLine
 10
48.719435
 20
504.6096999999999
 30
0.0
 11
48.9429792841023
 21
504.6096999999999
 31
0.0
  0
LINE
  5
251
330
1E
100
AcDbEntity
  8
0
100
AcDbLine
 10
48.719435
 20
496.7157
 30
0.0
 11
49.025435
 21
496.7157
 31
0.0
  0
LINE
  5
252
330
1E
100
AcDbEntity
  8
0
100
AcDbLine
 10
48.515435
 20
496.4076999999999
 30
0.0
 11
48.719435
 21
496.7157
 31
0.0
  0
LINE
  5
253
330
1E
100
AcDbEntity
  8
0
100
AcDbLine
 10
48.515435
 20
496.4076999999999
 30
0.0
 11
48.515435
 21
489.0236999999999
 31
0.0
  0
LINE
  5
258
330
1E
100
AcDbEntity
  8
0
100
AcDbLine
 10
48.77973499999999
 20
464.6557
 30
0.0
 11
49.085735
 21
464.6557
 31
0.0
  0
LINE
  5
25A
330
1E
100
AcDbEntity
  8
0
100
AcDbLine
 10
48.9552217213739
 20
488.7157
 30
0.0
 11
48.9613837635391
 21
480.7157
 31
0.0
  0
LINE
  5
25B
330
1E
100
AcDbEntity
  8
0
100
AcDbLine
 10
48.515435
 20
504.9177
 30
0.0
 11
48.719435
 21
504.6096999999999
 31
0.0
  0
LINE
  5
25C
330
1E
100
AcDbEntity
  8
0
100
AcDbLine
 10
48.515435
 20
504.9177
 30
0.0
 11
48.515435
 21
512.3026999999999
 31
0.0
  0
LINE
  5
25E
330
1E
100
AcDbEntity
  8
0
100
AcDbLine
 10
48.515435
 20
512.3026999999999
 30
0.0
 11
48.719435
 21
512.6096999999999
 31
0.0
  0
LINE
  5
25F
330
1E
100
AcDbEntity
  8
0
100
AcDbLine
 10
48.515435
 20
512.3026999999999
 30
0.0
 11
48.515435
 21
504.9177
 31
0.0
  0
LINE
  5
260
330
1E
100
AcDbEntity
  8
0
100
AcDbLine
 10
48.619735
 20
520.6916999999999
 30
0.0
 11
48.836835
 21
520.3927
 31
0.0
  0
LINE
  5
261
330
1E
100
AcDbEntity
  8
0
100
AcDbLine
 10
48.29963499999999
 20
528.0687
 30
0.0
 11
48.490035
 21
528.3857
 31
0.0
  0
LINE
  5
262
330
1E
100
AcDbEntity
  8
0
100
AcDbLine
 10
48.29963499999999
 20
528.0687
 30
0.0
 11
48.619735
 21
520.6916999999999
 31
0.0
  0
LINE
  5
263
330
1E
100
AcDbEntity
  8
0
100
AcDbLine
 10
48.490035
 20
528.3857
 30
0.0
 11
48.795735
 21
528.3986999999999
 31
0.0
  0
LINE
  5
264
330
1E
100
AcDbEntity
  8
0
100
AcDbLine
 10
48.490035
 20
528.3857
 30
0.0
 11
48.7510953104841
 21
528.3968016815059
 31
0.0
  0
LINE
  5
266
330
1E
100
AcDbEntity
  8
0
100
AcDbLine
 10
47.93013499999999
 20
536.6547
 30
0.0
 11
48.23563499999999
 21
536.6706999999999
 31
0.0
  0
LINE
  5
267
330
1E
100
AcDbEntity
  8
0
100
AcDbLine
 10
48.23563499999999
 20
536.6706999999999
 30
0.0
 11
49.050635
 21
536.7127
 31
0.0
  0
LINE
  5
268
330
1E
100
AcDbEntity
  8
0
100
AcDbLine
 10
48.836835
 20
520.3927
 30
0.0
 11
49.142535
 21
520.4057
 31
0.0
  0
LINE
  5
269
330
1E
100
AcDbEntity
  8
0
100
AcDbLine
 10
48.836835
 20
520.3927
 30
0.0
 11
48.93081926667569
 21
520.39669671399
 31
0.0
  0
LINE
  5
26B
330
1E
100
AcDbEntity
  8
0
100
AcDbLine
 10
48.795735
 20
528.3986999999999
 30
0.0
 11
49.611035
 21
528.4337
 31
0.0
  0
LINE
  5
26C
330
1E
100
AcDbEntity
  8
0
100
AcDbLine
 10
48.719435
 20
512.6096999999999
 30
0.0
 11
49.025435
 21
512.6096999999999
 31
0.0
  0
LINE
  5
26E
330
1E
100
AcDbEntity
  8
0
100
AcDbLine
 10
48.93081926667569
 20
520.39669671399
 30
0.0
 11
48.9368172419372
 21
512.6096999999999
 31
0.0
  0
LINE
  5
26F
330
1E
100
AcDbEntity
  8
0
100
AcDbLine
 10
48.9429792841023
 20
504.6096999999999
 30
0.0
 11
48.94905967920879
 21
496.7157
 31
0.0
  0
LINE
  5
270
330
1E
100
AcDbEntity
  8
0
100
AcDbLine
 10
49.025435
 20
472.7157
 30
0.0
 11
49.841435
 21
472.7157
 31
0.0
  0
LINE
  5
271
330
1E
100
AcDbEntity
  8
0
100
AcDbLine
 10
49.025435
 20
480.7157
 30
0.0
 11
49.841435
 21
480.7157
 31
0.0
  0
LINE
  5
272
330
1E
100
AcDbEntity
  8
0
100
AcDbLine
 10
49.025435
 20
488.7157
 30
0.0
 11
49.841435
 21
488.7157
 31
0.0
  0
LINE
  5
273
330
1E
100
AcDbEntity
  8
0
100
AcDbLine
 10
49.025435
 20
504.6096999999999
 30
0.0
 11
49.841435
 21
504.6096999999999
 31
0.0
  0
LINE
  5
274
330
1E
100
AcDbEntity
  8
0
100
AcDbLine
 10
49.025435
 20
512.6096999999999
 30
0.0
 11
49.841435
 21
512.6096999999999
 31
0.0
  0
LINE
  5
275
330
1E
100
AcDbEntity
  8
0
100
AcDbLine
 10
49.025435
 20
496.7157
 30
0.0
 11
49.841435
 21
496.7157
 31
0.0
  0
LINE
  5
276
330
1E
100
AcDbEntity
  8
0
100
AcDbLine
 10
48.9675458057042
 20
472.7157
 30
0.0
 11
48.97375406318561
 21
464.6557
 31
0.0
  0
LINE
  5
277
330
1E
100
AcDbEntity
  8
0
100
AcDbLine
 10
48.9799161053508
 20
456.6557
 30
0.0
 11
48.98611357925839
 21
448.6097
 31
0.0
  0
LINE
  5
278
330
1E
100
AcDbEntity
  8
0
100
AcDbLine
 10
49.0292940897307
 20
392.5497
 30
0.0
 11
49.03532826952091
 21
384.7157
 31
0.0
  0
LINE
  5
279
330
1E
100
AcDbEntity
  8
0
100
AcDbLine
 10
49.04149031168611
 20
376.7157
 30
0.0
 11
49.0476523538512
 21
368.7157
 31
0.0
  0
LINE
  5
27A
330
1E
100
AcDbEntity
  8
0
100
AcDbLine
 10
49.085735
 20
304.6557
 30
0.0
 11
49.901735
 21
304.6557
 31
0.0
  0
LINE
  5
27B
330
1E
100
AcDbEntity
  8
0
100
AcDbLine
 10
49.085735
 20
312.6557
 30
0.0
 11
49.901735
 21
312.6557
 31
0.0
  0
LINE
  5
27C
330
1E
100
AcDbEntity
  8
0
100
AcDbLine
 10
49.085735
 20
328.6557
 30
0.0
 11
49.901735
 21
328.6557
 31
0.0
  0
LINE
  5
27D
330
1E
100
AcDbEntity
  8
0
100
AcDbLine
 10
49.085735
 20
392.5497
 30
0.0
 11
49.901735
 21
392.5497
 31
0.0
  0
LINE
  5
27E
330
1E
100
AcDbEntity
  8
0
100
AcDbLine
 10
49.085735
 20
400.5497
 30
0.0
 11
49.901735
 21
400.5497
 31
0.0
  0
LINE
  5
27F
330
1E
100
AcDbEntity
  8
0
100
AcDbLine
 10
49.085735
 20
336.6557
 30
0.0
 11
49.901735
 21
336.6557
 31
0.0
  0
LINE
  5
280
330
1E
100
AcDbEntity
  8
0
100
AcDbLine
 10
49.085735
 20
456.6557
 30
0.0
 11
49.901735
 21
456.6557
 31
0.0
  0
LINE
  5
281
330
1E
100
AcDbEntity
  8
0
100
AcDbLine
 10
49.085735
 20
464.6557
 30
0.0
 11
49.901735
 21
464.6557
 31
0.0
  0
LINE
  5
282
330
1E
100
AcDbEntity
  8
0
100
AcDbLine
 10
49.085735
 20
320.6557
 30
0.0
 11
49.901735
 21
320.6557
 31
0.0
  0
LINE
  5
283
330
1E
100
AcDbEntity
  8
0
100
AcDbLine
 10
49.0908328643235
 20
312.6557
 30
0.0
 11
49.0969949064887
 21
304.6557
 31
0.0
  0
LINE
  5
284
330
1E
100
AcDbEntity
  8
0
100
AcDbLine
 10
49.0908328643235
 20
312.6557
 30
0.0
 11
49.0969949064887
 21
304.6557
 31
0.0
  0
LINE
  5
285
330
1E
100
AcDbEntity
  8
0
100
AcDbLine
 10
49.0785087799932
 20
328.6557
 30
0.0
 11
49.08467082215839
 21
320.6557
 31
0.0
  0
LINE
  5
286
330
1E
100
AcDbEntity
  8
0
100
AcDbLine
 10
49.10315694865379
 20
296.6557
 30
0.0
 11
49.10927277550279
 21
288.7157
 31
0.0
  0
LINE
  5
287
330
1E
100
AcDbEntity
  8
0
100
AcDbLine
 10
49.10315694865379
 20
296.6557
 30
0.0
 11
49.10927277550279
 21
288.7157
 31
0.0
  0
LINE
  5
288
330
1E
100
AcDbEntity
  8
0
100
AcDbLine
 10
49.142535
 20
520.4057
 30
0.0
 11
49.50190897298639
 21
520.421568346655
 31
0.0
  0
LINE
  5
289
330
1E
100
AcDbEntity
  8
0
100
AcDbLine
 10
49.12775890199821
 20
264.7157
 30
0.0
 11
49.1338331350625
 21
256.8297
 31
0.0
  0
LINE
  5
28A
330
1E
100
AcDbEntity
  8
0
100
AcDbLine
 10
49.1154348176679
 20
280.7157
 30
0.0
 11
49.1215968598331
 21
272.7157
 31
0.0
  0
LINE
  5
28B
330
1E
100
AcDbEntity
  8
0
100
AcDbLine
 10
49.1154348176679
 20
280.7157
 30
0.0
 11
49.1215968598331
 21
272.7157
 31
0.0
  0
LINE
  5
28C
330
1E
100
AcDbEntity
  8
0
100
AcDbLine
 10
49.12775890199821
 20
264.7157
 30
0.0
 11
49.1338331350625
 21
256.8297
 31
0.0
  0
LINE
  5
28D
330
1E
100
AcDbEntity
  8
0
100
AcDbLine
 10
49.1646433458883
 20
216.8296999999999
 30
0.0
 11
49.1708053880534
 21
208.8296999999999
 31
0.0
  0
LINE
  5
28E
330
1E
100
AcDbEntity
  8
0
100
AcDbLine
 10
49.152319261558
 20
232.8297
 30
0.0
 11
49.1584813037231
 21
224.8296999999999
 31
0.0
  0
LINE
  5
28F
330
1E
100
AcDbEntity
  8
0
100
AcDbLine
 10
49.152319261558
 20
232.8297
 30
0.0
 11
49.1584813037231
 21
224.8296999999999
 31
0.0
  0
LINE
  5
290
330
1E
100
AcDbEntity
  8
0
100
AcDbLine
 10
49.1646433458883
 20
216.8296999999999
 30
0.0
 11
49.1708053880534
 21
208.8296999999999
 31
0.0
  0
LINE
  5
291
330
1E
100
AcDbEntity
  8
0
100
AcDbLine
 10
49.266635
 20
136.8297
 30
0.0
 11
50.08263499999999
 21
136.8297
 31
0.0
  0
LINE
  5
292
330
1E
100
AcDbEntity
  8
0
100
AcDbLine
 10
49.266635
 20
144.8296999999999
 30
0.0
 11
50.08263499999999
 21
144.8296999999999
 31
0.0
  0
LINE
  5
293
330
1E
100
AcDbEntity
  8
0
100
AcDbLine
 10
49.266635
 20
152.8297
 30
0.0
 11
50.08263499999999
 21
152.8297
 31
0.0
  0
LINE
  5
294
330
1E
100
AcDbEntity
  8
0
100
AcDbLine
 10
49.266635
 20
160.8297
 30
0.0
 11
50.08263499999999
 21
160.8297
 31
0.0
  0
LINE
  5
295
330
1E
100
AcDbEntity
  8
0
100
AcDbLine
 10
49.266635
 20
168.8297
 30
0.0
 11
50.08263499999999
 21
168.8297
 31
0.0
  0
LINE
  5
296
330
1E
100
AcDbEntity
  8
0
100
AcDbLine
 10
49.266635
 20
184.8297
 30
0.0
 11
50.08263499999999
 21
184.8297
 31
0.0
  0
LINE
  5
297
330
1E
100
AcDbEntity
  8
0
100
AcDbLine
 10
49.266635
 20
192.8297
 30
0.0
 11
50.08263499999999
 21
192.8297
 31
0.0
  0
LINE
  5
298
330
1E
100
AcDbEntity
  8
0
100
AcDbLine
 10
49.266635
 20
176.8297
 30
0.0
 11
50.08263499999999
 21
176.8297
 31
0.0
  0
LINE
  5
299
330
1E
100
AcDbEntity
  8
0
100
AcDbLine
 10
49.266635
 20
200.8297
 30
0.0
 11
50.08263499999999
 21
200.8297
 31
0.0
  0
LINE
  5
29A
330
1E
100
AcDbEntity
  8
0
100
AcDbLine
 10
49.266635
 20
232.8297
 30
0.0
 11
50.08263499999999
 21
232.8297
 31
0.0
  0
LINE
  5
29B
330
1E
100
AcDbEntity
  8
0
100
AcDbLine
 10
49.266635
 20
240.8297
 30
0.0
 11
50.08263499999999
 21
240.8297
 31
0.0
  0
LINE
  5
29C
330
1E
100
AcDbEntity
  8
0
100
AcDbLine
 10
49.266635
 20
248.8297
 30
0.0
 11
50.08263499999999
 21
248.8297
 31
0.0
  0
LINE
  5
29D
330
1E
100
AcDbEntity
  8
0
100
AcDbLine
 10
49.266635
 20
256.8297
 30
0.0
 11
50.08263499999999
 21
256.8297
 31
0.0
  0
LINE
  5
29E
330
1E
100
AcDbEntity
  8
0
100
AcDbLine
 10
49.266635
 20
216.8296999999999
 30
0.0
 11
50.08263499999999
 21
216.8296999999999
 31
0.0
  0
LINE
  5
29F
330
1E
100
AcDbEntity
  8
0
100
AcDbLine
 10
49.266635
 20
264.7157
 30
0.0
 11
50.08263499999999
 21
264.7157
 31
0.0
  0
LINE
  5
2A0
330
1E
100
AcDbEntity
  8
0
100
AcDbLine
 10
49.266635
 20
280.7157
 30
0.0
 11
50.08263499999999
 21
280.7157
 31
0.0
  0
LINE
  5
2A1
330
1E
100
AcDbEntity
  8
0
100
AcDbLine
 10
49.266635
 20
288.7157
 30
0.0
 11
50.08263499999999
 21
288.7157
 31
0.0
  0
LINE
  5
2A2
330
1E
100
AcDbEntity
  8
0
100
AcDbLine
 10
49.266635
 20
272.7157
 30
0.0
 11
50.08263499999999
 21
272.7157
 31
0.0
  0
LINE
  5
2A3
330
1E
100
AcDbEntity
  8
0
100
AcDbLine
 10
49.266635
 20
224.8296999999999
 30
0.0
 11
50.08263499999999
 21
224.8296999999999
 31
0.0
  0
LINE
  5
2A4
330
1E
100
AcDbEntity
  8
0
100
AcDbLine
 10
49.266635
 20
208.8296999999999
 30
0.0
 11
50.08263499999999
 21
208.8296999999999
 31
0.0
  0
LINE
  5
2A5
330
1E
100
AcDbEntity
  8
0
100
AcDbLine
 10
49.266635
 20
128.8297
 30
0.0
 11
50.08263499999999
 21
128.8297
 31
0.0
  0
LINE
  5
2A6
330
1E
100
AcDbEntity
  8
0
100
AcDbLine
 10
49.2385878518701
 20
120.8296999999999
 30
0.0
 11
49.2447498940353
 21
112.8297
 31
0.0
  0
LINE
  5
2A7
330
1E
100
AcDbEntity
  8
0
100
AcDbLine
 10
49.2262637675398
 20
136.8297
 30
0.0
 11
49.232425809705
 21
128.8297
 31
0.0
  0
LINE
  5
2A8
330
1E
100
AcDbEntity
  8
0
100
AcDbLine
 10
49.2385878518701
 20
120.8296999999999
 30
0.0
 11
49.2447498940353
 21
112.8297
 31
0.0
  0
LINE
  5
2A9
330
1E
100
AcDbEntity
  8
0
100
AcDbLine
 10
49.30020804244509
 20
40.83
 30
0.0
 11
49.30637008461021
 21
32.82999999999999
 31
0.0
  0
LINE
  5
2AA
330
1E
100
AcDbEntity
  8
0
100
AcDbLine
 10
49.28788418919129
 20
56.8297
 30
0.0
 11
49.29404600027989
 21
48.83
 31
0.0
  0
LINE
  5
2AB
330
1E
100
AcDbEntity
  8
0
100
AcDbLine
 10
49.28788418919129
 20
56.8297
 30
0.0
 11
49.29404600027989
 21
48.83
 31
0.0
  0
LINE
  5
2AC
330
1E
100
AcDbEntity
  8
0
100
AcDbLine
 10
49.275560104861
 20
72.8297
 30
0.0
 11
49.28172214702621
 21
64.8297
 31
0.0
  0
LINE
  5
2AD
330
1E
100
AcDbEntity
  8
0
100
AcDbLine
 10
49.30020804244509
 20
40.83
 30
0.0
 11
49.30637008461021
 21
32.82999999999999
 31
0.0
  0
LINE
  5
2AE
330
1E
100
AcDbEntity
  8
0
100
AcDbLine
 10
49.32485613408011
 20
8.83009999999999
 30
0.0
 11
49.329035
 21
3.404799999999959
 31
0.0
  0
LINE
  5
2AF
330
1E
100
AcDbEntity
  8
0
100
AcDbLine
 10
49.3125321267754
 20
24.83
 30
0.0
 11
49.31869416894049
 21
16.82999999999999
 31
0.0
  0
LINE
  5
2B0
330
1E
100
AcDbEntity
  8
0
100
AcDbLine
 10
49.32485613408011
 20
8.83009999999999
 30
0.0
 11
49.329035
 21
3.404799999999999
 31
0.0
  0
LINE
  5
2B1
330
1E
100
AcDbEntity
  8
0
100
AcDbLine
 10
49.51541187997371
 20
520.4221645746099
 30
0.0
 11
49.95783499999999
 21
520.4416999999999
 31
0.0
  0
LINE
  5
2B3
330
1E
100
AcDbEntity
  8
0
100
AcDbLine
 10
50.08263499999999
 20
8.83009999999999
 30
0.0
 11
51.408635
 21
8.83009999999999
 31
0.0
  0
LINE
  5
2B6
330
1E
100
AcDbEntity
  8
0
100
AcDbLine
 10
50.08263499999999
 20
24.83
 30
0.0
 11
51.408635
 21
24.83
 31
0.0
  0
LINE
  5
2BA
330
1E
100
AcDbEntity
  8
0
100
AcDbLine
 10
50.08263499999999
 20
40.83
 30
0.0
 11
51.408635
 21
40.83
 31
0.0
  0
LINE
  5
2BB
330
1E
100
AcDbEntity
  8
0
100
AcDbLine
 10
50.08263499999999
 20
48.83
 30
0.0
 11
51.408635
 21
48.83
 31
0.0
  0
LINE
  5
2BC
330
1E
100
AcDbEntity
  8
0
100
AcDbLine
 10
50.08263499999999
 20
56.8297
 30
0.0
 11
51.408635
 21
56.8297
 31
0.0
  0
LINE
  5
2C2
330
1E
100
AcDbEntity
  8
0
100
AcDbLine
 10
50.08263499999999
 20
72.8297
 30
0.0
 11
51.408635
 21
72.8297
 31
0.0
  0
LINE
  5
2C3
330
1E
100
AcDbEntity
  8
0
100
AcDbLine
 10
50.08263499999999
 20
80.82970000000001
 30
0.0
 11
51.408635
 21
80.82970000000001
 31
0.0
  0
LINE
  5
2C9
330
1E
100
AcDbEntity
  8
0
100
AcDbLine
 10
49.611035
 20
528.4337
 30
0.0
 11
50.935735
 21
528.4917
 31
0.0
  0
LINE
  5
2DF
330
1E
100
AcDbEntity
  8
0
100
AcDbLine
 10
49.841435
 20
344.7157
 30
0.0
 11
51.167435
 21
344.7157
 31
0.0
  0
LINE
  5
2E0
330
1E
100
AcDbEntity
  8
0
100
AcDbLine
 10
49.841435
 20
352.7157
 30
0.0
 11
51.167435
 21
352.7157
 31
0.0
  0
LINE
  5
2E1
330
1E
100
AcDbEntity
  8
0
100
AcDbLine
 10
49.841435
 20
360.7157
 30
0.0
 11
51.167435
 21
360.7157
 31
0.0
  0
LINE
  5
2E5
330
1E
100
AcDbEntity
  8
0
100
AcDbLine
 10
49.841435
 20
408.6096999999999
 30
0.0
 11
51.167435
 21
408.6096999999999
 31
0.0
  0
LINE
  5
2E6
330
1E
100
AcDbEntity
  8
0
100
AcDbLine
 10
49.841435
 20
416.6096999999999
 30
0.0
 11
51.167435
 21
416.6096999999999
 31
0.0
  0
LINE
  5
2E7
330
1E
100
AcDbEntity
  8
0
100
AcDbLine
 10
49.841435
 20
376.7157
 30
0.0
 11
51.167435
 21
376.7157
 31
0.0
  0
LINE
  5
2E8
330
1E
100
AcDbEntity
  8
0
100
AcDbLine
 10
49.841435
 20
424.6096999999999
 30
0.0
 11
51.167435
 21
424.6096999999999
 31
0.0
  0
LINE
  5
2E9
330
1E
100
AcDbEntity
  8
0
100
AcDbLine
 10
49.841435
 20
432.6096999999999
 30
0.0
 11
51.167435
 21
432.6096999999999
 31
0.0
  0
LINE
  5
2EA
330
1E
100
AcDbEntity
  8
0
100
AcDbLine
 10
49.841435
 20
440.6096999999999
 30
0.0
 11
51.167435
 21
440.6096999999999
 31
0.0
  0
LINE
  5
2EB
330
1E
100
AcDbEntity
  8
0
100
AcDbLine
 10
49.841435
 20
472.7157
 30
0.0
 11
51.167435
 21
472.7157
 31
0.0
  0
LINE
  5
2EC
330
1E
100
AcDbEntity
  8
0
100
AcDbLine
 10
49.841435
 20
480.7157
 30
0.0
 11
51.167435
 21
480.7157
 31
0.0
  0
LINE
  5
2ED
330
1E
100
AcDbEntity
  8
0
100
AcDbLine
 10
49.841435
 20
504.6096999999999
 30
0.0
 11
51.167435
 21
504.6096999999999
 31
0.0
  0
LINE
  5
2EE
330
1E
100
AcDbEntity
  8
0
100
AcDbLine
 10
49.841435
 20
512.6096999999999
 30
0.0
 11
51.167435
 21
512.6096999999999
 31
0.0
  0
LINE
  5
2EF
330
1E
100
AcDbEntity
  8
0
100
AcDbLine
 10
49.841435
 20
488.7157
 30
0.0
 11
51.167435
 21
488.7157
 31
0.0
  0
LINE
  5
2F0
330
1E
100
AcDbEntity
  8
0
100
AcDbLine
 10
49.841435
 20
496.7157
 30
0.0
 11
51.167435
 21
496.7157
 31
0.0
  0
LINE
  5
2F1
330
1E
100
AcDbEntity
  8
0
100
AcDbLine
 10
49.841435
 20
448.6097
 30
0.0
 11
51.167435
 21
448.6097
 31
0.0
  0
LINE
  5
2F2
330
1E
100
AcDbEntity
  8
0
100
AcDbLine
 10
49.841435
 20
384.7157
 30
0.0
 11
51.167435
 21
384.7157
 31
0.0
  0
LINE
  5
2F3
330
1E
100
AcDbEntity
  8
0
100
AcDbLine
 10
49.841435
 20
368.7157
 30
0.0
 11
51.167435
 21
368.7157
 31
0.0
  0
LINE
  5
306
330
1E
100
AcDbEntity
  8
0
100
AcDbLine
 10
49.901735
 20
296.6557
 30
0.0
 11
51.227735
 21
296.6557
 31
0.0
  0
LINE
  5
307
330
1E
100
AcDbEntity
  8
0
100
AcDbLine
 10
49.901735
 20
304.6557
 30
0.0
 11
51.227735
 21
304.6557
 31
0.0
  0
LINE
  5
308
330
1E
100
AcDbEntity
  8
0
100
AcDbLine
 10
49.901735
 20
312.6557
 30
0.0
 11
51.227735
 21
312.6557
 31
0.0
  0
LINE
  5
309
330
1E
100
AcDbEntity
  8
0
100
AcDbLine
 10
49.901735
 20
328.6557
 30
0.0
 11
51.227735
 21
328.6557
 31
0.0
  0
LINE
  5
30A
330
1E
100
AcDbEntity
  8
0
100
AcDbLine
 10
49.901735
 20
392.5497
 30
0.0
 11
51.227735
 21
392.5497
 31
0.0
  0
LINE
  5
30B
330
1E
100
AcDbEntity
  8
0
100
AcDbLine
 10
49.901735
 20
456.6557
 30
0.0
 11
51.227735
 21
456.6557
 31
0.0
  0
LINE
  5
30C
330
1E
100
AcDbEntity
  8
0
100
AcDbLine
 10
49.95783499999999
 20
520.4416999999999
 30
0.0
 11
51.28253499999999
 21
520.4987
 31
0.0
  0
LINE
  5
30D
330
1E
100
AcDbEntity
  8
0
100
AcDbLine
 10
49.901735
 20
464.6557
 30
0.0
 11
51.227735
 21
464.6557
 31
0.0
  0
LINE
  5
30E
330
1E
100
AcDbEntity
  8
0
100
AcDbLine
 10
49.901735
 20
400.5497
 30
0.0
 11
51.227735
 21
400.5497
 31
0.0
  0
LINE
  5
30F
330
1E
100
AcDbEntity
  8
0
100
AcDbLine
 10
49.901735
 20
336.6557
 30
0.0
 11
51.227735
 21
336.6557
 31
0.0
  0
LINE
  5
310
330
1E
100
AcDbEntity
  8
0
100
AcDbLine
 10
49.901735
 20
320.6557
 30
0.0
 11
51.227735
 21
320.6557
 31
0.0
  0
LINE
  5
317
330
1E
100
AcDbEntity
  8
0
100
AcDbLine
 10
50.08263499999999
 20
64.8297
 30
0.0
 11
51.408635
 21
64.8297
 31
0.0
  0
LINE
  5
319
330
1E
100
AcDbEntity
  8
0
100
AcDbLine
 10
50.08263499999999
 20
32.82999999999999
 30
0.0
 11
51.408635
 21
32.82999999999999
 31
0.0
  0
LINE
  5
31E
330
1E
100
AcDbEntity
  8
0
100
AcDbLine
 10
50.08263499999999
 20
88.8297
 30
0.0
 11
51.408635
 21
88.8297
 31
0.0
  0
LINE
  5
31F
330
1E
100
AcDbEntity
  8
0
100
AcDbLine
 10
50.08263499999999
 20
96.8297
 30
0.0
 11
51.408635
 21
96.8297
 31
0.0
  0
LINE
  5
320
330
1E
100
AcDbEntity
  8
0
100
AcDbLine
 10
50.08263499999999
 20
136.8297
 30
0.0
 11
51.408635
 21
136.8297
 31
0.0
  0
LINE
  5
321
330
1E
100
AcDbEntity
  8
0
100
AcDbLine
 10
50.08263499999999
 20
144.8296999999999
 30
0.0
 11
51.408635
 21
144.8296999999999
 31
0.0
  0
LINE
  5
322
330
1E
100
AcDbEntity
  8
0
100
AcDbLine
 10
50.08263499999999
 20
152.8297
 30
0.0
 11
51.408635
 21
152.8297
 31
0.0
  0
LINE
  5
323
330
1E
100
AcDbEntity
  8
0
100
AcDbLine
 10
50.08263499999999
 20
160.8297
 30
0.0
 11
51.408635
 21
160.8297
 31
0.0
  0
LINE
  5
324
330
1E
100
AcDbEntity
  8
0
100
AcDbLine
 10
50.08263499999999
 20
168.8297
 30
0.0
 11
51.408635
 21
168.8297
 31
0.0
  0
LINE
  5
325
330
1E
100
AcDbEntity
  8
0
100
AcDbLine
 10
50.08263499999999
 20
184.8297
 30
0.0
 11
51.408635
 21
184.8297
 31
0.0
  0
LINE
  5
326
330
1E
100
AcDbEntity
  8
0
100
AcDbLine
 10
50.08263499999999
 20
192.8297
 30
0.0
 11
51.408635
 21
192.8297
 31
0.0
  0
LINE
  5
327
330
1E
100
AcDbEntity
  8
0
100
AcDbLine
 10
50.08263499999999
 20
176.8297
 30
0.0
 11
51.408635
 21
176.8297
 31
0.0
  0
LINE
  5
328
330
1E
100
AcDbEntity
  8
0
100
AcDbLine
 10
50.08263499999999
 20
200.8297
 30
0.0
 11
51.408635
 21
200.8297
 31
0.0
  0
LINE
  5
329
330
1E
100
AcDbEntity
  8
0
100
AcDbLine
 10
50.08263499999999
 20
120.8296999999999
 30
0.0
 11
51.408635
 21
120.8296999999999
 31
0.0
  0
LINE
  5
32A
330
1E
100
AcDbEntity
  8
0
100
AcDbLine
 10
50.08263499999999
 20
128.8297
 30
0.0
 11
51.408635
 21
128.8297
 31
0.0
  0
LINE
  5
32B
330
1E
100
AcDbEntity
  8
0
100
AcDbLine
 10
50.08263499999999
 20
104.8297
 30
0.0
 11
51.408635
 21
104.8297
 31
0.0
  0
LINE
  5
32C
330
1E
100
AcDbEntity
  8
0
100
AcDbLine
 10
50.08263499999999
 20
232.8297
 30
0.0
 11
51.408635
 21
232.8297
 31
0.0
  0
LINE
  5
32D
330
1E
100
AcDbEntity
  8
0
100
AcDbLine
 10
50.08263499999999
 20
240.8297
 30
0.0
 11
51.408635
 21
240.8297
 31
0.0
  0
LINE
  5
32E
330
1E
100
AcDbEntity
  8
0
100
AcDbLine
 10
50.08263499999999
 20
280.7157
 30
0.0
 11
51.408635
 21
280.7157
 31
0.0
  0
LINE
  5
32F
330
1E
100
AcDbEntity
  8
0
100
AcDbLine
 10
50.08263499999999
 20
288.7157
 30
0.0
 11
51.408635
 21
288.7157
 31
0.0
  0
LINE
  5
330
330
1E
100
AcDbEntity
  8
0
100
AcDbLine
 10
50.08263499999999
 20
264.7157
 30
0.0
 11
51.408635
 21
264.7157
 31
0.0
  0
LINE
  5
331
330
1E
100
AcDbEntity
  8
0
100
AcDbLine
 10
50.08263499999999
 20
272.7157
 30
0.0
 11
51.408635
 21
272.7157
 31
0.0
  0
LINE
  5
332
330
1E
100
AcDbEntity
  8
0
100
AcDbLine
 10
50.08263499999999
 20
248.8297
 30
0.0
 11
51.408635
 21
248.8297
 31
0.0
  0
LINE
  5
333
330
1E
100
AcDbEntity
  8
0
100
AcDbLine
 10
50.08263499999999
 20
256.8297
 30
0.0
 11
51.408635
 21
256.8297
 31
0.0
  0
LINE
  5
334
330
1E
100
AcDbEntity
  8
0
100
AcDbLine
 10
50.08263499999999
 20
216.8296999999999
 30
0.0
 11
51.408635
 21
216.8296999999999
 31
0.0
  0
LINE
  5
337
330
1E
100
AcDbEntity
  8
0
100
AcDbLine
 10
51.227735
 20
296.6557
 30
0.0
 11
52.961735
 21
296.6557
 31
0.0
  0
LINE
  5
338
330
1E
100
AcDbEntity
  8
0
100
AcDbLine
 10
51.227735
 20
304.6557
 30
0.0
 11
52.961735
 21
304.6557
 31
0.0
  0
LINE
  5
339
330
1E
100
AcDbEntity
  8
0
100
AcDbLine
 10
51.227735
 20
312.6557
 30
0.0
 11
52.961735
 21
312.6557
 31
0.0
  0
LINE
  5
33F
330
1E
100
AcDbEntity
  8
0
100
AcDbLine
 10
51.167435
 20
344.7157
 30
0.0
 11
52.901435
 21
344.7157
 31
0.0
  0
LINE
  5
340
330
1E
100
AcDbEntity
  8
0
100
AcDbLine
 10
51.227735
 20
328.6557
 30
0.0
 11
52.961735
 21
328.6557
 31
0.0
  0
LINE
  5
341
330
1E
100
AcDbEntity
  8
0
100
AcDbLine
 10
51.227735
 20
336.6557
 30
0.0
 11
52.961735
 21
336.6557
 31
0.0
  0
LINE
  5
342
330
1E
100
AcDbEntity
  8
0
100
AcDbLine
 10
51.167435
 20
352.7157
 30
0.0
 11
52.901435
 21
352.7157
 31
0.0
  0
LINE
  5
343
330
1E
100
AcDbEntity
  8
0
100
AcDbLine
 10
51.167435
 20
360.7157
 30
0.0
 11
52.901435
 21
360.7157
 31
0.0
  0
LINE
  5
345
330
1E
100
AcDbEntity
  8
0
100
AcDbLine
 10
51.167435
 20
376.7157
 30
0.0
 11
52.901435
 21
376.7157
 31
0.0
  0
LINE
  5
34D
330
1E
100
AcDbEntity
  8
0
100
AcDbLine
 10
51.167435
 20
424.6096999999999
 30
0.0
 11
52.901435
 21
424.6096999999999
 31
0.0
  0
LINE
  5
34E
330
1E
100
AcDbEntity
  8
0
100
AcDbLine
 10
51.167435
 20
432.6096999999999
 30
0.0
 11
52.901435
 21
432.6096999999999
 31
0.0
  0
LINE
  5
34F
330
1E
100
AcDbEntity
  8
0
100
AcDbLine
 10
51.167435
 20
408.6096999999999
 30
0.0
 11
52.901435
 21
408.6096999999999
 31
0.0
  0
LINE
  5
350
330
1E
100
AcDbEntity
  8
0
100
AcDbLine
 10
51.167435
 20
416.6096999999999
 30
0.0
 11
52.901435
 21
416.6096999999999
 31
0.0
  0
LINE
  5
351
330
1E
100
AcDbEntity
  8
0
100
AcDbLine
 10
51.167435
 20
440.6096999999999
 30
0.0
 11
52.901435
 21
440.6096999999999
 31
0.0
  0
LINE
  5
356
330
1E
100
AcDbEntity
  8
0
100
AcDbLine
 10
50.935735
 20
528.4917
 30
0.0
 11
52.668135
 21
528.5667
 31
0.0
  0
LINE
  5
35B
330
1E
100
AcDbEntity
  8
0
100
AcDbLine
 10
51.167435
 20
472.7157
 30
0.0
 11
52.901435
 21
472.7157
 31
0.0
  0
LINE
  5
35D
330
1E
100
AcDbEntity
  8
0
100
AcDbLine
 10
51.167435
 20
480.7157
 30
0.0
 11
52.901435
 21
480.7157
 31
0.0
  0
LINE
  5
360
330
1E
100
AcDbEntity
  8
0
100
AcDbLine
 10
51.167435
 20
448.6097
 30
0.0
 11
52.901435
 21
448.6097
 31
0.0
  0
LINE
  5
362
330
1E
100
AcDbEntity
  8
0
100
AcDbLine
 10
51.167435
 20
384.7157
 30
0.0
 11
52.901435
 21
384.7157
 31
0.0
  0
LINE
  5
364
330
1E
100
AcDbEntity
  8
0
100
AcDbLine
 10
51.227735
 20
392.5497
 30
0.0
 11
52.961735
 21
392.5497
 31
0.0
  0
LINE
  5
365
330
1E
100
AcDbEntity
  8
0
100
AcDbLine
 10
51.167435
 20
504.6096999999999
 30
0.0
 11
52.901435
 21
504.6096999999999
 31
0.0
  0
LINE
  5
366
330
1E
100
AcDbEntity
  8
0
100
AcDbLine
 10
51.167435
 20
512.6096999999999
 30
0.0
 11
52.901435
 21
512.6096999999999
 31
0.0
  0
LINE
  5
367
330
1E
100
AcDbEntity
  8
0
100
AcDbLine
 10
51.167435
 20
488.7157
 30
0.0
 11
52.901435
 21
488.7157
 31
0.0
  0
LINE
  5
368
330
1E
100
AcDbEntity
  8
0
100
AcDbLine
 10
51.167435
 20
496.7157
 30
0.0
 11
52.901435
 21
496.7157
 31
0.0
  0
LINE
  5
369
330
1E
100
AcDbEntity
  8
0
100
AcDbLine
 10
51.227735
 20
400.5497
 30
0.0
 11
52.961735
 21
400.5497
 31
0.0
  0
LINE
  5
36A
330
1E
100
AcDbEntity
  8
0
100
AcDbLine
 10
51.167435
 20
368.7157
 30
0.0
 11
52.901435
 21
368.7157
 31
0.0
  0
LINE
  5
36C
330
1E
100
AcDbEntity
  8
0
100
AcDbLine
 10
51.227735
 20
456.6557
 30
0.0
 11
52.961735
 21
456.6557
 31
0.0
  0
LINE
  5
36D
330
1E
100
AcDbEntity
  8
0
100
AcDbLine
 10
51.227735
 20
464.6557
 30
0.0
 11
52.961735
 21
464.6557
 31
0.0
  0
LINE
  5
36E
330
1E
100
AcDbEntity
  8
0
100
AcDbLine
 10
51.227735
 20
320.6557
 30
0.0
 11
52.961735
 21
320.6557
 31
0.0
  0
LINE
  5
370
330
1E
100
AcDbEntity
  8
0
100
AcDbLine
 10
50.08263499999999
 20
224.8296999999999
 30
0.0
 11
51.408635
 21
224.8296999999999
 31
0.0
  0
LINE
  5
371
330
1E
100
AcDbEntity
  8
0
100
AcDbLine
 10
50.08263499999999
 20
208.8296999999999
 30
0.0
 11
51.408635
 21
208.8296999999999
 31
0.0
  0
LINE
  5
372
330
1E
100
AcDbEntity
  8
0
100
AcDbLine
 10
50.08263499999999
 20
112.8297
 30
0.0
 11
51.408635
 21
112.8297
 31
0.0
  0
LINE
  5
376
330
1E
100
AcDbEntity
  8
0
100
AcDbLine
 10
50.08263499999999
 20
16.82999999999999
 30
0.0
 11
51.408635
 21
16.82999999999999
 31
0.0
  0
LINE
  5
378
330
1E
100
AcDbEntity
  8
0
100
AcDbLine
 10
51.408635
 20
8.83009999999999
 30
0.0
 11
53.142635
 21
8.83009999999999
 31
0.0
  0
LINE
  5
379
330
1E
100
AcDbEntity
  8
0
100
AcDbLine
 10
51.408635
 20
40.83
 30
0.0
 11
53.142635
 21
40.83
 31
0.0
  0
LINE
  5
37A
330
1E
100
AcDbEntity
  8
0
100
AcDbLine
 10
51.408635
 20
48.83
 30
0.0
 11
53.142635
 21
48.83
 31
0.0
  0
LINE
  5
389
330
1E
100
AcDbEntity
  8
0
100
AcDbLine
 10
51.408635
 20
72.8297
 30
0.0
 11
53.142635
 21
72.8297
 31
0.0
  0
LINE
  5
38A
330
1E
100
AcDbEntity
  8
0
100
AcDbLine
 10
51.408635
 20
80.82970000000001
 30
0.0
 11
53.142635
 21
80.82970000000001
 31
0.0
  0
LINE
  5
38B
330
1E
100
AcDbEntity
  8
0
100
AcDbLine
 10
51.408635
 20
88.8297
 30
0.0
 11
53.142635
 21
88.8297
 31
0.0
  0
LINE
  5
38C
330
1E
100
AcDbEntity
  8
0
100
AcDbLine
 10
51.408635
 20
96.8297
 30
0.0
 11
53.142635
 21
96.8297
 31
0.0
  0
LINE
  5
38D
330
1E
100
AcDbEntity
  8
0
100
AcDbLine
 10
51.408635
 20
104.8297
 30
0.0
 11
53.142635
 21
104.8297
 31
0.0
  0
LINE
  5
39A
330
1E
100
AcDbEntity
  8
0
100
AcDbLine
 10
51.28253499999999
 20
520.4987
 30
0.0
 11
53.01493499999999
 21
520.5737
 31
0.0
  0
LINE
  5
39B
330
1E
100
AcDbEntity
  8
0
100
AcDbLine
 10
51.408635
 20
136.8297
 30
0.0
 11
53.142635
 21
136.8297
 31
0.0
  0
LINE
  5
39D
330
1E
100
AcDbEntity
  8
0
100
AcDbLine
 10
51.408635
 20
120.8296999999999
 30
0.0
 11
53.142635
 21
120.8296999999999
 31
0.0
  0
LINE
  5
39E
330
1E
100
AcDbEntity
  8
0
100
AcDbLine
 10
51.408635
 20
128.8297
 30
0.0
 11
53.142635
 21
128.8297
 31
0.0
  0
LINE
  5
39F
330
1E
100
AcDbEntity
  8
0
100
AcDbLine
 10
51.408635
 20
112.8297
 30
0.0
 11
53.142635
 21
112.8297
 31
0.0
  0
LINE
  5
3A1
330
1E
100
AcDbEntity
  8
0
100
AcDbLine
 10
51.408635
 20
56.8297
 30
0.0
 11
53.142635
 21
56.8297
 31
0.0
  0
LINE
  5
3A2
330
1E
100
AcDbEntity
  8
0
100
AcDbLine
 10
51.408635
 20
64.8297
 30
0.0
 11
53.142635
 21
64.8297
 31
0.0
  0
LINE
  5
3A3
330
1E
100
AcDbEntity
  8
0
100
AcDbLine
 10
51.408635
 20
24.83
 30
0.0
 11
53.142635
 21
24.83
 31
0.0
  0
LINE
  5
3A4
330
1E
100
AcDbEntity
  8
0
100
AcDbLine
 10
51.408635
 20
144.8296999999999
 30
0.0
 11
53.142635
 21
144.8296999999999
 31
0.0
  0
LINE
  5
3A5
330
1E
100
AcDbEntity
  8
0
100
AcDbLine
 10
51.408635
 20
152.8297
 30
0.0
 11
53.142635
 21
152.8297
 31
0.0
  0
LINE
  5
3A6
330
1E
100
AcDbEntity
  8
0
100
AcDbLine
 10
51.408635
 20
160.8297
 30
0.0
 11
53.142635
 21
160.8297
 31
0.0
  0
LINE
  5
3A7
330
1E
100
AcDbEntity
  8
0
100
AcDbLine
 10
51.408635
 20
168.8297
 30
0.0
 11
53.142635
 21
168.8297
 31
0.0
  0
LINE
  5
3A8
330
1E
100
AcDbEntity
  8
0
100
AcDbLine
 10
51.408635
 20
184.8297
 30
0.0
 11
53.142635
 21
184.8297
 31
0.0
  0
LINE
  5
3A9
330
1E
100
AcDbEntity
  8
0
100
AcDbLine
 10
51.408635
 20
192.8297
 30
0.0
 11
53.142635
 21
192.8297
 31
0.0
  0
LINE
  5
3AA
330
1E
100
AcDbEntity
  8
0
100
AcDbLine
 10
51.408635
 20
176.8297
 30
0.0
 11
53.142635
 21
176.8297
 31
0.0
  0
LINE
  5
3AB
330
1E
100
AcDbEntity
  8
0
100
AcDbLine
 10
51.408635
 20
200.8297
 30
0.0
 11
53.142635
 21
200.8297
 31
0.0
  0
LINE
  5
3AC
330
1E
100
AcDbEntity
  8
0
100
AcDbLine
 10
51.408635
 20
232.8297
 30
0.0
 11
53.142635
 21
232.8297
 31
0.0
  0
LINE
  5
3AD
330
1E
100
AcDbEntity
  8
0
100
AcDbLine
 10
51.408635
 20
240.8297
 30
0.0
 11
53.142635
 21
240.8297
 31
0.0
  0
LINE
  5
3AE
330
1E
100
AcDbEntity
  8
0
100
AcDbLine
 10
51.408635
 20
248.8297
 30
0.0
 11
53.142635
 21
248.8297
 31
0.0
  0
LINE
  5
3AF
330
1E
100
AcDbEntity
  8
0
100
AcDbLine
 10
51.408635
 20
256.8297
 30
0.0
 11
53.142635
 21
256.8297
 31
0.0
  0
LINE
  5
3B0
330
1E
100
AcDbEntity
  8
0
100
AcDbLine
 10
51.408635
 20
216.8296999999999
 30
0.0
 11
53.142635
 21
216.8296999999999
 31
0.0
  0
LINE
  5
3B1
330
1E
100
AcDbEntity
  8
0
100
AcDbLine
 10
51.408635
 20
264.7157
 30
0.0
 11
53.142635
 21
264.7157
 31
0.0
  0
LINE
  5
3B2
330
1E
100
AcDbEntity
  8
0
100
AcDbLine
 10
51.408635
 20
280.7157
 30
0.0
 11
53.142635
 21
280.7157
 31
0.0
  0
LINE
  5
3B3
330
1E
100
AcDbEntity
  8
0
100
AcDbLine
 10
51.408635
 20
288.7157
 30
0.0
 11
53.142635
 21
288.7157
 31
0.0
  0
LINE
  5
3B4
330
1E
100
AcDbEntity
  8
0
100
AcDbLine
 10
51.408635
 20
272.7157
 30
0.0
 11
53.142635
 21
272.7157
 31
0.0
  0
LINE
  5
3B5
330
1E
100
AcDbEntity
  8
0
100
AcDbLine
 10
51.408635
 20
224.8296999999999
 30
0.0
 11
53.142635
 21
224.8296999999999
 31
0.0
  0
LINE
  5
3B6
330
1E
100
AcDbEntity
  8
0
100
AcDbLine
 10
51.408635
 20
208.8296999999999
 30
0.0
 11
53.142635
 21
208.8296999999999
 31
0.0
  0
LINE
  5
3B7
330
1E
100
AcDbEntity
  8
0
100
AcDbLine
 10
51.408635
 20
32.82999999999999
 30
0.0
 11
53.142635
 21
32.82999999999999
 31
0.0
  0
LINE
  5
3B8
330
1E
100
AcDbEntity
  8
0
100
AcDbLine
 10
51.408635
 20
16.82999999999999
 30
0.0
 11
53.142635
 21
16.82999999999999
 31
0.0
  0
LINE
  5
3BA
330
1E
100
AcDbEntity
  8
0
100
AcDbLine
 10
51.027035
 20
6.32349999999999
 30
0.0
 11
53.422035
 21
7.27559999999999
 31
0.0
  0
LINE
  5
3BB
330
1E
100
AcDbEntity
  8
0
100
AcDbLine
 10
49.594035
 20
4.94979999999999
 30
0.0
 11
51.027035
 21
6.32349999999999
 31
0.0
  0
LINE
  5
3BC
330
1E
100
AcDbEntity
  8
0
100
AcDbLine
 10
50.36303499999999
 20
1.975099999999989
 30
0.0
 11
52.30303499999999
 21
0.798899999999986
 31
0.0
  0
LINE
  5
3BD
330
1E
100
AcDbEntity
  8
0
100
AcDbLine
 10
49.329035
 20
3.404799999999999
 30
0.0
 11
50.36303499999999
 21
1.975099999999989
 31
0.0
  0
LINE
  5
3BE
330
1E
100
AcDbEntity
  8
0
100
AcDbLine
 10
49.329035
 20
3.404799999999999
 30
0.0
 11
49.594035
 21
4.94979999999999
 31
0.0
  0
LINE
  5
3BF
330
1E
100
AcDbEntity
  8
0
100
AcDbLine
 10
47.710435
 20
536.9517
 30
0.0
 11
47.93013499999999
 21
536.6547
 31
0.0
  0
LINE
  5
3C2
330
1E
100
AcDbEntity
  8
0
100
AcDbLine
 10
49.050635
 20
536.7127
 30
0.0
 11
50.374835
 21
536.7817
 31
0.0
  0
LINE
  5
3C3
330
1E
100
AcDbEntity
  8
0
100
AcDbLine
 10
50.374835
 20
536.7817
 30
0.0
 11
52.106535
 21
536.8707
 31
0.0
  0
LINE
  5
3C7
330
1E
100
AcDbEntity
  8
0
100
AcDbLine
 10
47.517035
 20
544.6446999999999
 30
0.0
 11
47.822635
 21
544.6597
 31
0.0
  0
LINE
  5
3C8
330
1E
100
AcDbEntity
  8
0
100
AcDbLine
 10
47.822635
 20
544.6597
 30
0.0
 11
48.637535
 21
544.7027
 31
0.0
  0
LINE
  5
3C9
330
1E
100
AcDbEntity
  8
0
100
AcDbLine
 10
47.37673499999999
 20
552.7147
 30
0.0
 11
47.67983499999999
 21
552.7567
 31
0.0
  0
LINE
  5
3CA
330
1E
100
AcDbEntity
  8
0
100
AcDbLine
 10
47.67983499999999
 20
552.7567
 30
0.0
 11
47.9396953241899
 21
552.793358924586
 31
0.0
  0
LINE
  5
3CC
330
1E
100
AcDbEntity
  8
0
100
AcDbLine
 10
47.9396953241899
 20
552.793358924586
 30
0.0
 11
49.801035
 21
553.0547
 31
0.0
  0
LINE
  5
3CE
330
1E
100
AcDbEntity
  8
0
100
AcDbLine
 10
47.37583499999999
 20
560.7927
 30
0.0
 11
48.688935
 21
560.9767
 31
0.0
  0
LINE
  5
3CF
330
1E
100
AcDbEntity
  8
0
100
AcDbLine
 10
49.801035
 20
553.0547
 30
0.0
 11
51.518135
 21
553.2957
 31
0.0
  0
LINE
  5
3D1
330
1E
100
AcDbEntity
  8
0
100
AcDbLine
 10
48.688935
 20
560.9767
 30
0.0
 11
50.406135
 21
561.2177
 31
0.0
  0
LINE
  5
3D3
330
1E
100
AcDbEntity
  8
0
100
AcDbLine
 10
48.637535
 20
544.7027
 30
0.0
 11
49.961835
 21
544.7707
 31
0.0
  0
LINE
  5
3D4
330
1E
100
AcDbEntity
  8
0
100
AcDbLine
 10
51.518135
 20
553.2957
 30
0.0
 11
53.471035
 21
553.5696999999999
 31
0.0
  0
LINE
  5
3D6
330
1E
100
AcDbEntity
  8
0
100
AcDbLine
 10
50.406135
 20
561.2177
 30
0.0
 11
52.35893499999999
 21
561.4917
 31
0.0
  0
LINE
  5
3D8
330
1E
100
AcDbEntity
  8
0
100
AcDbLine
 10
49.961835
 20
544.7707
 30
0.0
 11
51.69353499999999
 21
544.8606999999999
 31
0.0
  0
LINE
  5
3DA
330
1E
100
AcDbEntity
  8
0
100
AcDbLine
 10
52.106535
 20
536.8707
 30
0.0
 11
54.075835
 21
536.9727
 31
0.0
  0
LINE
  5
3DC
330
1E
100
AcDbEntity
  8
0
100
AcDbLine
 10
51.69353499999999
 20
544.8606999999999
 30
0.0
 11
53.662835
 21
544.9616999999999
 31
0.0
  0
LINE
  5
3DE
330
1E
100
AcDbEntity
  8
0
100
AcDbLine
 10
48.2794217930869
 20
536.6729564973129
 30
0.0
 11
48.7510953104841
 21
528.3968016815059
 31
0.0
  0
LINE
  5
3DF
330
1E
100
AcDbEntity
  8
0
100
AcDbLine
 10
47.3643785826917
 20
552.7286369480059
 30
0.0
 11
47.82423754751139
 21
544.6597845619619
 31
0.0
  0
LINE
  5
3E0
330
1E
100
AcDbEntity
  8
0
100
AcDbLine
 10
43.78723499999999
 20
577.2427
 30
0.0
 11
43.94223499999999
 21
577.5777
 31
0.0
  0
LINE
  5
3E1
330
1E
100
AcDbEntity
  8
0
100
AcDbLine
 10
43.78723499999999
 20
577.2427
 30
0.0
 11
44.90863499999999
 21
569.9437
 31
0.0
  0
LINE
  5
3E2
330
1E
100
AcDbEntity
  8
0
100
AcDbLine
 10
43.89413499999999
 20
584.5026999999999
 30
0.0
 11
45.20223499999999
 21
584.7197
 31
0.0
  0
LINE
  5
3E4
330
1E
100
AcDbEntity
  8
0
100
AcDbLine
 10
43.89023499999999
 20
592.6117
 30
0.0
 11
45.600735
 21
592.8957
 31
0.0
  0
LINE
  5
3E6
330
1E
100
AcDbEntity
  8
0
100
AcDbLine
 10
44.22213499999999
 20
599.2847
 30
0.0
 11
46.146035
 21
599.7177
 31
0.0
  0
LINE
  5
3E8
330
1E
100
AcDbEntity
  8
0
100
AcDbLine
 10
43.94223499999999
 20
577.5777
 30
0.0
 11
44.24463499999999
 21
577.6246999999999
 31
0.0
  0
LINE
  5
3EA
330
1E
100
AcDbEntity
  8
0
100
AcDbLine
 10
44.90863499999999
 20
569.9437
 30
0.0
 11
45.15703499999999
 21
569.6706999999999
 31
0.0
  0
LINE
  5
3EB
330
1E
100
AcDbEntity
  8
0
100
AcDbLine
 10
45.45943499999999
 20
569.7177
 30
0.0
 11
46.26603499999999
 21
569.8416999999999
 31
0.0
  0
LINE
  5
3ED
330
1E
100
AcDbEntity
  8
0
100
AcDbLine
 10
46.26603499999999
 20
569.8416999999999
 30
0.0
 11
47.57663499999999
 21
570.0426999999999
 31
0.0
  0
LINE
  5
3EE
330
1E
100
AcDbEntity
  8
0
100
AcDbLine
 10
47.57663499999999
 20
570.0426999999999
 30
0.0
 11
49.290535
 21
570.3057
 31
0.0
  0
LINE
  5
3F2
330
1E
100
AcDbEntity
  8
0
100
AcDbLine
 10
44.24463499999999
 20
577.6246999999999
 30
0.0
 11
45.05113499999999
 21
577.7486999999999
 31
0.0
  0
LINE
  5
3F3
330
1E
100
AcDbEntity
  8
0
100
AcDbLine
 10
45.05113499999999
 20
577.7486999999999
 30
0.0
 11
46.361835
 21
577.9497
 31
0.0
  0
LINE
  5
3F4
330
1E
100
AcDbEntity
  8
0
100
AcDbLine
 10
46.361835
 20
577.9497
 30
0.0
 11
48.075735
 21
578.2127
 31
0.0
  0
LINE
  5
3F6
330
1E
100
AcDbEntity
  8
0
100
AcDbLine
 10
49.290535
 20
570.3057
 30
0.0
 11
51.239635
 21
570.6056999999999
 31
0.0
  0
LINE
  5
3F7
330
1E
100
AcDbEntity
  8
0
100
AcDbLine
 10
51.239635
 20
570.6056999999999
 30
0.0
 11
53.356835
 21
570.9306999999999
 31
0.0
  0
LINE
  5
3F9
330
1E
100
AcDbEntity
  8
0
100
AcDbLine
 10
48.075735
 20
578.2127
 30
0.0
 11
50.024835
 21
578.5127
 31
0.0
  0
LINE
  5
3FB
330
1E
100
AcDbEntity
  8
0
100
AcDbLine
 10
45.20223499999999
 20
584.7197
 30
0.0
 11
46.912735
 21
585.0036999999999
 31
0.0
  0
LINE
  5
3FD
330
1E
100
AcDbEntity
  8
0
100
AcDbLine
 10
46.912735
 20
585.0036999999999
 30
0.0
 11
48.858035
 21
585.3277
 31
0.0
  0
LINE
  5
3FE
330
1E
100
AcDbEntity
  8
0
100
AcDbLine
 10
50.971035
 20
585.6787
 30
0.0
 11
53.084035
 21
586.0297
 31
0.0
  0
LINE
  5
3FF
330
1E
100
AcDbEntity
  8
0
100
AcDbLine
 10
48.858035
 20
585.3277
 30
0.0
 11
50.971035
 21
585.6787
 31
0.0
  0
LINE
  5
401
330
1E
100
AcDbEntity
  8
0
100
AcDbLine
 10
45.600735
 20
592.8957
 30
0.0
 11
47.54603499999999
 21
593.2197
 31
0.0
  0
LINE
  5
403
330
1E
100
AcDbEntity
  8
0
100
AcDbLine
 10
46.146035
 20
599.7177
 30
0.0
 11
48.235735
 21
600.1876999999999
 31
0.0
  0
LINE
  5
404
330
1E
100
AcDbEntity
  8
0
100
AcDbLine
 10
46.478535
 20
607.9927
 30
0.0
 11
48.56823499999999
 21
608.4637
 31
0.0
  0
LINE
  5
405
330
1E
100
AcDbEntity
  8
0
100
AcDbLine
 10
44.38893499999999
 20
607.5226999999999
 30
0.0
 11
46.478535
 21
607.9927
 31
0.0
  0
LINE
  5
406
330
1E
100
AcDbEntity
  8
0
100
AcDbLine
 10
44.838735
 20
614.7367
 30
0.0
 11
46.92253499999999
 21
615.2327
 31
0.0
  0
LINE
  5
407
330
1E
100
AcDbEntity
  8
0
100
AcDbLine
 10
48.235735
 20
600.1876999999999
 30
0.0
 11
50.325435
 21
600.6586999999999
 31
0.0
  0
LINE
  5
408
330
1E
100
AcDbEntity
  8
0
100
AcDbLine
 10
48.56823499999999
 20
608.4637
 30
0.0
 11
50.492135
 21
608.8967
 31
0.0
  0
LINE
  5
40A
330
1E
100
AcDbEntity
  8
0
100
AcDbLine
 10
48.840835
 20
615.6897
 30
0.0
 11
50.527735
 21
616.0916999999999
 31
0.0
  0
LINE
  5
40B
330
1E
100
AcDbEntity
  8
0
100
AcDbLine
 10
46.92253499999999
 20
615.2327
 30
0.0
 11
48.840835
 21
615.6897
 31
0.0
  0
LINE
  5
40E
330
1E
100
AcDbEntity
  8
0
100
AcDbLine
 10
45.278735
 20
630.2446999999999
 30
0.0
 11
46.929935
 21
630.7736999999999
 31
0.0
  0
LINE
  5
40F
330
1E
100
AcDbEntity
  8
0
100
AcDbLine
 10
46.929935
 20
630.7736999999999
 30
0.0
 11
48.192535
 21
631.1787
 31
0.0
  0
LINE
  5
411
330
1E
100
AcDbEntity
  8
0
100
AcDbLine
 10
48.192535
 20
631.1787
 30
0.0
 11
48.969535
 21
631.4287
 31
0.0
  0
LINE
  5
413
330
1E
100
AcDbEntity
  8
0
100
AcDbLine
 10
48.674735
 20
623.8737
 30
0.0
 11
49.96463499999999
 21
624.1807
 31
0.0
  0
LINE
  5
415
330
1E
100
AcDbEntity
  8
0
100
AcDbLine
 10
46.98793499999999
 20
623.4717
 30
0.0
 11
48.674735
 21
623.8737
 31
0.0
  0
LINE
  5
417
330
1E
100
AcDbEntity
  8
0
100
AcDbLine
 10
45.06953499999999
 20
623.0157
 30
0.0
 11
46.98793499999999
 21
623.4717
 31
0.0
  0
LINE
  5
419
330
1E
100
AcDbEntity
  8
0
100
AcDbLine
 10
50.325435
 20
600.6586999999999
 30
0.0
 11
52.249235
 21
601.0916999999999
 31
0.0
  0
LINE
  5
41B
330
1E
100
AcDbEntity
  8
0
100
AcDbLine
 10
50.492135
 20
608.8967
 30
0.0
 11
52.183735
 21
609.2776999999999
 31
0.0
  0
LINE
  5
41C
330
1E
100
AcDbEntity
  8
0
100
AcDbLine
 10
50.527735
 20
616.0916999999999
 30
0.0
 11
51.81763499999999
 21
616.3986999999999
 31
0.0
  0
LINE
  5
41F
330
1E
100
AcDbEntity
  8
0
100
AcDbLine
 10
51.325935
 20
624.1887
 30
0.0
 11
53.036335
 21
617.0046999999999
 31
0.0
  0
LINE
  5
420
330
1E
100
AcDbEntity
  8
0
100
AcDbLine
 10
51.056135
 20
624.4406999999999
 30
0.0
 11
51.325935
 21
624.1887
 31
0.0
  0
LINE
  5
421
330
1E
100
AcDbEntity
  8
0
100
AcDbLine
 10
50.758535
 20
624.3697
 30
0.0
 11
51.056135
 21
624.4406999999999
 31
0.0
  0
LINE
  5
422
330
1E
100
AcDbEntity
  8
0
100
AcDbLine
 10
49.96463499999999
 20
624.1807
 30
0.0
 11
50.758535
 21
624.3697
 31
0.0
  0
LINE
  5
424
330
1E
100
AcDbEntity
  8
0
100
AcDbLine
 10
51.81763499999999
 20
616.3986999999999
 30
0.0
 11
52.611435
 21
616.5877
 31
0.0
  0
LINE
  5
426
330
1E
100
AcDbEntity
  8
0
100
AcDbLine
 10
51.772035
 20
593.9217
 30
0.0
 11
53.717335
 21
594.2457
 31
0.0
  0
LINE
  5
428
330
1E
100
AcDbEntity
  8
0
100
AcDbLine
 10
49.65903499999999
 20
593.5706999999999
 30
0.0
 11
51.772035
 21
593.9217
 31
0.0
  0
LINE
  5
429
330
1E
100
AcDbEntity
  8
0
100
AcDbLine
 10
47.54603499999999
 20
593.2197
 30
0.0
 11
49.65903499999999
 21
593.5706999999999
 31
0.0
  0
LINE
  5
42A
330
1E
100
AcDbEntity
  8
0
100
AcDbLine
 10
52.249235
 20
601.0916999999999
 30
0.0
 11
53.940935
 21
601.4727
 31
0.0
  0
LINE
  5
42B
330
1E
100
AcDbEntity
  8
0
100
AcDbLine
 10
52.183735
 20
609.2776999999999
 30
0.0
 11
53.47743499999999
 21
609.5687
 31
0.0
  0
LINE
  5
42C
330
1E
100
AcDbEntity
  8
0
100
AcDbLine
 10
52.141935
 20
578.8377
 30
0.0
 11
54.259135
 21
579.1627
 31
0.0
  0
LINE
  5
42D
330
1E
100
AcDbEntity
  8
0
100
AcDbLine
 10
50.024835
 20
578.5127
 30
0.0
 11
52.141935
 21
578.8377
 31
0.0
  0
LINE
  5
42E
330
1E
100
AcDbEntity
  8
0
100
AcDbLine
 10
44.22703499999999
 20
578.6077
 30
0.0
 11
44.356086953974
 21
577.6418358242939
 31
0.0
  0
LINE
  5
42F
330
1E
100
AcDbEntity
  8
0
100
AcDbLine
 10
45.41576101189551
 20
569.7109120454999
 30
0.0
 11
46.62156676024379
 21
560.686294135216
 31
0.0
  0
LINE
  5
430
330
1E
100
AcDbEntity
  8
0
100
AcDbLine
 10
58.24503499999999
 20
-0.0327000000000232
 30
0.0
 11
61.151035
 21
0.475599999999989
 31
0.0
  0
LINE
  5
431
330
1E
100
AcDbEntity
  8
0
100
AcDbLine
 10
55.102035
 20
0.0961999999999857
 30
0.0
 11
58.24503499999999
 21
-0.0327000000000232
 31
0.0
  0
LINE
  5
432
330
1E
100
AcDbEntity
  8
0
100
AcDbLine
 10
53.142635
 20
8.83009999999999
 30
0.0
 11
55.114635
 21
8.83009999999999
 31
0.0
  0
LINE
  5
434
330
1E
100
AcDbEntity
  8
0
100
AcDbLine
 10
53.142635
 20
24.83
 30
0.0
 11
55.114635
 21
24.83
 31
0.0
  0
LINE
  5
438
330
1E
100
AcDbEntity
  8
0
100
AcDbLine
 10
53.142635
 20
40.83
 30
0.0
 11
55.114635
 21
40.83
 31
0.0
  0
LINE
  5
439
330
1E
100
AcDbEntity
  8
0
100
AcDbLine
 10
53.142635
 20
48.83
 30
0.0
 11
55.114635
 21
48.83
 31
0.0
  0
LINE
  5
43A
330
1E
100
AcDbEntity
  8
0
100
AcDbLine
 10
53.142635
 20
56.8297
 30
0.0
 11
55.114635
 21
56.8297
 31
0.0
  0
LINE
  5
447
330
1E
100
AcDbEntity
  8
0
100
AcDbLine
 10
52.35893499999999
 20
561.4917
 30
0.0
 11
54.480135
 21
561.7897
 31
0.0
  0
LINE
  5
448
330
1E
100
AcDbEntity
  8
0
100
AcDbLine
 10
52.668135
 20
528.5667
 30
0.0
 11
54.638235
 21
528.6516999999999
 31
0.0
  0
LINE
  5
45B
330
1E
100
AcDbEntity
  8
0
100
AcDbLine
 10
52.961735
 20
296.6557
 30
0.0
 11
54.933735
 21
296.6557
 31
0.0
  0
LINE
  5
45C
330
1E
100
AcDbEntity
  8
0
100
AcDbLine
 10
52.961735
 20
304.6557
 30
0.0
 11
54.933735
 21
304.6557
 31
0.0
  0
LINE
  5
45D
330
1E
100
AcDbEntity
  8
0
100
AcDbLine
 10
52.961735
 20
312.6557
 30
0.0
 11
54.933735
 21
312.6557
 31
0.0
  0
LINE
  5
460
330
1E
100
AcDbEntity
  8
0
100
AcDbLine
 10
52.901435
 20
344.7157
 30
0.0
 11
54.873435
 21
344.7157
 31
0.0
  0
LINE
  5
461
330
1E
100
AcDbEntity
  8
0
100
AcDbLine
 10
52.901435
 20
352.7157
 30
0.0
 11
54.873435
 21
352.7157
 31
0.0
  0
LINE
  5
467
330
1E
100
AcDbEntity
  8
0
100
AcDbLine
 10
52.901435
 20
376.7157
 30
0.0
 11
54.873435
 21
376.7157
 31
0.0
  0
LINE
  5
468
330
1E
100
AcDbEntity
  8
0
100
AcDbLine
 10
52.901435
 20
384.7157
 30
0.0
 11
54.873435
 21
384.7157
 31
0.0
  0
LINE
  5
469
330
1E
100
AcDbEntity
  8
0
100
AcDbLine
 10
52.901435
 20
360.7157
 30
0.0
 11
54.873435
 21
360.7157
 31
0.0
  0
LINE
  5
46A
330
1E
100
AcDbEntity
  8
0
100
AcDbLine
 10
52.961735
 20
328.6557
 30
0.0
 11
54.933735
 21
328.6557
 31
0.0
  0
LINE
  5
46B
330
1E
100
AcDbEntity
  8
0
100
AcDbLine
 10
52.901435
 20
424.6096999999999
 30
0.0
 11
54.873435
 21
424.6096999999999
 31
0.0
  0
LINE
  5
46C
330
1E
100
AcDbEntity
  8
0
100
AcDbLine
 10
52.901435
 20
432.6096999999999
 30
0.0
 11
54.873435
 21
432.6096999999999
 31
0.0
  0
LINE
  5
46D
330
1E
100
AcDbEntity
  8
0
100
AcDbLine
 10
52.901435
 20
408.6096999999999
 30
0.0
 11
54.873435
 21
408.6096999999999
 31
0.0
  0
LINE
  5
46E
330
1E
100
AcDbEntity
  8
0
100
AcDbLine
 10
52.901435
 20
416.6096999999999
 30
0.0
 11
54.873435
 21
416.6096999999999
 31
0.0
  0
LINE
  5
46F
330
1E
100
AcDbEntity
  8
0
100
AcDbLine
 10
52.901435
 20
472.7157
 30
0.0
 11
54.873435
 21
472.7157
 31
0.0
  0
LINE
  5
470
330
1E
100
AcDbEntity
  8
0
100
AcDbLine
 10
52.901435
 20
480.7157
 30
0.0
 11
54.873435
 21
480.7157
 31
0.0
  0
LINE
  5
471
330
1E
100
AcDbEntity
  8
0
100
AcDbLine
 10
52.901435
 20
504.6096999999999
 30
0.0
 11
54.873435
 21
504.6096999999999
 31
0.0
  0
LINE
  5
472
330
1E
100
AcDbEntity
  8
0
100
AcDbLine
 10
52.901435
 20
512.6096999999999
 30
0.0
 11
54.873435
 21
512.6096999999999
 31
0.0
  0
LINE
  5
473
330
1E
100
AcDbEntity
  8
0
100
AcDbLine
 10
52.901435
 20
488.7157
 30
0.0
 11
54.873435
 21
488.7157
 31
0.0
  0
LINE
  5
474
330
1E
100
AcDbEntity
  8
0
100
AcDbLine
 10
52.901435
 20
496.7157
 30
0.0
 11
54.873435
 21
496.7157
 31
0.0
  0
LINE
  5
475
330
1E
100
AcDbEntity
  8
0
100
AcDbLine
 10
52.901435
 20
440.6096999999999
 30
0.0
 11
54.873435
 21
440.6096999999999
 31
0.0
  0
LINE
  5
476
330
1E
100
AcDbEntity
  8
0
100
AcDbLine
 10
52.961735
 20
392.5497
 30
0.0
 11
54.933735
 21
392.5497
 31
0.0
  0
LINE
  5
477
330
1E
100
AcDbEntity
  8
0
100
AcDbLine
 10
52.961735
 20
456.6557
 30
0.0
 11
54.933735
 21
456.6557
 31
0.0
  0
LINE
  5
478
330
1E
100
AcDbEntity
  8
0
100
AcDbLine
 10
53.01493499999999
 20
520.5737
 30
0.0
 11
54.98503499999999
 21
520.6597
 31
0.0
  0
LINE
  5
479
330
1E
100
AcDbEntity
  8
0
100
AcDbLine
 10
52.961735
 20
464.6557
 30
0.0
 11
54.933735
 21
464.6557
 31
0.0
  0
LINE
  5
47A
330
1E
100
AcDbEntity
  8
0
100
AcDbLine
 10
52.961735
 20
400.5497
 30
0.0
 11
54.933735
 21
400.5497
 31
0.0
  0
LINE
  5
47B
330
1E
100
AcDbEntity
  8
0
100
AcDbLine
 10
52.901435
 20
448.6097
 30
0.0
 11
54.873435
 21
448.6097
 31
0.0
  0
LINE
  5
47C
330
1E
100
AcDbEntity
  8
0
100
AcDbLine
 10
52.961735
 20
336.6557
 30
0.0
 11
54.933735
 21
336.6557
 31
0.0
  0
LINE
  5
47D
330
1E
100
AcDbEntity
  8
0
100
AcDbLine
 10
52.901435
 20
368.7157
 30
0.0
 11
54.873435
 21
368.7157
 31
0.0
  0
LINE
  5
47E
330
1E
100
AcDbEntity
  8
0
100
AcDbLine
 10
52.961735
 20
320.6557
 30
0.0
 11
54.933735
 21
320.6557
 31
0.0
  0
LINE
  5
490
330
1E
100
AcDbEntity
  8
0
100
AcDbLine
 10
53.084035
 20
586.0297
 30
0.0
 11
55.029335
 21
586.3536999999999
 31
0.0
  0
LINE
  5
497
330
1E
100
AcDbEntity
  8
0
100
AcDbLine
 10
53.142635
 20
64.8297
 30
0.0
 11
55.114635
 21
64.8297
 31
0.0
  0
LINE
  5
499
330
1E
100
AcDbEntity
  8
0
100
AcDbLine
 10
53.142635
 20
32.82999999999999
 30
0.0
 11
55.114635
 21
32.82999999999999
 31
0.0
  0
LINE
  5
49B
330
1E
100
AcDbEntity
  8
0
100
AcDbLine
 10
53.142635
 20
72.8297
 30
0.0
 11
55.114635
 21
72.8297
 31
0.0
  0
LINE
  5
49C
330
1E
100
AcDbEntity
  8
0
100
AcDbLine
 10
53.142635
 20
80.82970000000001
 30
0.0
 11
55.114635
 21
80.82970000000001
 31
0.0
  0
LINE
  5
49D
330
1E
100
AcDbEntity
  8
0
100
AcDbLine
 10
53.142635
 20
88.8297
 30
0.0
 11
55.114635
 21
88.8297
 31
0.0
  0
LINE
  5
49E
330
1E
100
AcDbEntity
  8
0
100
AcDbLine
 10
53.142635
 20
96.8297
 30
0.0
 11
55.114635
 21
96.8297
 31
0.0
  0
LINE
  5
49F
330
1E
100
AcDbEntity
  8
0
100
AcDbLine
 10
53.142635
 20
104.8297
 30
0.0
 11
55.114635
 21
104.8297
 31
0.0
  0
LINE
  5
4A0
330
1E
100
AcDbEntity
  8
0
100
AcDbLine
 10
53.142635
 20
136.8297
 30
0.0
 11
55.114635
 21
136.8297
 31
0.0
  0
LINE
  5
4A1
330
1E
100
AcDbEntity
  8
0
100
AcDbLine
 10
53.142635
 20
144.8296999999999
 30
0.0
 11
55.114635
 21
144.8296999999999
 31
0.0
  0
LINE
  5
4A2
330
1E
100
AcDbEntity
  8
0
100
AcDbLine
 10
53.142635
 20
152.8297
 30
0.0
 11
55.114635
 21
152.8297
 31
0.0
  0
LINE
  5
4A3
330
1E
100
AcDbEntity
  8
0
100
AcDbLine
 10
53.142635
 20
160.8297
 30
0.0
 11
55.114635
 21
160.8297
 31
0.0
  0
LINE
  5
4A4
330
1E
100
AcDbEntity
  8
0
100
AcDbLine
 10
53.142635
 20
184.8297
 30
0.0
 11
55.114635
 21
184.8297
 31
0.0
  0
LINE
  5
4A5
330
1E
100
AcDbEntity
  8
0
100
AcDbLine
 10
53.142635
 20
168.8297
 30
0.0
 11
55.114635
 21
168.8297
 31
0.0
  0
LINE
  5
4A6
330
1E
100
AcDbEntity
  8
0
100
AcDbLine
 10
53.142635
 20
176.8297
 30
0.0
 11
55.114635
 21
176.8297
 31
0.0
  0
LINE
  5
4A7
330
1E
100
AcDbEntity
  8
0
100
AcDbLine
 10
53.142635
 20
120.8296999999999
 30
0.0
 11
55.114635
 21
120.8296999999999
 31
0.0
  0
LINE
  5
4A8
330
1E
100
AcDbEntity
  8
0
100
AcDbLine
 10
53.142635
 20
192.8297
 30
0.0
 11
55.114635
 21
192.8297
 31
0.0
  0
LINE
  5
4A9
330
1E
100
AcDbEntity
  8
0
100
AcDbLine
 10
53.142635
 20
200.8297
 30
0.0
 11
55.114635
 21
200.8297
 31
0.0
  0
LINE
  5
4AA
330
1E
100
AcDbEntity
  8
0
100
AcDbLine
 10
53.142635
 20
232.8297
 30
0.0
 11
55.114635
 21
232.8297
 31
0.0
  0
LINE
  5
4AB
330
1E
100
AcDbEntity
  8
0
100
AcDbLine
 10
53.142635
 20
240.8297
 30
0.0
 11
55.114635
 21
240.8297
 31
0.0
  0
LINE
  5
4AC
330
1E
100
AcDbEntity
  8
0
100
AcDbLine
 10
53.142635
 20
280.7157
 30
0.0
 11
55.114635
 21
280.7157
 31
0.0
  0
LINE
  5
4AD
330
1E
100
AcDbEntity
  8
0
100
AcDbLine
 10
53.142635
 20
288.7157
 30
0.0
 11
55.114635
 21
288.7157
 31
0.0
  0
LINE
  5
4AE
330
1E
100
AcDbEntity
  8
0
100
AcDbLine
 10
53.142635
 20
264.7157
 30
0.0
 11
55.114635
 21
264.7157
 31
0.0
  0
LINE
  5
4AF
330
1E
100
AcDbEntity
  8
0
100
AcDbLine
 10
53.142635
 20
272.7157
 30
0.0
 11
55.114635
 21
272.7157
 31
0.0
  0
LINE
  5
4B0
330
1E
100
AcDbEntity
  8
0
100
AcDbLine
 10
53.142635
 20
248.8297
 30
0.0
 11
55.114635
 21
248.8297
 31
0.0
  0
LINE
  5
4B1
330
1E
100
AcDbEntity
  8
0
100
AcDbLine
 10
53.142635
 20
256.8297
 30
0.0
 11
55.114635
 21
256.8297
 31
0.0
  0
LINE
  5
4B2
330
1E
100
AcDbEntity
  8
0
100
AcDbLine
 10
53.142635
 20
216.8296999999999
 30
0.0
 11
55.114635
 21
216.8296999999999
 31
0.0
  0
LINE
  5
4B3
330
1E
100
AcDbEntity
  8
0
100
AcDbLine
 10
53.356835
 20
570.9306999999999
 30
0.0
 11
55.473935
 21
571.2557
 31
0.0
  0
LINE
  5
4B4
330
1E
100
AcDbEntity
  8
0
100
AcDbLine
 10
53.142635
 20
224.8296999999999
 30
0.0
 11
55.114635
 21
224.8296999999999
 31
0.0
  0
LINE
  5
4B5
330
1E
100
AcDbEntity
  8
0
100
AcDbLine
 10
53.142635
 20
208.8296999999999
 30
0.0
 11
55.114635
 21
208.8296999999999
 31
0.0
  0
LINE
  5
4B6
330
1E
100
AcDbEntity
  8
0
100
AcDbLine
 10
53.142635
 20
128.8297
 30
0.0
 11
55.114635
 21
128.8297
 31
0.0
  0
LINE
  5
4B7
330
1E
100
AcDbEntity
  8
0
100
AcDbLine
 10
53.142635
 20
112.8297
 30
0.0
 11
55.114635
 21
112.8297
 31
0.0
  0
LINE
  5
4B8
330
1E
100
AcDbEntity
  8
0
100
AcDbLine
 10
53.142635
 20
16.82999999999999
 30
0.0
 11
55.114635
 21
16.82999999999999
 31
0.0
  0
LINE
  5
4BA
330
1E
100
AcDbEntity
  8
0
100
AcDbLine
 10
55.114635
 20
40.83
 30
0.0
 11
56.3656888908111
 21
40.83
 31
0.0
  0
LINE
  5
4BB
330
1E
100
AcDbEntity
  8
0
100
AcDbLine
 10
55.114635
 20
48.83
 30
0.0
 11
56.37383526429339
 21
48.83
 31
0.0
  0
LINE
  5
4BC
330
1E
100
AcDbEntity
  8
0
100
AcDbLine
 10
55.114635
 20
72.8297
 30
0.0
 11
57.25663499999999
 21
72.8297
 31
0.0
  0
LINE
  5
4BD
330
1E
100
AcDbEntity
  8
0
100
AcDbLine
 10
55.114635
 20
80.82970000000001
 30
0.0
 11
57.25663499999999
 21
80.82970000000001
 31
0.0
  0
LINE
  5
4BE
330
1E
100
AcDbEntity
  8
0
100
AcDbLine
 10
55.114635
 20
88.8297
 30
0.0
 11
57.25663499999999
 21
88.8297
 31
0.0
  0
LINE
  5
4BF
330
1E
100
AcDbEntity
  8
0
100
AcDbLine
 10
55.114635
 20
96.8297
 30
0.0
 11
57.25663499999999
 21
96.8297
 31
0.0
  0
LINE
  5
4C0
330
1E
100
AcDbEntity
  8
0
100
AcDbLine
 10
54.933735
 20
296.6557
 30
0.0
 11
57.07573499999999
 21
296.6557
 31
0.0
  0
LINE
  5
4C1
330
1E
100
AcDbEntity
  8
0
100
AcDbLine
 10
54.933735
 20
304.6557
 30
0.0
 11
57.07573499999999
 21
304.6557
 31
0.0
  0
LINE
  5
4C2
330
1E
100
AcDbEntity
  8
0
100
AcDbLine
 10
54.873435
 20
344.7157
 30
0.0
 11
57.01543499999999
 21
344.7157
 31
0.0
  0
LINE
  5
4C3
330
1E
100
AcDbEntity
  8
0
100
AcDbLine
 10
54.873435
 20
352.7157
 30
0.0
 11
57.01543499999999
 21
352.7157
 31
0.0
  0
LINE
  5
4C4
330
1E
100
AcDbEntity
  8
0
100
AcDbLine
 10
54.873435
 20
424.6096999999999
 30
0.0
 11
57.01543499999999
 21
424.6096999999999
 31
0.0
  0
LINE
  5
4C5
330
1E
100
AcDbEntity
  8
0
100
AcDbLine
 10
54.873435
 20
432.6096999999999
 30
0.0
 11
57.01543499999999
 21
432.6096999999999
 31
0.0
  0
LINE
  5
4C6
330
1E
100
AcDbEntity
  8
0
100
AcDbLine
 10
54.873435
 20
408.6096999999999
 30
0.0
 11
57.01543499999999
 21
408.6096999999999
 31
0.0
  0
LINE
  5
4C7
330
1E
100
AcDbEntity
  8
0
100
AcDbLine
 10
54.873435
 20
416.6096999999999
 30
0.0
 11
57.01543499999999
 21
416.6096999999999
 31
0.0
  0
LINE
  5
4C8
330
1E
100
AcDbEntity
  8
0
100
AcDbLine
 10
53.471035
 20
553.5696999999999
 30
0.0
 11
55.59223499999999
 21
553.8676999999999
 31
0.0
  0
LINE
  5
4C9
330
1E
100
AcDbEntity
  8
0
100
AcDbLine
 10
54.638235
 20
528.6516999999999
 30
0.0
 11
56.77823499999999
 21
528.7446999999999
 31
0.0
  0
LINE
  5
4CA
330
1E
100
AcDbEntity
  8
0
100
AcDbLine
 10
54.259135
 20
579.1627
 30
0.0
 11
56.208235
 21
579.4627
 31
0.0
  0
LINE
  5
4CC
330
1E
100
AcDbEntity
  8
0
100
AcDbLine
 10
54.480135
 20
561.7897
 30
0.0
 11
56.601335
 21
562.0877
 31
0.0
  0
LINE
  5
4CD
330
1E
100
AcDbEntity
  8
0
100
AcDbLine
 10
54.075835
 20
536.9727
 30
0.0
 11
56.215035
 21
537.0837
 31
0.0
  0
LINE
  5
4CE
330
1E
100
AcDbEntity
  8
0
100
AcDbLine
 10
53.662835
 20
544.9616999999999
 30
0.0
 11
55.80203499999999
 21
545.0727
 31
0.0
  0
LINE
  5
4CF
330
1E
100
AcDbEntity
  8
0
100
AcDbLine
 10
54.873435
 20
440.6096999999999
 30
0.0
 11
57.01543499999999
 21
440.6096999999999
 31
0.0
  0
LINE
  5
4D0
330
1E
100
AcDbEntity
  8
0
100
AcDbLine
 10
54.873435
 20
448.6097
 30
0.0
 11
57.01543499999999
 21
448.6097
 31
0.0
  0
LINE
  5
4D1
330
1E
100
AcDbEntity
  8
0
100
AcDbLine
 10
54.873435
 20
376.7157
 30
0.0
 11
57.01543499999999
 21
376.7157
 31
0.0
  0
LINE
  5
4D2
330
1E
100
AcDbEntity
  8
0
100
AcDbLine
 10
54.873435
 20
384.7157
 30
0.0
 11
57.01543499999999
 21
384.7157
 31
0.0
  0
LINE
  5
4D3
330
1E
100
AcDbEntity
  8
0
100
AcDbLine
 10
54.873435
 20
360.7157
 30
0.0
 11
57.01543499999999
 21
360.7157
 31
0.0
  0
LINE
  5
4D4
330
1E
100
AcDbEntity
  8
0
100
AcDbLine
 10
54.933735
 20
328.6557
 30
0.0
 11
57.07573499999999
 21
328.6557
 31
0.0
  0
LINE
  5
4D5
330
1E
100
AcDbEntity
  8
0
100
AcDbLine
 10
54.873435
 20
472.7157
 30
0.0
 11
57.01543499999999
 21
472.7157
 31
0.0
  0
LINE
  5
4D6
330
1E
100
AcDbEntity
  8
0
100
AcDbLine
 10
54.873435
 20
480.7157
 30
0.0
 11
57.01543499999999
 21
480.7157
 31
0.0
  0
LINE
  5
4D7
330
1E
100
AcDbEntity
  8
0
100
AcDbLine
 10
54.873435
 20
488.7157
 30
0.0
 11
57.01543499999999
 21
488.7157
 31
0.0
  0
LINE
  5
4D8
330
1E
100
AcDbEntity
  8
0
100
AcDbLine
 10
54.873435
 20
504.6096999999999
 30
0.0
 11
57.01543499999999
 21
504.6096999999999
 31
0.0
  0
LINE
  5
4D9
330
1E
100
AcDbEntity
  8
0
100
AcDbLine
 10
54.873435
 20
512.6096999999999
 30
0.0
 11
57.01543499999999
 21
512.6096999999999
 31
0.0
  0
LINE
  5
4DA
330
1E
100
AcDbEntity
  8
0
100
AcDbLine
 10
54.873435
 20
496.7157
 30
0.0
 11
57.01543499999999
 21
496.7157
 31
0.0
  0
LINE
  5
4DB
330
1E
100
AcDbEntity
  8
0
100
AcDbLine
 10
54.933735
 20
392.5497
 30
0.0
 11
57.07573499999999
 21
392.5497
 31
0.0
  0
LINE
  5
4DC
330
1E
100
AcDbEntity
  8
0
100
AcDbLine
 10
54.933735
 20
336.6557
 30
0.0
 11
57.07573499999999
 21
336.6557
 31
0.0
  0
LINE
  5
4DD
330
1E
100
AcDbEntity
  8
0
100
AcDbLine
 10
54.873435
 20
368.7157
 30
0.0
 11
57.01543499999999
 21
368.7157
 31
0.0
  0
LINE
  5
4DE
330
1E
100
AcDbEntity
  8
0
100
AcDbLine
 10
54.933735
 20
312.6557
 30
0.0
 11
57.07573499999999
 21
312.6557
 31
0.0
  0
LINE
  5
4DF
330
1E
100
AcDbEntity
  8
0
100
AcDbLine
 10
54.933735
 20
456.6557
 30
0.0
 11
57.07573499999999
 21
456.6557
 31
0.0
  0
LINE
  5
4E0
330
1E
100
AcDbEntity
  8
0
100
AcDbLine
 10
55.029335
 20
586.3536999999999
 30
0.0
 11
56.739835
 21
586.6376999999999
 31
0.0
  0
LINE
  5
4E2
330
1E
100
AcDbEntity
  8
0
100
AcDbLine
 10
54.98503499999999
 20
520.6597
 30
0.0
 11
57.125035
 21
520.7526999999999
 31
0.0
  0
LINE
  5
4E3
330
1E
100
AcDbEntity
  8
0
100
AcDbLine
 10
54.933735
 20
464.6557
 30
0.0
 11
57.07573499999999
 21
464.6557
 31
0.0
  0
LINE
  5
4E4
330
1E
100
AcDbEntity
  8
0
100
AcDbLine
 10
54.933735
 20
400.5497
 30
0.0
 11
57.07573499999999
 21
400.5497
 31
0.0
  0
LINE
  5
4E5
330
1E
100
AcDbEntity
  8
0
100
AcDbLine
 10
54.933735
 20
320.6557
 30
0.0
 11
57.07573499999999
 21
320.6557
 31
0.0
  0
LINE
  5
4E6
330
1E
100
AcDbEntity
  8
0
100
AcDbLine
 10
55.114635
 20
104.8297
 30
0.0
 11
57.25663499999999
 21
104.8297
 31
0.0
  0
LINE
  5
4E7
330
1E
100
AcDbEntity
  8
0
100
AcDbLine
 10
55.114635
 20
112.8297
 30
0.0
 11
57.25663499999999
 21
112.8297
 31
0.0
  0
LINE
  5
4E8
330
1E
100
AcDbEntity
  8
0
100
AcDbLine
 10
55.114635
 20
56.8297
 30
0.0
 11
57.25663499999999
 21
56.8297
 31
0.0
  0
LINE
  5
4E9
330
1E
100
AcDbEntity
  8
0
100
AcDbLine
 10
55.114635
 20
64.8297
 30
0.0
 11
57.25663499999999
 21
64.8297
 31
0.0
  0
LINE
  5
4EA
330
1E
100
AcDbEntity
  8
0
100
AcDbLine
 10
55.114635
 20
24.83
 30
0.0
 11
57.25663499999999
 21
24.83
 31
0.0
  0
LINE
  5
4EB
330
1E
100
AcDbEntity
  8
0
100
AcDbLine
 10
55.114635
 20
32.82999999999999
 30
0.0
 11
57.25663499999999
 21
32.82999999999999
 31
0.0
  0
LINE
  5
4EC
330
1E
100
AcDbEntity
  8
0
100
AcDbLine
 10
55.114635
 20
8.83009999999999
 30
0.0
 11
57.25663499999999
 21
8.83009999999999
 31
0.0
  0
LINE
  5
4ED
330
1E
100
AcDbEntity
  8
0
100
AcDbLine
 10
57.25663499999999
 20
8.83009999999999
 30
0.0
 11
59.398635
 21
8.83009999999998
 31
0.0
  0
LINE
  5
4EE
330
1E
100
AcDbEntity
  8
0
100
AcDbLine
 10
56.3656888908111
 20
40.83
 30
0.0
 11
57.25663499999999
 21
40.83
 31
0.0
  0
LINE
  5
4EF
330
1E
100
AcDbEntity
  8
0
100
AcDbLine
 10
57.25663499999999
 20
40.83
 30
0.0
 11
59.398635
 21
40.83
 31
0.0
  0
LINE
  5
4F0
330
1E
100
AcDbEntity
  8
0
100
AcDbLine
 10
57.25663499999999
 20
48.83
 30
0.0
 11
59.398635
 21
48.83
 31
0.0
  0
LINE
  5
4F1
330
1E
100
AcDbEntity
  8
0
100
AcDbLine
 10
56.37383526429339
 20
48.83
 30
0.0
 11
57.25663499999999
 21
48.83
 31
0.0
  0
LINE
  5
4F2
330
1E
100
AcDbEntity
  8
0
100
AcDbLine
 10
57.25663499999999
 20
72.8297
 30
0.0
 11
59.398635
 21
72.8297
 31
0.0
  0
LINE
  5
4F3
330
1E
100
AcDbEntity
  8
0
100
AcDbLine
 10
57.25663499999999
 20
80.82970000000001
 30
0.0
 11
59.398635
 21
80.82970000000001
 31
0.0
  0
LINE
  5
4F4
330
1E
100
AcDbEntity
  8
0
100
AcDbLine
 10
57.25663499999999
 20
88.8297
 30
0.0
 11
59.398635
 21
88.8297
 31
0.0
  0
LINE
  5
4F5
330
1E
100
AcDbEntity
  8
0
100
AcDbLine
 10
57.25663499999999
 20
96.8297
 30
0.0
 11
59.398635
 21
96.8297
 31
0.0
  0
LINE
  5
4F6
330
1E
100
AcDbEntity
  8
0
100
AcDbLine
 10
55.114635
 20
136.8297
 30
0.0
 11
57.25663499999999
 21
136.8297
 31
0.0
  0
LINE
  5
4F7
330
1E
100
AcDbEntity
  8
0
100
AcDbLine
 10
55.114635
 20
144.8296999999999
 30
0.0
 11
57.25663499999999
 21
144.8296999999999
 31
0.0
  0
LINE
  5
4F8
330
1E
100
AcDbEntity
  8
0
100
AcDbLine
 10
55.114635
 20
152.8297
 30
0.0
 11
57.25663499999999
 21
152.8297
 31
0.0
  0
LINE
  5
4F9
330
1E
100
AcDbEntity
  8
0
100
AcDbLine
 10
55.114635
 20
160.8297
 30
0.0
 11
57.25663499999999
 21
160.8297
 31
0.0
  0
LINE
  5
4FA
330
1E
100
AcDbEntity
  8
0
100
AcDbLine
 10
55.114635
 20
184.8297
 30
0.0
 11
57.25663499999999
 21
184.8297
 31
0.0
  0
LINE
  5
4FB
330
1E
100
AcDbEntity
  8
0
100
AcDbLine
 10
55.114635
 20
192.8297
 30
0.0
 11
57.25663499999999
 21
192.8297
 31
0.0
  0
LINE
  5
4FC
330
1E
100
AcDbEntity
  8
0
100
AcDbLine
 10
55.114635
 20
168.8297
 30
0.0
 11
57.25663499999999
 21
168.8297
 31
0.0
  0
LINE
  5
4FD
330
1E
100
AcDbEntity
  8
0
100
AcDbLine
 10
55.114635
 20
176.8297
 30
0.0
 11
57.25663499999999
 21
176.8297
 31
0.0
  0
LINE
  5
4FE
330
1E
100
AcDbEntity
  8
0
100
AcDbLine
 10
55.114635
 20
232.8297
 30
0.0
 11
57.25663499999999
 21
232.8297
 31
0.0
  0
LINE
  5
4FF
330
1E
100
AcDbEntity
  8
0
100
AcDbLine
 10
55.114635
 20
216.8296999999999
 30
0.0
 11
57.25663499999999
 21
216.8296999999999
 31
0.0
  0
LINE
  5
500
330
1E
100
AcDbEntity
  8
0
100
AcDbLine
 10
55.114635
 20
224.8296999999999
 30
0.0
 11
57.25663499999999
 21
224.8296999999999
 31
0.0
  0
LINE
  5
501
330
1E
100
AcDbEntity
  8
0
100
AcDbLine
 10
55.114635
 20
200.8297
 30
0.0
 11
57.25663499999999
 21
200.8297
 31
0.0
  0
LINE
  5
502
330
1E
100
AcDbEntity
  8
0
100
AcDbLine
 10
55.114635
 20
208.8296999999999
 30
0.0
 11
57.25663499999999
 21
208.8296999999999
 31
0.0
  0
LINE
  5
503
330
1E
100
AcDbEntity
  8
0
100
AcDbLine
 10
55.114635
 20
120.8296999999999
 30
0.0
 11
57.25663499999999
 21
120.8296999999999
 31
0.0
  0
LINE
  5
504
330
1E
100
AcDbEntity
  8
0
100
AcDbLine
 10
57.25663499999999
 20
120.8296999999999
 30
0.0
 11
59.398635
 21
120.8296999999999
 31
0.0
  0
LINE
  5
505
330
1E
100
AcDbEntity
  8
0
100
AcDbLine
 10
55.114635
 20
240.8297
 30
0.0
 11
57.25663499999999
 21
240.8297
 31
0.0
  0
LINE
  5
506
330
1E
100
AcDbEntity
  8
0
100
AcDbLine
 10
55.114635
 20
280.7157
 30
0.0
 11
57.25663499999999
 21
280.7157
 31
0.0
  0
LINE
  5
507
330
1E
100
AcDbEntity
  8
0
100
AcDbLine
 10
55.114635
 20
288.7157
 30
0.0
 11
57.25663499999999
 21
288.7157
 31
0.0
  0
LINE
  5
508
330
1E
100
AcDbEntity
  8
0
100
AcDbLine
 10
55.114635
 20
264.7157
 30
0.0
 11
57.25663499999999
 21
264.7157
 31
0.0
  0
LINE
  5
509
330
1E
100
AcDbEntity
  8
0
100
AcDbLine
 10
55.114635
 20
272.7157
 30
0.0
 11
57.25663499999999
 21
272.7157
 31
0.0
  0
LINE
  5
50A
330
1E
100
AcDbEntity
  8
0
100
AcDbLine
 10
55.114635
 20
248.8297
 30
0.0
 11
57.25663499999999
 21
248.8297
 31
0.0
  0
LINE
  5
50B
330
1E
100
AcDbEntity
  8
0
100
AcDbLine
 10
57.07573499999999
 20
296.6557
 30
0.0
 11
59.217735
 21
296.6557
 31
0.0
  0
LINE
  5
50C
330
1E
100
AcDbEntity
  8
0
100
AcDbLine
 10
57.07573499999999
 20
304.6557
 30
0.0
 11
59.217735
 21
304.6557
 31
0.0
  0
LINE
  5
50D
330
1E
100
AcDbEntity
  8
0
100
AcDbLine
 10
57.07573499999999
 20
312.6557
 30
0.0
 11
59.217735
 21
312.6557
 31
0.0
  0
LINE
  5
50E
330
1E
100
AcDbEntity
  8
0
100
AcDbLine
 10
57.01543499999999
 20
344.7157
 30
0.0
 11
59.157435
 21
344.7157
 31
0.0
  0
LINE
  5
50F
330
1E
100
AcDbEntity
  8
0
100
AcDbLine
 10
57.01543499999999
 20
352.7157
 30
0.0
 11
59.157435
 21
352.7157
 31
0.0
  0
LINE
  5
510
330
1E
100
AcDbEntity
  8
0
100
AcDbLine
 10
57.01543499999999
 20
424.6096999999999
 30
0.0
 11
59.157435
 21
424.6096999999999
 31
0.0
  0
LINE
  5
511
330
1E
100
AcDbEntity
  8
0
100
AcDbLine
 10
57.01543499999999
 20
432.6096999999999
 30
0.0
 11
59.157435
 21
432.6096999999999
 31
0.0
  0
LINE
  5
512
330
1E
100
AcDbEntity
  8
0
100
AcDbLine
 10
57.01543499999999
 20
408.6096999999999
 30
0.0
 11
59.157435
 21
408.6096999999999
 31
0.0
  0
LINE
  5
513
330
1E
100
AcDbEntity
  8
0
100
AcDbLine
 10
57.01543499999999
 20
416.6096999999999
 30
0.0
 11
59.157435
 21
416.6096999999999
 31
0.0
  0
LINE
  5
514
330
1E
100
AcDbEntity
  8
0
100
AcDbLine
 10
55.473935
 20
571.2557
 30
0.0
 11
57.42313499999999
 21
571.5557
 31
0.0
  0
LINE
  5
516
330
1E
100
AcDbEntity
  8
0
100
AcDbLine
 10
55.59223499999999
 20
553.8676999999999
 30
0.0
 11
57.713435
 21
554.1656999999999
 31
0.0
  0
LINE
  5
517
330
1E
100
AcDbEntity
  8
0
100
AcDbLine
 10
56.77823499999999
 20
528.7446999999999
 30
0.0
 11
58.918235
 21
528.8377
 31
0.0
  0
LINE
  5
518
330
1E
100
AcDbEntity
  8
0
100
AcDbLine
 10
56.208235
 20
579.4627
 30
0.0
 11
57.92213499999999
 21
579.7257
 31
0.0
  0
LINE
  5
51A
330
1E
100
AcDbEntity
  8
0
100
AcDbLine
 10
56.601335
 20
562.0877
 30
0.0
 11
58.554235
 21
562.3617
 31
0.0
  0
LINE
  5
51B
330
1E
100
AcDbEntity
  8
0
100
AcDbLine
 10
56.739835
 20
586.6376999999999
 30
0.0
 11
58.04793499999999
 21
586.8557
 31
0.0
  0
LINE
  5
51D
330
1E
100
AcDbEntity
  8
0
100
AcDbLine
 10
56.215035
 20
537.0837
 30
0.0
 11
58.354135
 21
537.1937
 31
0.0
  0
LINE
  5
51E
330
1E
100
AcDbEntity
  8
0
100
AcDbLine
 10
55.80203499999999
 20
545.0727
 30
0.0
 11
57.94113499999999
 21
545.1837
 31
0.0
  0
LINE
  5
51F
330
1E
100
AcDbEntity
  8
0
100
AcDbLine
 10
57.01543499999999
 20
440.6096999999999
 30
0.0
 11
59.157435
 21
440.6096999999999
 31
0.0
  0
LINE
  5
520
330
1E
100
AcDbEntity
  8
0
100
AcDbLine
 10
57.01543499999999
 20
448.6097
 30
0.0
 11
59.157435
 21
448.6097
 31
0.0
  0
LINE
  5
521
330
1E
100
AcDbEntity
  8
0
100
AcDbLine
 10
57.01543499999999
 20
376.7157
 30
0.0
 11
59.157435
 21
376.7157
 31
0.0
  0
LINE
  5
522
330
1E
100
AcDbEntity
  8
0
100
AcDbLine
 10
57.01543499999999
 20
384.7157
 30
0.0
 11
59.157435
 21
384.7157
 31
0.0
  0
LINE
  5
523
330
1E
100
AcDbEntity
  8
0
100
AcDbLine
 10
57.01543499999999
 20
360.7157
 30
0.0
 11
59.157435
 21
360.7157
 31
0.0
  0
LINE
  5
524
330
1E
100
AcDbEntity
  8
0
100
AcDbLine
 10
57.07573499999999
 20
328.6557
 30
0.0
 11
59.217735
 21
328.6557
 31
0.0
  0
LINE
  5
525
330
1E
100
AcDbEntity
  8
0
100
AcDbLine
 10
57.01543499999999
 20
472.7157
 30
0.0
 11
59.157435
 21
472.7157
 31
0.0
  0
LINE
  5
526
330
1E
100
AcDbEntity
  8
0
100
AcDbLine
 10
57.01543499999999
 20
480.7157
 30
0.0
 11
59.157435
 21
480.7157
 31
0.0
  0
LINE
  5
527
330
1E
100
AcDbEntity
  8
0
100
AcDbLine
 10
57.01543499999999
 20
504.6096999999999
 30
0.0
 11
59.157435
 21
504.6096999999999
 31
0.0
  0
LINE
  5
528
330
1E
100
AcDbEntity
  8
0
100
AcDbLine
 10
57.01543499999999
 20
512.6096999999999
 30
0.0
 11
59.157435
 21
512.6096999999999
 31
0.0
  0
LINE
  5
529
330
1E
100
AcDbEntity
  8
0
100
AcDbLine
 10
57.01543499999999
 20
488.7157
 30
0.0
 11
59.157435
 21
488.7157
 31
0.0
  0
LINE
  5
52A
330
1E
100
AcDbEntity
  8
0
100
AcDbLine
 10
57.01543499999999
 20
496.7157
 30
0.0
 11
59.157435
 21
496.7157
 31
0.0
  0
LINE
  5
52B
330
1E
100
AcDbEntity
  8
0
100
AcDbLine
 10
57.07573499999999
 20
392.5497
 30
0.0
 11
59.217735
 21
392.5497
 31
0.0
  0
LINE
  5
52C
330
1E
100
AcDbEntity
  8
0
100
AcDbLine
 10
57.07573499999999
 20
456.6557
 30
0.0
 11
59.217735
 21
456.6557
 31
0.0
  0
LINE
  5
52D
330
1E
100
AcDbEntity
  8
0
100
AcDbLine
 10
57.125035
 20
520.7526999999999
 30
0.0
 11
59.26503499999999
 21
520.8457
 31
0.0
  0
LINE
  5
52E
330
1E
100
AcDbEntity
  8
0
100
AcDbLine
 10
57.07573499999999
 20
464.6557
 30
0.0
 11
59.217735
 21
464.6557
 31
0.0
  0
LINE
  5
52F
330
1E
100
AcDbEntity
  8
0
100
AcDbLine
 10
57.07573499999999
 20
400.5497
 30
0.0
 11
59.217735
 21
400.5497
 31
0.0
  0
LINE
  5
530
330
1E
100
AcDbEntity
  8
0
100
AcDbLine
 10
57.07573499999999
 20
336.6557
 30
0.0
 11
59.217735
 21
336.6557
 31
0.0
  0
LINE
  5
531
330
1E
100
AcDbEntity
  8
0
100
AcDbLine
 10
57.01543499999999
 20
368.7157
 30
0.0
 11
59.157435
 21
368.7157
 31
0.0
  0
LINE
  5
532
330
1E
100
AcDbEntity
  8
0
100
AcDbLine
 10
57.07573499999999
 20
320.6557
 30
0.0
 11
59.217735
 21
320.6557
 31
0.0
  0
LINE
  5
533
330
1E
100
AcDbEntity
  8
0
100
AcDbLine
 10
55.114635
 20
256.8297
 30
0.0
 11
57.25663499999999
 21
256.8297
 31
0.0
  0
LINE
  5
534
330
1E
100
AcDbEntity
  8
0
100
AcDbLine
 10
57.25663499999999
 20
128.8297
 30
0.0
 11
59.398635
 21
128.8297
 31
0.0
  0
LINE
  5
535
330
1E
100
AcDbEntity
  8
0
100
AcDbLine
 10
55.114635
 20
128.8297
 30
0.0
 11
57.25663499999999
 21
128.8297
 31
0.0
  0
LINE
  5
536
330
1E
100
AcDbEntity
  8
0
100
AcDbLine
 10
57.25663499999999
 20
104.8297
 30
0.0
 11
59.398635
 21
104.8297
 31
0.0
  0
LINE
  5
537
330
1E
100
AcDbEntity
  8
0
100
AcDbLine
 10
57.25663499999999
 20
112.8297
 30
0.0
 11
59.398635
 21
112.8297
 31
0.0
  0
LINE
  5
538
330
1E
100
AcDbEntity
  8
0
100
AcDbLine
 10
57.25663499999999
 20
56.8297
 30
0.0
 11
59.398635
 21
56.8297
 31
0.0
  0
LINE
  5
539
330
1E
100
AcDbEntity
  8
0
100
AcDbLine
 10
57.25663499999999
 20
64.8297
 30
0.0
 11
59.398635
 21
64.8297
 31
0.0
  0
LINE
  5
53A
330
1E
100
AcDbEntity
  8
0
100
AcDbLine
 10
57.25663499999999
 20
24.83
 30
0.0
 11
59.398635
 21
24.83
 31
0.0
  0
LINE
  5
53B
330
1E
100
AcDbEntity
  8
0
100
AcDbLine
 10
57.25663499999999
 20
136.8297
 30
0.0
 11
59.398635
 21
136.8297
 31
0.0
  0
LINE
  5
53C
330
1E
100
AcDbEntity
  8
0
100
AcDbLine
 10
57.25663499999999
 20
144.8296999999999
 30
0.0
 11
59.398635
 21
144.8296999999999
 31
0.0
  0
LINE
  5
53D
330
1E
100
AcDbEntity
  8
0
100
AcDbLine
 10
57.25663499999999
 20
152.8297
 30
0.0
 11
59.398635
 21
152.8297
 31
0.0
  0
LINE
  5
53E
330
1E
100
AcDbEntity
  8
0
100
AcDbLine
 10
57.25663499999999
 20
160.8297
 30
0.0
 11
59.398635
 21
160.8297
 31
0.0
  0
LINE
  5
53F
330
1E
100
AcDbEntity
  8
0
100
AcDbLine
 10
57.25663499999999
 20
168.8297
 30
0.0
 11
59.398635
 21
168.8297
 31
0.0
  0
LINE
  5
540
330
1E
100
AcDbEntity
  8
0
100
AcDbLine
 10
57.25663499999999
 20
184.8297
 30
0.0
 11
59.398635
 21
184.8297
 31
0.0
  0
LINE
  5
541
330
1E
100
AcDbEntity
  8
0
100
AcDbLine
 10
57.25663499999999
 20
192.8297
 30
0.0
 11
59.398635
 21
192.8297
 31
0.0
  0
LINE
  5
542
330
1E
100
AcDbEntity
  8
0
100
AcDbLine
 10
57.25663499999999
 20
176.8297
 30
0.0
 11
59.398635
 21
176.8297
 31
0.0
  0
LINE
  5
543
330
1E
100
AcDbEntity
  8
0
100
AcDbLine
 10
57.25663499999999
 20
200.8297
 30
0.0
 11
59.398635
 21
200.8297
 31
0.0
  0
LINE
  5
544
330
1E
100
AcDbEntity
  8
0
100
AcDbLine
 10
57.25663499999999
 20
232.8297
 30
0.0
 11
59.398635
 21
232.8297
 31
0.0
  0
LINE
  5
545
330
1E
100
AcDbEntity
  8
0
100
AcDbLine
 10
57.25663499999999
 20
240.8297
 30
0.0
 11
59.398635
 21
240.8297
 31
0.0
  0
LINE
  5
546
330
1E
100
AcDbEntity
  8
0
100
AcDbLine
 10
57.25663499999999
 20
248.8297
 30
0.0
 11
59.398635
 21
248.8297
 31
0.0
  0
LINE
  5
547
330
1E
100
AcDbEntity
  8
0
100
AcDbLine
 10
57.25663499999999
 20
216.8296999999999
 30
0.0
 11
59.398635
 21
216.8296999999999
 31
0.0
  0
LINE
  5
548
330
1E
100
AcDbEntity
  8
0
100
AcDbLine
 10
57.25663499999999
 20
280.7157
 30
0.0
 11
59.398635
 21
280.7157
 31
0.0
  0
LINE
  5
549
330
1E
100
AcDbEntity
  8
0
100
AcDbLine
 10
57.25663499999999
 20
288.7157
 30
0.0
 11
59.398635
 21
288.7157
 31
0.0
  0
LINE
  5
54A
330
1E
100
AcDbEntity
  8
0
100
AcDbLine
 10
57.25663499999999
 20
264.7157
 30
0.0
 11
59.398635
 21
264.7157
 31
0.0
  0
LINE
  5
54B
330
1E
100
AcDbEntity
  8
0
100
AcDbLine
 10
59.217735
 20
296.6557
 30
0.0
 11
61.189735
 21
296.6557
 31
0.0
  0
LINE
  5
54C
330
1E
100
AcDbEntity
  8
0
100
AcDbLine
 10
59.217735
 20
304.6557
 30
0.0
 11
61.189735
 21
304.6557
 31
0.0
  0
LINE
  5
54D
330
1E
100
AcDbEntity
  8
0
100
AcDbLine
 10
59.217735
 20
312.6557
 30
0.0
 11
61.189735
 21
312.6557
 31
0.0
  0
LINE
  5
54E
330
1E
100
AcDbEntity
  8
0
100
AcDbLine
 10
59.157435
 20
344.7157
 30
0.0
 11
61.129435
 21
344.7157
 31
0.0
  0
LINE
  5
550
330
1E
100
AcDbEntity
  8
0
100
AcDbLine
 10
59.157435
 20
352.7157
 30
0.0
 11
61.129435
 21
352.7157
 31
0.0
  0
LINE
  5
552
330
1E
100
AcDbEntity
  8
0
100
AcDbLine
 10
59.157435
 20
360.7157
 30
0.0
 11
61.129435
 21
360.7157
 31
0.0
  0
LINE
  5
554
330
1E
100
AcDbEntity
  8
0
100
AcDbLine
 10
59.157435
 20
376.7157
 30
0.0
 11
61.129435
 21
376.7157
 31
0.0
  0
LINE
  5
556
330
1E
100
AcDbEntity
  8
0
100
AcDbLine
 10
59.157435
 20
424.6096999999999
 30
0.0
 11
61.129435
 21
424.6096999999999
 31
0.0
  0
LINE
  5
557
330
1E
100
AcDbEntity
  8
0
100
AcDbLine
 10
59.157435
 20
432.6096999999999
 30
0.0
 11
61.129435
 21
432.6096999999999
 31
0.0
  0
LINE
  5
558
330
1E
100
AcDbEntity
  8
0
100
AcDbLine
 10
59.157435
 20
408.6096999999999
 30
0.0
 11
61.129435
 21
408.6096999999999
 31
0.0
  0
LINE
  5
559
330
1E
100
AcDbEntity
  8
0
100
AcDbLine
 10
59.157435
 20
416.6096999999999
 30
0.0
 11
61.129435
 21
416.6096999999999
 31
0.0
  0
LINE
  5
55A
330
1E
100
AcDbEntity
  8
0
100
AcDbLine
 10
58.354135
 20
537.1937
 30
0.0
 11
60.323535
 21
537.2957
 31
0.0
  0
LINE
  5
55B
330
1E
100
AcDbEntity
  8
0
100
AcDbLine
 10
58.918235
 20
528.8377
 30
0.0
 11
60.888435
 21
528.9237
 31
0.0
  0
LINE
  5
55E
330
1E
100
AcDbEntity
  8
0
100
AcDbLine
 10
57.713435
 20
554.1656999999999
 30
0.0
 11
59.666335
 21
554.4397
 31
0.0
  0
LINE
  5
55F
330
1E
100
AcDbEntity
  8
0
100
AcDbLine
 10
57.42313499999999
 20
571.5557
 30
0.0
 11
59.137035
 21
571.8187
 31
0.0
  0
LINE
  5
561
330
1E
100
AcDbEntity
  8
0
100
AcDbLine
 10
57.92213499999999
 20
579.7257
 30
0.0
 11
59.232735
 21
579.9277
 31
0.0
  0
LINE
  5
563
330
1E
100
AcDbEntity
  8
0
100
AcDbLine
 10
58.04793499999999
 20
586.8557
 30
0.0
 11
58.85283499999999
 21
586.9896999999999
 31
0.0
  0
LINE
  5
565
330
1E
100
AcDbEntity
  8
0
100
AcDbLine
 10
59.137035
 20
571.8187
 30
0.0
 11
60.447635
 21
572.0196999999999
 31
0.0
  0
LINE
  5
566
330
1E
100
AcDbEntity
  8
0
100
AcDbLine
 10
58.554235
 20
562.3617
 30
0.0
 11
60.271435
 21
562.6027
 31
0.0
  0
LINE
  5
568
330
1E
100
AcDbEntity
  8
0
100
AcDbLine
 10
57.94113499999999
 20
545.1837
 30
0.0
 11
59.91053499999999
 21
545.2847
 31
0.0
  0
LINE
  5
56A
330
1E
100
AcDbEntity
  8
0
100
AcDbLine
 10
59.157435
 20
472.7157
 30
0.0
 11
61.129435
 21
472.7157
 31
0.0
  0
LINE
  5
56B
330
1E
100
AcDbEntity
  8
0
100
AcDbLine
 10
59.157435
 20
440.6096999999999
 30
0.0
 11
61.129435
 21
440.6096999999999
 31
0.0
  0
LINE
  5
570
330
1E
100
AcDbEntity
  8
0
100
AcDbLine
 10
59.157435
 20
480.7157
 30
0.0
 11
61.129435
 21
480.7157
 31
0.0
  0
LINE
  5
571
330
1E
100
AcDbEntity
  8
0
100
AcDbLine
 10
59.157435
 20
504.6096999999999
 30
0.0
 11
61.129435
 21
504.6096999999999
 31
0.0
  0
LINE
  5
572
330
1E
100
AcDbEntity
  8
0
100
AcDbLine
 10
59.157435
 20
512.6096999999999
 30
0.0
 11
61.129435
 21
512.6096999999999
 31
0.0
  0
LINE
  5
573
330
1E
100
AcDbEntity
  8
0
100
AcDbLine
 10
59.157435
 20
488.7157
 30
0.0
 11
61.129435
 21
488.7157
 31
0.0
  0
LINE
  5
574
330
1E
100
AcDbEntity
  8
0
100
AcDbLine
 10
59.157435
 20
496.7157
 30
0.0
 11
61.129435
 21
496.7157
 31
0.0
  0
LINE
  5
576
330
1E
100
AcDbEntity
  8
0
100
AcDbLine
 10
59.157435
 20
448.6097
 30
0.0
 11
61.129435
 21
448.6097
 31
0.0
  0
LINE
  5
577
330
1E
100
AcDbEntity
  8
0
100
AcDbLine
 10
59.157435
 20
384.7157
 30
0.0
 11
61.129435
 21
384.7157
 31
0.0
  0
LINE
  5
579
330
1E
100
AcDbEntity
  8
0
100
AcDbLine
 10
59.157435
 20
368.7157
 30
0.0
 11
61.129435
 21
368.7157
 31
0.0
  0
LINE
  5
57A
330
1E
100
AcDbEntity
  8
0
100
AcDbLine
 10
59.217735
 20
328.6557
 30
0.0
 11
61.189735
 21
328.6557
 31
0.0
  0
LINE
  5
581
330
1E
100
AcDbEntity
  8
0
100
AcDbLine
 10
59.217735
 20
392.5497
 30
0.0
 11
61.189735
 21
392.5497
 31
0.0
  0
LINE
  5
582
330
1E
100
AcDbEntity
  8
0
100
AcDbLine
 10
59.217735
 20
456.6557
 30
0.0
 11
61.189735
 21
456.6557
 31
0.0
  0
LINE
  5
583
330
1E
100
AcDbEntity
  8
0
100
AcDbLine
 10
59.217735
 20
464.6557
 30
0.0
 11
61.189735
 21
464.6557
 31
0.0
  0
LINE
  5
584
330
1E
100
AcDbEntity
  8
0
100
AcDbLine
 10
59.217735
 20
400.5497
 30
0.0
 11
61.189735
 21
400.5497
 31
0.0
  0
LINE
  5
586
330
1E
100
AcDbEntity
  8
0
100
AcDbLine
 10
59.217735
 20
336.6557
 30
0.0
 11
61.189735
 21
336.6557
 31
0.0
  0
LINE
  5
588
330
1E
100
AcDbEntity
  8
0
100
AcDbLine
 10
59.217735
 20
320.6557
 30
0.0
 11
61.189735
 21
320.6557
 31
0.0
  0
LINE
  5
589
330
1E
100
AcDbEntity
  8
0
100
AcDbLine
 10
57.25663499999999
 20
272.7157
 30
0.0
 11
59.398635
 21
272.7157
 31
0.0
  0
LINE
  5
58A
330
1E
100
AcDbEntity
  8
0
100
AcDbLine
 10
57.25663499999999
 20
256.8297
 30
0.0
 11
59.398635
 21
256.8297
 31
0.0
  0
LINE
  5
58B
330
1E
100
AcDbEntity
  8
0
100
AcDbLine
 10
57.25663499999999
 20
224.8296999999999
 30
0.0
 11
59.398635
 21
224.8296999999999
 31
0.0
  0
LINE
  5
58C
330
1E
100
AcDbEntity
  8
0
100
AcDbLine
 10
57.25663499999999
 20
208.8296999999999
 30
0.0
 11
59.398635
 21
208.8296999999999
 31
0.0
  0
LINE
  5
58D
330
1E
100
AcDbEntity
  8
0
100
AcDbLine
 10
57.25663499999999
 20
32.82999999999999
 30
0.0
 11
59.398635
 21
32.82999999999999
 31
0.0
  0
LINE
  5
58E
330
1E
100
AcDbEntity
  8
0
100
AcDbLine
 10
57.25663499999999
 20
16.82999999999999
 30
0.0
 11
59.398635
 21
16.82999999999999
 31
0.0
  0
LINE
  5
58F
330
1E
100
AcDbEntity
  8
0
100
AcDbLine
 10
55.114635
 20
16.82999999999999
 30
0.0
 11
57.25663499999999
 21
16.82999999999999
 31
0.0
  0
LINE
  5
590
330
1E
100
AcDbEntity
  8
0
100
AcDbLine
 10
56.332035
 20
7.7808
 30
0.0
 11
59.47503499999999
 21
7.64969999999999
 31
0.0
  0
LINE
  5
591
330
1E
100
AcDbEntity
  8
0
100
AcDbLine
 10
53.422035
 20
7.27559999999999
 30
0.0
 11
56.332035
 21
7.7808
 31
0.0
  0
LINE
  5
592
330
1E
100
AcDbEntity
  8
0
100
AcDbLine
 10
52.30303499999999
 20
0.798899999999986
 30
0.0
 11
55.102035
 21
0.0961999999999857
 31
0.0
  0
LINE
  5
593
330
1E
100
AcDbEntity
  8
0
100
AcDbLine
 10
59.398635
 20
8.83009999999998
 30
0.0
 11
61.370635
 21
8.83009999999998
 31
0.0
  0
LINE
  5
595
330
1E
100
AcDbEntity
  8
0
100
AcDbLine
 10
59.398635
 20
24.83
 30
0.0
 11
61.370635
 21
24.83
 31
0.0
  0
LINE
  5
597
330
1E
100
AcDbEntity
  8
0
100
AcDbLine
 10
59.398635
 20
40.83
 30
0.0
 11
61.370635
 21
40.83
 31
0.0
  0
LINE
  5
599
330
1E
100
AcDbEntity
  8
0
100
AcDbLine
 10
59.398635
 20
48.83
 30
0.0
 11
61.370635
 21
48.83
 31
0.0
  0
LINE
  5
59B
330
1E
100
AcDbEntity
  8
0
100
AcDbLine
 10
59.398635
 20
56.8297
 30
0.0
 11
61.370635
 21
56.8297
 31
0.0
  0
LINE
  5
59D
330
1E
100
AcDbEntity
  8
0
100
AcDbLine
 10
59.398635
 20
72.8297
 30
0.0
 11
61.370635
 21
72.8297
 31
0.0
  0
LINE
  5
59E
330
1E
100
AcDbEntity
  8
0
100
AcDbLine
 10
59.398635
 20
80.82970000000001
 30
0.0
 11
61.370635
 21
80.82970000000001
 31
0.0
  0
LINE
  5
59F
330
1E
100
AcDbEntity
  8
0
100
AcDbLine
 10
59.398635
 20
88.8297
 30
0.0
 11
61.370635
 21
88.8297
 31
0.0
  0
LINE
  5
5A0
330
1E
100
AcDbEntity
  8
0
100
AcDbLine
 10
59.398635
 20
96.8297
 30
0.0
 11
61.370635
 21
96.8297
 31
0.0
  0
LINE
  5
5A7
330
1E
100
AcDbEntity
  8
0
100
AcDbLine
 10
59.26503499999999
 20
520.8457
 30
0.0
 11
61.235235
 21
520.9306999999999
 31
0.0
  0
LINE
  5
5AD
330
1E
100
AcDbEntity
  8
0
100
AcDbLine
 10
59.398635
 20
136.8297
 30
0.0
 11
61.370635
 21
136.8297
 31
0.0
  0
LINE
  5
5AE
330
1E
100
AcDbEntity
  8
0
100
AcDbLine
 10
59.398635
 20
120.8296999999999
 30
0.0
 11
61.370635
 21
120.8296999999999
 31
0.0
  0
LINE
  5
5AF
330
1E
100
AcDbEntity
  8
0
100
AcDbLine
 10
59.398635
 20
128.8297
 30
0.0
 11
61.370635
 21
128.8297
 31
0.0
  0
LINE
  5
5B0
330
1E
100
AcDbEntity
  8
0
100
AcDbLine
 10
59.398635
 20
104.8297
 30
0.0
 11
61.370635
 21
104.8297
 31
0.0
  0
LINE
  5
5B5
330
1E
100
AcDbEntity
  8
0
100
AcDbLine
 10
59.398635
 20
144.8296999999999
 30
0.0
 11
61.370635
 21
144.8296999999999
 31
0.0
  0
LINE
  5
5B6
330
1E
100
AcDbEntity
  8
0
100
AcDbLine
 10
59.398635
 20
152.8297
 30
0.0
 11
61.370635
 21
152.8297
 31
0.0
  0
LINE
  5
5B7
330
1E
100
AcDbEntity
  8
0
100
AcDbLine
 10
59.398635
 20
160.8297
 30
0.0
 11
61.370635
 21
160.8297
 31
0.0
  0
LINE
  5
5B8
330
1E
100
AcDbEntity
  8
0
100
AcDbLine
 10
59.398635
 20
184.8297
 30
0.0
 11
61.370635
 21
184.8297
 31
0.0
  0
LINE
  5
5B9
330
1E
100
AcDbEntity
  8
0
100
AcDbLine
 10
59.398635
 20
192.8297
 30
0.0
 11
61.370635
 21
192.8297
 31
0.0
  0
LINE
  5
5BA
330
1E
100
AcDbEntity
  8
0
100
AcDbLine
 10
59.398635
 20
168.8297
 30
0.0
 11
61.370635
 21
168.8297
 31
0.0
  0
LINE
  5
5BB
330
1E
100
AcDbEntity
  8
0
100
AcDbLine
 10
59.398635
 20
176.8297
 30
0.0
 11
61.370635
 21
176.8297
 31
0.0
  0
LINE
  5
5BC
330
1E
100
AcDbEntity
  8
0
100
AcDbLine
 10
59.398635
 20
232.8297
 30
0.0
 11
61.370635
 21
232.8297
 31
0.0
  0
LINE
  5
5BD
330
1E
100
AcDbEntity
  8
0
100
AcDbLine
 10
59.398635
 20
240.8297
 30
0.0
 11
61.370635
 21
240.8297
 31
0.0
  0
LINE
  5
5BE
330
1E
100
AcDbEntity
  8
0
100
AcDbLine
 10
59.398635
 20
248.8297
 30
0.0
 11
61.370635
 21
248.8297
 31
0.0
  0
LINE
  5
5BF
330
1E
100
AcDbEntity
  8
0
100
AcDbLine
 10
59.398635
 20
216.8296999999999
 30
0.0
 11
61.370635
 21
216.8296999999999
 31
0.0
  0
LINE
  5
5C0
330
1E
100
AcDbEntity
  8
0
100
AcDbLine
 10
59.398635
 20
224.8296999999999
 30
0.0
 11
61.370635
 21
224.8296999999999
 31
0.0
  0
LINE
  5
5C1
330
1E
100
AcDbEntity
  8
0
100
AcDbLine
 10
59.398635
 20
200.8297
 30
0.0
 11
61.370635
 21
200.8297
 31
0.0
  0
LINE
  5
5C2
330
1E
100
AcDbEntity
  8
0
100
AcDbLine
 10
59.398635
 20
280.7157
 30
0.0
 11
61.370635
 21
280.7157
 31
0.0
  0
LINE
  5
5C3
330
1E
100
AcDbEntity
  8
0
100
AcDbLine
 10
59.398635
 20
288.7157
 30
0.0
 11
61.370635
 21
288.7157
 31
0.0
  0
LINE
  5
5C4
330
1E
100
AcDbEntity
  8
0
100
AcDbLine
 10
59.398635
 20
264.7157
 30
0.0
 11
61.370635
 21
264.7157
 31
0.0
  0
LINE
  5
5C5
330
1E
100
AcDbEntity
  8
0
100
AcDbLine
 10
59.398635
 20
272.7157
 30
0.0
 11
61.370635
 21
272.7157
 31
0.0
  0
LINE
  5
5C6
330
1E
100
AcDbEntity
  8
0
100
AcDbLine
 10
59.398635
 20
256.8297
 30
0.0
 11
61.370635
 21
256.8297
 31
0.0
  0
LINE
  5
5C7
330
1E
100
AcDbEntity
  8
0
100
AcDbLine
 10
59.398635
 20
208.8296999999999
 30
0.0
 11
61.370635
 21
208.8296999999999
 31
0.0
  0
LINE
  5
5C9
330
1E
100
AcDbEntity
  8
0
100
AcDbLine
 10
59.398635
 20
112.8297
 30
0.0
 11
61.370635
 21
112.8297
 31
0.0
  0
LINE
  5
5CA
330
1E
100
AcDbEntity
  8
0
100
AcDbLine
 10
59.398635
 20
64.8297
 30
0.0
 11
61.370635
 21
64.8297
 31
0.0
  0
LINE
  5
5CC
330
1E
100
AcDbEntity
  8
0
100
AcDbLine
 10
59.398635
 20
32.82999999999999
 30
0.0
 11
61.370635
 21
32.82999999999999
 31
0.0
  0
LINE
  5
5CE
330
1E
100
AcDbEntity
  8
0
100
AcDbLine
 10
59.398635
 20
16.82999999999999
 30
0.0
 11
61.370635
 21
16.82999999999999
 31
0.0
  0
LINE
  5
5E2
330
1E
100
AcDbEntity
  8
0
100
AcDbLine
 10
61.129435
 20
344.7157
 30
0.0
 11
62.863435
 21
344.7157
 31
0.0
  0
LINE
  5
5E3
330
1E
100
AcDbEntity
  8
0
100
AcDbLine
 10
61.129435
 20
352.7157
 30
0.0
 11
62.863435
 21
352.7157
 31
0.0
  0
LINE
  5
5E4
330
1E
100
AcDbEntity
  8
0
100
AcDbLine
 10
61.129435
 20
360.7157
 30
0.0
 11
62.863435
 21
360.7157
 31
0.0
  0
LINE
  5
5E5
330
1E
100
AcDbEntity
  8
0
100
AcDbLine
 10
59.666335
 20
554.4397
 30
0.0
 11
61.383435
 21
554.6807
 31
0.0
  0
LINE
  5
5E7
330
1E
100
AcDbEntity
  8
0
100
AcDbLine
 10
59.91053499999999
 20
545.2847
 30
0.0
 11
61.642235
 21
545.3746999999999
 31
0.0
  0
LINE
  5
5E8
330
1E
100
AcDbEntity
  8
0
100
AcDbLine
 10
60.888435
 20
528.9237
 30
0.0
 11
62.62073499999999
 21
528.9986999999999
 31
0.0
  0
LINE
  5
5EA
330
1E
100
AcDbEntity
  8
0
100
AcDbLine
 10
60.323535
 20
537.2957
 30
0.0
 11
62.05523499999999
 21
537.3857
 31
0.0
  0
LINE
  5
5ED
330
1E
100
AcDbEntity
  8
0
100
AcDbLine
 10
61.129435
 20
376.7157
 30
0.0
 11
62.863435
 21
376.7157
 31
0.0
  0
LINE
  5
5EE
330
1E
100
AcDbEntity
  8
0
100
AcDbLine
 10
61.129435
 20
408.6096999999999
 30
0.0
 11
62.863435
 21
408.6096999999999
 31
0.0
  0
LINE
  5
5EF
330
1E
100
AcDbEntity
  8
0
100
AcDbLine
 10
61.129435
 20
424.6096999999999
 30
0.0
 11
62.863435
 21
424.6096999999999
 31
0.0
  0
LINE
  5
5F0
330
1E
100
AcDbEntity
  8
0
100
AcDbLine
 10
61.129435
 20
432.6096999999999
 30
0.0
 11
62.863435
 21
432.6096999999999
 31
0.0
  0
LINE
  5
5F1
330
1E
100
AcDbEntity
  8
0
100
AcDbLine
 10
61.129435
 20
416.6096999999999
 30
0.0
 11
62.863435
 21
416.6096999999999
 31
0.0
  0
LINE
  5
5F2
330
1E
100
AcDbEntity
  8
0
100
AcDbLine
 10
61.129435
 20
440.6096999999999
 30
0.0
 11
62.863435
 21
440.6096999999999
 31
0.0
  0
LINE
  5
5F3
330
1E
100
AcDbEntity
  8
0
100
AcDbLine
 10
61.129435
 20
472.7157
 30
0.0
 11
62.863435
 21
472.7157
 31
0.0
  0
LINE
  5
5F4
330
1E
100
AcDbEntity
  8
0
100
AcDbLine
 10
61.129435
 20
480.7157
 30
0.0
 11
62.863435
 21
480.7157
 31
0.0
  0
LINE
  5
5F5
330
1E
100
AcDbEntity
  8
0
100
AcDbLine
 10
61.129435
 20
504.6096999999999
 30
0.0
 11
62.863435
 21
504.6096999999999
 31
0.0
  0
LINE
  5
5F6
330
1E
100
AcDbEntity
  8
0
100
AcDbLine
 10
61.129435
 20
512.6096999999999
 30
0.0
 11
62.863435
 21
512.6096999999999
 31
0.0
  0
LINE
  5
5F7
330
1E
100
AcDbEntity
  8
0
100
AcDbLine
 10
61.129435
 20
488.7157
 30
0.0
 11
62.863435
 21
488.7157
 31
0.0
  0
LINE
  5
5F8
330
1E
100
AcDbEntity
  8
0
100
AcDbLine
 10
61.129435
 20
496.7157
 30
0.0
 11
62.863435
 21
496.7157
 31
0.0
  0
LINE
  5
5F9
330
1E
100
AcDbEntity
  8
0
100
AcDbLine
 10
61.129435
 20
448.6097
 30
0.0
 11
62.863435
 21
448.6097
 31
0.0
  0
LINE
  5
5FA
330
1E
100
AcDbEntity
  8
0
100
AcDbLine
 10
61.129435
 20
384.7157
 30
0.0
 11
62.863435
 21
384.7157
 31
0.0
  0
LINE
  5
5FB
330
1E
100
AcDbEntity
  8
0
100
AcDbLine
 10
61.129435
 20
368.7157
 30
0.0
 11
62.863435
 21
368.7157
 31
0.0
  0
LINE
  5
601
330
1E
100
AcDbEntity
  8
0
100
AcDbLine
 10
59.47503499999999
 20
7.64969999999999
 30
0.0
 11
62.26903499999999
 21
6.945899999999981
 31
0.0
  0
LINE
  5
602
330
1E
100
AcDbEntity
  8
0
100
AcDbLine
 10
61.370635
 20
8.83009999999998
 30
0.0
 11
63.104635
 21
8.83009999999998
 31
0.0
  0
LINE
  5
604
330
1E
100
AcDbEntity
  8
0
100
AcDbLine
 10
61.370635
 20
24.83
 30
0.0
 11
63.104635
 21
24.83
 31
0.0
  0
LINE
  5
605
330
1E
100
AcDbEntity
  8
0
100
AcDbLine
 10
61.370635
 20
40.83
 30
0.0
 11
63.104635
 21
40.83
 31
0.0
  0
LINE
  5
606
330
1E
100
AcDbEntity
  8
0
100
AcDbLine
 10
61.370635
 20
48.83
 30
0.0
 11
63.104635
 21
48.83
 31
0.0
  0
LINE
  5
607
330
1E
100
AcDbEntity
  8
0
100
AcDbLine
 10
61.189735
 20
296.6557
 30
0.0
 11
62.923735
 21
296.6557
 31
0.0
  0
LINE
  5
609
330
1E
100
AcDbEntity
  8
0
100
AcDbLine
 10
61.189735
 20
304.6557
 30
0.0
 11
62.923735
 21
304.6557
 31
0.0
  0
LINE
  5
60B
330
1E
100
AcDbEntity
  8
0
100
AcDbLine
 10
61.189735
 20
312.6557
 30
0.0
 11
62.923735
 21
312.6557
 31
0.0
  0
LINE
  5
60D
330
1E
100
AcDbEntity
  8
0
100
AcDbLine
 10
61.189735
 20
328.6557
 30
0.0
 11
62.923735
 21
328.6557
 31
0.0
  0
LINE
  5
60E
330
1E
100
AcDbEntity
  8
0
100
AcDbLine
 10
61.189735
 20
336.6557
 30
0.0
 11
62.923735
 21
336.6557
 31
0.0
  0
LINE
  5
614
330
1E
100
AcDbEntity
  8
0
100
AcDbLine
 10
61.189735
 20
392.5497
 30
0.0
 11
62.923735
 21
392.5497
 31
0.0
  0
LINE
  5
615
330
1E
100
AcDbEntity
  8
0
100
AcDbLine
 10
61.189735
 20
400.5497
 30
0.0
 11
62.923735
 21
400.5497
 31
0.0
  0
LINE
  5
616
330
1E
100
AcDbEntity
  8
0
100
AcDbLine
 10
61.189735
 20
456.6557
 30
0.0
 11
62.923735
 21
456.6557
 31
0.0
  0
LINE
  5
617
330
1E
100
AcDbEntity
  8
0
100
AcDbLine
 10
61.189735
 20
464.6557
 30
0.0
 11
62.923735
 21
464.6557
 31
0.0
  0
LINE
  5
625
330
1E
100
AcDbEntity
  8
0
100
AcDbLine
 10
61.235235
 20
520.9306999999999
 30
0.0
 11
62.967535
 21
521.0057
 31
0.0
  0
LINE
  5
62D
330
1E
100
AcDbEntity
  8
0
100
AcDbLine
 10
61.189735
 20
320.6557
 30
0.0
 11
62.923735
 21
320.6557
 31
0.0
  0
LINE
  5
62F
330
1E
100
AcDbEntity
  8
0
100
AcDbLine
 10
61.370635
 20
72.8297
 30
0.0
 11
63.104635
 21
72.8297
 31
0.0
  0
LINE
  5
630
330
1E
100
AcDbEntity
  8
0
100
AcDbLine
 10
61.370635
 20
56.8297
 30
0.0
 11
63.104635
 21
56.8297
 31
0.0
  0
LINE
  5
631
330
1E
100
AcDbEntity
  8
0
100
AcDbLine
 10
61.370635
 20
64.8297
 30
0.0
 11
63.104635
 21
64.8297
 31
0.0
  0
LINE
  5
632
330
1E
100
AcDbEntity
  8
0
100
AcDbLine
 10
61.370635
 20
32.82999999999999
 30
0.0
 11
63.104635
 21
32.82999999999999
 31
0.0
  0
LINE
  5
636
330
1E
100
AcDbEntity
  8
0
100
AcDbLine
 10
61.370635
 20
80.82970000000001
 30
0.0
 11
63.104635
 21
80.82970000000001
 31
0.0
  0
LINE
  5
637
330
1E
100
AcDbEntity
  8
0
100
AcDbLine
 10
61.370635
 20
88.8297
 30
0.0
 11
63.104635
 21
88.8297
 31
0.0
  0
LINE
  5
638
330
1E
100
AcDbEntity
  8
0
100
AcDbLine
 10
61.370635
 20
96.8297
 30
0.0
 11
63.104635
 21
96.8297
 31
0.0
  0
LINE
  5
639
330
1E
100
AcDbEntity
  8
0
100
AcDbLine
 10
61.370635
 20
136.8297
 30
0.0
 11
63.104635
 21
136.8297
 31
0.0
  0
LINE
  5
63A
330
1E
100
AcDbEntity
  8
0
100
AcDbLine
 10
61.370635
 20
144.8296999999999
 30
0.0
 11
63.104635
 21
144.8296999999999
 31
0.0
  0
LINE
  5
63B
330
1E
100
AcDbEntity
  8
0
100
AcDbLine
 10
61.370635
 20
152.8297
 30
0.0
 11
63.104635
 21
152.8297
 31
0.0
  0
LINE
  5
63C
330
1E
100
AcDbEntity
  8
0
100
AcDbLine
 10
61.370635
 20
160.8297
 30
0.0
 11
63.104635
 21
160.8297
 31
0.0
  0
LINE
  5
63D
330
1E
100
AcDbEntity
  8
0
100
AcDbLine
 10
61.370635
 20
184.8297
 30
0.0
 11
63.104635
 21
184.8297
 31
0.0
  0
LINE
  5
63E
330
1E
100
AcDbEntity
  8
0
100
AcDbLine
 10
61.370635
 20
192.8297
 30
0.0
 11
63.104635
 21
192.8297
 31
0.0
  0
LINE
  5
63F
330
1E
100
AcDbEntity
  8
0
100
AcDbLine
 10
61.370635
 20
168.8297
 30
0.0
 11
63.104635
 21
168.8297
 31
0.0
  0
LINE
  5
640
330
1E
100
AcDbEntity
  8
0
100
AcDbLine
 10
61.370635
 20
176.8297
 30
0.0
 11
63.104635
 21
176.8297
 31
0.0
  0
LINE
  5
641
330
1E
100
AcDbEntity
  8
0
100
AcDbLine
 10
61.370635
 20
120.8296999999999
 30
0.0
 11
63.104635
 21
120.8296999999999
 31
0.0
  0
LINE
  5
642
330
1E
100
AcDbEntity
  8
0
100
AcDbLine
 10
61.370635
 20
128.8297
 30
0.0
 11
63.104635
 21
128.8297
 31
0.0
  0
LINE
  5
643
330
1E
100
AcDbEntity
  8
0
100
AcDbLine
 10
61.370635
 20
104.8297
 30
0.0
 11
63.104635
 21
104.8297
 31
0.0
  0
LINE
  5
647
330
1E
100
AcDbEntity
  8
0
100
AcDbLine
 10
61.370635
 20
232.8297
 30
0.0
 11
63.104635
 21
232.8297
 31
0.0
  0
LINE
  5
648
330
1E
100
AcDbEntity
  8
0
100
AcDbLine
 10
61.370635
 20
240.8297
 30
0.0
 11
63.104635
 21
240.8297
 31
0.0
  0
LINE
  5
649
330
1E
100
AcDbEntity
  8
0
100
AcDbLine
 10
61.370635
 20
280.7157
 30
0.0
 11
63.104635
 21
280.7157
 31
0.0
  0
LINE
  5
64A
330
1E
100
AcDbEntity
  8
0
100
AcDbLine
 10
61.370635
 20
288.7157
 30
0.0
 11
63.104635
 21
288.7157
 31
0.0
  0
LINE
  5
64B
330
1E
100
AcDbEntity
  8
0
100
AcDbLine
 10
61.370635
 20
264.7157
 30
0.0
 11
63.104635
 21
264.7157
 31
0.0
  0
LINE
  5
64C
330
1E
100
AcDbEntity
  8
0
100
AcDbLine
 10
61.370635
 20
272.7157
 30
0.0
 11
63.104635
 21
272.7157
 31
0.0
  0
LINE
  5
64D
330
1E
100
AcDbEntity
  8
0
100
AcDbLine
 10
61.370635
 20
248.8297
 30
0.0
 11
63.104635
 21
248.8297
 31
0.0
  0
LINE
  5
64E
330
1E
100
AcDbEntity
  8
0
100
AcDbLine
 10
61.370635
 20
256.8297
 30
0.0
 11
63.104635
 21
256.8297
 31
0.0
  0
LINE
  5
64F
330
1E
100
AcDbEntity
  8
0
100
AcDbLine
 10
61.370635
 20
216.8296999999999
 30
0.0
 11
63.104635
 21
216.8296999999999
 31
0.0
  0
LINE
  5
650
330
1E
100
AcDbEntity
  8
0
100
AcDbLine
 10
61.370635
 20
224.8296999999999
 30
0.0
 11
63.104635
 21
224.8296999999999
 31
0.0
  0
LINE
  5
651
330
1E
100
AcDbEntity
  8
0
100
AcDbLine
 10
61.370635
 20
200.8297
 30
0.0
 11
63.104635
 21
200.8297
 31
0.0
  0
LINE
  5
652
330
1E
100
AcDbEntity
  8
0
100
AcDbLine
 10
61.383435
 20
554.6807
 30
0.0
 11
62.696635
 21
554.8646999999999
 31
0.0
  0
LINE
  5
653
330
1E
100
AcDbEntity
  8
0
100
AcDbLine
 10
61.370635
 20
208.8296999999999
 30
0.0
 11
63.104635
 21
208.8296999999999
 31
0.0
  0
LINE
  5
655
330
1E
100
AcDbEntity
  8
0
100
AcDbLine
 10
61.370635
 20
112.8297
 30
0.0
 11
63.104635
 21
112.8297
 31
0.0
  0
LINE
  5
66B
330
1E
100
AcDbEntity
  8
0
100
AcDbLine
 10
62.05523499999999
 20
537.3857
 30
0.0
 11
63.379435
 21
537.4537
 31
0.0
  0
LINE
  5
66D
330
1E
100
AcDbEntity
  8
0
100
AcDbLine
 10
61.642235
 20
545.3746999999999
 30
0.0
 11
62.966435
 21
545.4426999999999
 31
0.0
  0
LINE
  5
675
330
1E
100
AcDbEntity
  8
0
100
AcDbLine
 10
61.370635
 20
16.82999999999999
 30
0.0
 11
63.104635
 21
16.82999999999999
 31
0.0
  0
LINE
  5
677
330
1E
100
AcDbEntity
  8
0
100
AcDbLine
 10
63.104635
 20
8.83009999999998
 30
0.0
 11
64.430635
 21
8.83009999999998
 31
0.0
  0
LINE
  5
679
330
1E
100
AcDbEntity
  8
0
100
AcDbLine
 10
63.104635
 20
24.83
 30
0.0
 11
64.430635
 21
24.83
 31
0.0
  0
LINE
  5
67B
330
1E
100
AcDbEntity
  8
0
100
AcDbLine
 10
63.104635
 20
40.83
 30
0.0
 11
64.430635
 21
40.83
 31
0.0
  0
LINE
  5
67D
330
1E
100
AcDbEntity
  8
0
100
AcDbLine
 10
63.104635
 20
48.83
 30
0.0
 11
64.430635
 21
48.83
 31
0.0
  0
LINE
  5
67F
330
1E
100
AcDbEntity
  8
0
100
AcDbLine
 10
63.104635
 20
56.8297
 30
0.0
 11
64.430635
 21
56.8297
 31
0.0
  0
LINE
  5
681
330
1E
100
AcDbEntity
  8
0
100
AcDbLine
 10
63.104635
 20
72.8297
 30
0.0
 11
64.430635
 21
72.8297
 31
0.0
  0
LINE
  5
682
330
1E
100
AcDbEntity
  8
0
100
AcDbLine
 10
63.104635
 20
80.82970000000001
 30
0.0
 11
64.430635
 21
80.82970000000001
 31
0.0
  0
LINE
  5
683
330
1E
100
AcDbEntity
  8
0
100
AcDbLine
 10
63.104635
 20
88.8297
 30
0.0
 11
64.430635
 21
88.8297
 31
0.0
  0
LINE
  5
684
330
1E
100
AcDbEntity
  8
0
100
AcDbLine
 10
63.104635
 20
96.8297
 30
0.0
 11
64.430635
 21
96.8297
 31
0.0
  0
LINE
  5
685
330
1E
100
AcDbEntity
  8
0
100
AcDbLine
 10
62.923735
 20
296.6557
 30
0.0
 11
64.249735
 21
296.6557
 31
0.0
  0
LINE
  5
687
330
1E
100
AcDbEntity
  8
0
100
AcDbLine
 10
62.923735
 20
304.6557
 30
0.0
 11
64.249735
 21
304.6557
 31
0.0
  0
LINE
  5
689
330
1E
100
AcDbEntity
  8
0
100
AcDbLine
 10
62.923735
 20
312.6557
 30
0.0
 11
64.249735
 21
312.6557
 31
0.0
  0
LINE
  5
68B
330
1E
100
AcDbEntity
  8
0
100
AcDbLine
 10
62.923735
 20
328.6557
 30
0.0
 11
64.249735
 21
328.6557
 31
0.0
  0
LINE
  5
68C
330
1E
100
AcDbEntity
  8
0
100
AcDbLine
 10
62.923735
 20
336.6557
 30
0.0
 11
64.249735
 21
336.6557
 31
0.0
  0
LINE
  5
68D
330
1E
100
AcDbEntity
  8
0
100
AcDbLine
 10
62.863435
 20
344.7157
 30
0.0
 11
64.18943500000001
 21
344.7157
 31
0.0
  0
LINE
  5
68F
330
1E
100
AcDbEntity
  8
0
100
AcDbLine
 10
62.863435
 20
352.7157
 30
0.0
 11
64.18943500000001
 21
352.7157
 31
0.0
  0
LINE
  5
691
330
1E
100
AcDbEntity
  8
0
100
AcDbLine
 10
62.863435
 20
360.7157
 30
0.0
 11
64.18943500000001
 21
360.7157
 31
0.0
  0
LINE
  5
693
330
1E
100
AcDbEntity
  8
0
100
AcDbLine
 10
62.863435
 20
376.7157
 30
0.0
 11
64.18943500000001
 21
376.7157
 31
0.0
  0
LINE
  5
695
330
1E
100
AcDbEntity
  8
0
100
AcDbLine
 10
62.863435
 20
424.6096999999999
 30
0.0
 11
64.18943500000001
 21
424.6096999999999
 31
0.0
  0
LINE
  5
696
330
1E
100
AcDbEntity
  8
0
100
AcDbLine
 10
62.863435
 20
432.6096999999999
 30
0.0
 11
64.18943500000001
 21
432.6096999999999
 31
0.0
  0
LINE
  5
697
330
1E
100
AcDbEntity
  8
0
100
AcDbLine
 10
62.863435
 20
408.6096999999999
 30
0.0
 11
64.18943500000001
 21
408.6096999999999
 31
0.0
  0
LINE
  5
698
330
1E
100
AcDbEntity
  8
0
100
AcDbLine
 10
62.863435
 20
416.6096999999999
 30
0.0
 11
64.18943500000001
 21
416.6096999999999
 31
0.0
  0
LINE
  5
699
330
1E
100
AcDbEntity
  8
0
100
AcDbLine
 10
62.863435
 20
472.7157
 30
0.0
 11
64.18943500000001
 21
472.7157
 31
0.0
  0
LINE
  5
69A
330
1E
100
AcDbEntity
  8
0
100
AcDbLine
 10
62.863435
 20
480.7157
 30
0.0
 11
64.18943500000001
 21
480.7157
 31
0.0
  0
LINE
  5
69B
330
1E
100
AcDbEntity
  8
0
100
AcDbLine
 10
62.696635
 20
554.8646999999999
 30
0.0
 11
63.504635
 21
554.9777
 31
0.0
  0
LINE
  5
69C
330
1E
100
AcDbEntity
  8
0
100
AcDbLine
 10
62.62073499999999
 20
528.9986999999999
 30
0.0
 11
63.945535
 21
529.0556999999999
 31
0.0
  0
LINE
  5
69E
330
1E
100
AcDbEntity
  8
0
100
AcDbLine
 10
62.863435
 20
504.6096999999999
 30
0.0
 11
64.18943500000001
 21
504.6096999999999
 31
0.0
  0
LINE
  5
69F
330
1E
100
AcDbEntity
  8
0
100
AcDbLine
 10
62.863435
 20
512.6096999999999
 30
0.0
 11
64.18943500000001
 21
512.6096999999999
 31
0.0
  0
LINE
  5
6A0
330
1E
100
AcDbEntity
  8
0
100
AcDbLine
 10
62.863435
 20
488.7157
 30
0.0
 11
64.18943500000001
 21
488.7157
 31
0.0
  0
LINE
  5
6A1
330
1E
100
AcDbEntity
  8
0
100
AcDbLine
 10
62.863435
 20
496.7157
 30
0.0
 11
64.18943500000001
 21
496.7157
 31
0.0
  0
LINE
  5
6A2
330
1E
100
AcDbEntity
  8
0
100
AcDbLine
 10
62.863435
 20
440.6096999999999
 30
0.0
 11
64.18943500000001
 21
440.6096999999999
 31
0.0
  0
LINE
  5
6A3
330
1E
100
AcDbEntity
  8
0
100
AcDbLine
 10
62.923735
 20
392.5497
 30
0.0
 11
64.249735
 21
392.5497
 31
0.0
  0
LINE
  5
6A4
330
1E
100
AcDbEntity
  8
0
100
AcDbLine
 10
62.923735
 20
456.6557
 30
0.0
 11
64.249735
 21
456.6557
 31
0.0
  0
LINE
  5
6A5
330
1E
100
AcDbEntity
  8
0
100
AcDbLine
 10
62.967535
 20
521.0057
 30
0.0
 11
64.29233499999999
 21
521.0637
 31
0.0
  0
LINE
  5
6A6
330
1E
100
AcDbEntity
  8
0
100
AcDbLine
 10
62.966435
 20
545.4426999999999
 30
0.0
 11
63.781335
 21
545.4847
 31
0.0
  0
LINE
  5
6A7
330
1E
100
AcDbEntity
  8
0
100
AcDbLine
 10
62.923735
 20
464.6557
 30
0.0
 11
64.249735
 21
464.6557
 31
0.0
  0
LINE
  5
6A8
330
1E
100
AcDbEntity
  8
0
100
AcDbLine
 10
62.923735
 20
400.5497
 30
0.0
 11
64.249735
 21
400.5497
 31
0.0
  0
LINE
  5
6A9
330
1E
100
AcDbEntity
  8
0
100
AcDbLine
 10
62.863435
 20
448.6097
 30
0.0
 11
64.18943500000001
 21
448.6097
 31
0.0
  0
LINE
  5
6AA
330
1E
100
AcDbEntity
  8
0
100
AcDbLine
 10
62.863435
 20
384.7157
 30
0.0
 11
64.18943500000001
 21
384.7157
 31
0.0
  0
LINE
  5
6AC
330
1E
100
AcDbEntity
  8
0
100
AcDbLine
 10
62.863435
 20
368.7157
 30
0.0
 11
64.18943500000001
 21
368.7157
 31
0.0
  0
LINE
  5
6BC
330
1E
100
AcDbEntity
  8
0
100
AcDbLine
 10
62.923735
 20
320.6557
 30
0.0
 11
64.249735
 21
320.6557
 31
0.0
  0
LINE
  5
6C2
330
1E
100
AcDbEntity
  8
0
100
AcDbLine
 10
63.104635
 20
104.8297
 30
0.0
 11
64.430635
 21
104.8297
 31
0.0
  0
LINE
  5
6C4
330
1E
100
AcDbEntity
  8
0
100
AcDbLine
 10
63.104635
 20
120.8296999999999
 30
0.0
 11
64.430635
 21
120.8296999999999
 31
0.0
  0
LINE
  5
6C5
330
1E
100
AcDbEntity
  8
0
100
AcDbLine
 10
63.104635
 20
136.8297
 30
0.0
 11
64.430635
 21
136.8297
 31
0.0
  0
LINE
  5
6C6
330
1E
100
AcDbEntity
  8
0
100
AcDbLine
 10
63.104635
 20
144.8296999999999
 30
0.0
 11
64.430635
 21
144.8296999999999
 31
0.0
  0
LINE
  5
6C7
330
1E
100
AcDbEntity
  8
0
100
AcDbLine
 10
63.104635
 20
152.8297
 30
0.0
 11
64.430635
 21
152.8297
 31
0.0
  0
LINE
  5
6C8
330
1E
100
AcDbEntity
  8
0
100
AcDbLine
 10
63.104635
 20
160.8297
 30
0.0
 11
64.430635
 21
160.8297
 31
0.0
  0
LINE
  5
6C9
330
1E
100
AcDbEntity
  8
0
100
AcDbLine
 10
63.104635
 20
184.8297
 30
0.0
 11
64.430635
 21
184.8297
 31
0.0
  0
LINE
  5
6CA
330
1E
100
AcDbEntity
  8
0
100
AcDbLine
 10
63.104635
 20
192.8297
 30
0.0
 11
64.430635
 21
192.8297
 31
0.0
  0
LINE
  5
6CB
330
1E
100
AcDbEntity
  8
0
100
AcDbLine
 10
63.104635
 20
168.8297
 30
0.0
 11
64.430635
 21
168.8297
 31
0.0
  0
LINE
  5
6CC
330
1E
100
AcDbEntity
  8
0
100
AcDbLine
 10
63.104635
 20
176.8297
 30
0.0
 11
64.430635
 21
176.8297
 31
0.0
  0
LINE
  5
6CD
330
1E
100
AcDbEntity
  8
0
100
AcDbLine
 10
63.104635
 20
232.8297
 30
0.0
 11
64.430635
 21
232.8297
 31
0.0
  0
LINE
  5
6CE
330
1E
100
AcDbEntity
  8
0
100
AcDbLine
 10
63.104635
 20
216.8296999999999
 30
0.0
 11
64.430635
 21
216.8296999999999
 31
0.0
  0
LINE
  5
6CF
330
1E
100
AcDbEntity
  8
0
100
AcDbLine
 10
63.104635
 20
224.8296999999999
 30
0.0
 11
64.430635
 21
224.8296999999999
 31
0.0
  0
LINE
  5
6D0
330
1E
100
AcDbEntity
  8
0
100
AcDbLine
 10
63.104635
 20
200.8297
 30
0.0
 11
64.430635
 21
200.8297
 31
0.0
  0
LINE
  5
6D1
330
1E
100
AcDbEntity
  8
0
100
AcDbLine
 10
63.104635
 20
240.8297
 30
0.0
 11
64.430635
 21
240.8297
 31
0.0
  0
LINE
  5
6D2
330
1E
100
AcDbEntity
  8
0
100
AcDbLine
 10
63.104635
 20
248.8297
 30
0.0
 11
64.430635
 21
248.8297
 31
0.0
  0
LINE
  5
6D3
330
1E
100
AcDbEntity
  8
0
100
AcDbLine
 10
63.104635
 20
280.7157
 30
0.0
 11
64.430635
 21
280.7157
 31
0.0
  0
LINE
  5
6D4
330
1E
100
AcDbEntity
  8
0
100
AcDbLine
 10
63.104635
 20
288.7157
 30
0.0
 11
64.430635
 21
288.7157
 31
0.0
  0
LINE
  5
6D5
330
1E
100
AcDbEntity
  8
0
100
AcDbLine
 10
63.104635
 20
264.7157
 30
0.0
 11
64.430635
 21
264.7157
 31
0.0
  0
LINE
  5
6D8
330
1E
100
AcDbEntity
  8
0
100
AcDbLine
 10
63.104635
 20
272.7157
 30
0.0
 11
64.430635
 21
272.7157
 31
0.0
  0
LINE
  5
6D9
330
1E
100
AcDbEntity
  8
0
100
AcDbLine
 10
63.104635
 20
256.8297
 30
0.0
 11
64.430635
 21
256.8297
 31
0.0
  0
LINE
  5
6DA
330
1E
100
AcDbEntity
  8
0
100
AcDbLine
 10
63.104635
 20
208.8296999999999
 30
0.0
 11
64.430635
 21
208.8296999999999
 31
0.0
  0
LINE
  5
6DB
330
1E
100
AcDbEntity
  8
0
100
AcDbLine
 10
63.104635
 20
128.8297
 30
0.0
 11
64.430635
 21
128.8297
 31
0.0
  0
LINE
  5
6DC
330
1E
100
AcDbEntity
  8
0
100
AcDbLine
 10
63.104635
 20
112.8297
 30
0.0
 11
64.430635
 21
112.8297
 31
0.0
  0
LINE
  5
6DD
330
1E
100
AcDbEntity
  8
0
100
AcDbLine
 10
63.104635
 20
64.8297
 30
0.0
 11
64.430635
 21
64.8297
 31
0.0
  0
LINE
  5
6DF
330
1E
100
AcDbEntity
  8
0
100
AcDbLine
 10
63.104635
 20
32.82999999999999
 30
0.0
 11
64.430635
 21
32.82999999999999
 31
0.0
  0
LINE
  5
6E1
330
1E
100
AcDbEntity
  8
0
100
AcDbLine
 10
63.104635
 20
16.82999999999999
 30
0.0
 11
64.430635
 21
16.82999999999999
 31
0.0
  0
LINE
  5
6F9
330
1E
100
AcDbEntity
  8
0
100
AcDbLine
 10
64.18943500000001
 20
344.7157
 30
0.0
 11
65.00543499999999
 21
344.7157
 31
0.0
  0
LINE
  5
6FA
330
1E
100
AcDbEntity
  8
0
100
AcDbLine
 10
64.18943500000001
 20
352.7157
 30
0.0
 11
65.00543499999999
 21
352.7157
 31
0.0
  0
LINE
  5
6FB
330
1E
100
AcDbEntity
  8
0
100
AcDbLine
 10
64.18943500000001
 20
360.7157
 30
0.0
 11
65.00543499999999
 21
360.7157
 31
0.0
  0
LINE
  5
6FC
330
1E
100
AcDbEntity
  8
0
100
AcDbLine
 10
63.379435
 20
537.4537
 30
0.0
 11
64.194335
 21
537.4957000000001
 31
0.0
  0
LINE
  5
6FE
330
1E
100
AcDbEntity
  8
0
100
AcDbLine
 10
63.945535
 20
529.0556999999999
 30
0.0
 11
64.760735
 21
529.0916999999999
 31
0.0
  0
LINE
  5
700
330
1E
100
AcDbEntity
  8
0
100
AcDbLine
 10
64.086935
 20
545.5007000000001
 30
0.0
 11
64.306535
 21
545.2047
 31
0.0
  0
LINE
  5
701
330
1E
100
AcDbEntity
  8
0
100
AcDbLine
 10
63.781335
 20
545.4847
 30
0.0
 11
64.086935
 21
545.5007000000001
 31
0.0
  0
LINE
  5
702
330
1E
100
AcDbEntity
  8
0
100
AcDbLine
 10
64.18943500000001
 20
376.7157
 30
0.0
 11
65.00543499999999
 21
376.7157
 31
0.0
  0
LINE
  5
703
330
1E
100
AcDbEntity
  8
0
100
AcDbLine
 10
64.18943500000001
 20
408.6096999999999
 30
0.0
 11
65.00543499999999
 21
408.6096999999999
 31
0.0
  0
LINE
  5
704
330
1E
100
AcDbEntity
  8
0
100
AcDbLine
 10
64.18943500000001
 20
424.6096999999999
 30
0.0
 11
65.00543499999999
 21
424.6096999999999
 31
0.0
  0
LINE
  5
705
330
1E
100
AcDbEntity
  8
0
100
AcDbLine
 10
64.18943500000001
 20
432.6096999999999
 30
0.0
 11
65.00543499999999
 21
432.6096999999999
 31
0.0
  0
LINE
  5
706
330
1E
100
AcDbEntity
  8
0
100
AcDbLine
 10
64.18943500000001
 20
416.6096999999999
 30
0.0
 11
65.00543499999999
 21
416.6096999999999
 31
0.0
  0
LINE
  5
707
330
1E
100
AcDbEntity
  8
0
100
AcDbLine
 10
64.18943500000001
 20
440.6096999999999
 30
0.0
 11
65.00543499999999
 21
440.6096999999999
 31
0.0
  0
LINE
  5
708
330
1E
100
AcDbEntity
  8
0
100
AcDbLine
 10
64.18943500000001
 20
472.7157
 30
0.0
 11
65.00543499999999
 21
472.7157
 31
0.0
  0
LINE
  5
709
330
1E
100
AcDbEntity
  8
0
100
AcDbLine
 10
64.18943500000001
 20
480.7157
 30
0.0
 11
65.00543499999999
 21
480.7157
 31
0.0
  0
LINE
  5
70A
330
1E
100
AcDbEntity
  8
0
100
AcDbLine
 10
64.18943500000001
 20
504.6096999999999
 30
0.0
 11
65.00543499999999
 21
504.6096999999999
 31
0.0
  0
LINE
  5
70B
330
1E
100
AcDbEntity
  8
0
100
AcDbLine
 10
64.18943500000001
 20
488.7157
 30
0.0
 11
65.00543499999999
 21
488.7157
 31
0.0
  0
LINE
  5
70C
330
1E
100
AcDbEntity
  8
0
100
AcDbLine
 10
64.194335
 20
537.4957000000001
 30
0.0
 11
64.49993499999999
 21
537.5117
 31
0.0
  0
LINE
  5
70D
330
1E
100
AcDbEntity
  8
0
100
AcDbLine
 10
64.18943500000001
 20
512.6096999999999
 30
0.0
 11
65.00543499999999
 21
512.6096999999999
 31
0.0
  0
LINE
  5
70E
330
1E
100
AcDbEntity
  8
0
100
AcDbLine
 10
64.18943500000001
 20
496.7157
 30
0.0
 11
65.00543499999999
 21
496.7157
 31
0.0
  0
LINE
  5
70F
330
1E
100
AcDbEntity
  8
0
100
AcDbLine
 10
64.18943500000001
 20
448.6097
 30
0.0
 11
65.00543499999999
 21
448.6097
 31
0.0
  0
LINE
  5
710
330
1E
100
AcDbEntity
  8
0
100
AcDbLine
 10
64.18943500000001
 20
384.7157
 30
0.0
 11
65.00543499999999
 21
384.7157
 31
0.0
  0
LINE
  5
711
330
1E
100
AcDbEntity
  8
0
100
AcDbLine
 10
64.18943500000001
 20
368.7157
 30
0.0
 11
65.00543499999999
 21
368.7157
 31
0.0
  0
LINE
  5
717
330
1E
100
AcDbEntity
  8
0
100
AcDbLine
 10
64.20503499999999
 20
5.76979999999999
 30
0.0
 11
65.235035
 21
4.34219999999999
 31
0.0
  0
LINE
  5
718
330
1E
100
AcDbEntity
  8
0
100
AcDbLine
 10
62.26903499999999
 20
6.945899999999981
 30
0.0
 11
64.20503499999999
 21
5.76979999999999
 31
0.0
  0
LINE
  5
719
330
1E
100
AcDbEntity
  8
0
100
AcDbLine
 10
63.543035
 20
1.42659999999998
 30
0.0
 11
64.97203499999999
 21
2.80039999999999
 31
0.0
  0
LINE
  5
71A
330
1E
100
AcDbEntity
  8
0
100
AcDbLine
 10
61.151035
 20
0.475599999999989
 30
0.0
 11
63.543035
 21
1.42659999999998
 31
0.0
  0
LINE
  5
71B
330
1E
100
AcDbEntity
  8
0
100
AcDbLine
 10
60.447635
 20
572.0196999999999
 30
0.0
 11
61.254135
 21
572.1436999999999
 31
0.0
  0
LINE
  5
71C
330
1E
100
AcDbEntity
  8
0
100
AcDbLine
 10
60.271435
 20
562.6027
 30
0.0
 11
61.584535
 21
562.7867
 31
0.0
  0
LINE
  5
71D
330
1E
100
AcDbEntity
  8
0
100
AcDbLine
 10
63.504635
 20
554.9777
 30
0.0
 11
63.807735
 21
555.0207
 31
0.0
  0
LINE
  5
71E
330
1E
100
AcDbEntity
  8
0
100
AcDbLine
 10
63.807735
 20
555.0207
 30
0.0
 11
63.966935
 21
555.3537
 31
0.0
  0
LINE
  5
721
330
1E
100
AcDbEntity
  8
0
100
AcDbLine
 10
62.940435
 20
562.6667
 30
0.0
 11
63.966935
 21
555.3537
 31
0.0
  0
LINE
  5
722
330
1E
100
AcDbEntity
  8
0
100
AcDbLine
 10
62.4428175562659
 20
562.907655997898
 30
0.0
 11
62.695635
 21
562.9426999999999
 31
0.0
  0
LINE
  5
723
330
1E
100
AcDbEntity
  8
0
100
AcDbLine
 10
62.695635
 20
562.9426999999999
 30
0.0
 11
62.940435
 21
562.6667
 31
0.0
  0
LINE
  5
724
330
1E
100
AcDbEntity
  8
0
100
AcDbLine
 10
62.39263499999999
 20
562.9007
 30
0.0
 11
62.695635
 21
562.9426999999999
 31
0.0
  0
LINE
  5
725
330
1E
100
AcDbEntity
  8
0
100
AcDbLine
 10
61.584535
 20
562.7867
 30
0.0
 11
62.39263499999999
 21
562.9007
 31
0.0
  0
LINE
  5
728
330
1E
100
AcDbEntity
  8
0
100
AcDbLine
 10
63.2048712492795
 20
554.935777594268
 30
0.0
 11
63.7544171892242
 21
545.4833126542489
 31
0.0
  0
LINE
  5
729
330
1E
100
AcDbEntity
  8
0
100
AcDbLine
 10
64.430635
 20
8.83009999999998
 30
0.0
 11
65.24663499999999
 21
8.83009999999998
 31
0.0
  0
LINE
  5
72B
330
1E
100
AcDbEntity
  8
0
100
AcDbLine
 10
64.430635
 20
24.83
 30
0.0
 11
65.24663499999999
 21
24.83
 31
0.0
  0
LINE
  5
72C
330
1E
100
AcDbEntity
  8
0
100
AcDbLine
 10
64.430635
 20
16.82999999999999
 30
0.0
 11
65.24663499999999
 21
16.82999999999999
 31
0.0
  0
LINE
  5
72E
330
1E
100
AcDbEntity
  8
0
100
AcDbLine
 10
65.232381739313
 20
8.83009999999998
 30
0.0
 11
65.235035
 21
4.34219999999999
 31
0.0
  0
LINE
  5
730
330
1E
100
AcDbEntity
  8
0
100
AcDbLine
 10
64.430635
 20
40.83
 30
0.0
 11
65.24663499999999
 21
40.83
 31
0.0
  0
LINE
  5
731
330
1E
100
AcDbEntity
  8
0
100
AcDbLine
 10
64.430635
 20
48.83
 30
0.0
 11
65.24663499999999
 21
48.83
 31
0.0
  0
LINE
  5
732
330
1E
100
AcDbEntity
  8
0
100
AcDbLine
 10
64.430635
 20
56.8297
 30
0.0
 11
65.24663499999999
 21
56.8297
 31
0.0
  0
LINE
  5
736
330
1E
100
AcDbEntity
  8
0
100
AcDbLine
 10
64.430635
 20
72.8297
 30
0.0
 11
65.24663499999999
 21
72.8297
 31
0.0
  0
LINE
  5
737
330
1E
100
AcDbEntity
  8
0
100
AcDbLine
 10
64.430635
 20
80.82970000000001
 30
0.0
 11
65.24663499999999
 21
80.82970000000001
 31
0.0
  0
LINE
  5
738
330
1E
100
AcDbEntity
  8
0
100
AcDbLine
 10
64.430635
 20
88.8297
 30
0.0
 11
65.24663499999999
 21
88.8297
 31
0.0
  0
LINE
  5
739
330
1E
100
AcDbEntity
  8
0
100
AcDbLine
 10
64.430635
 20
96.8297
 30
0.0
 11
65.24663499999999
 21
96.8297
 31
0.0
  0
LINE
  5
73A
330
1E
100
AcDbEntity
  8
0
100
AcDbLine
 10
64.430635
 20
104.8297
 30
0.0
 11
65.24663499999999
 21
104.8297
 31
0.0
  0
LINE
  5
73F
330
1E
100
AcDbEntity
  8
0
100
AcDbLine
 10
64.430635
 20
64.8297
 30
0.0
 11
65.24663499999999
 21
64.8297
 31
0.0
  0
LINE
  5
741
330
1E
100
AcDbEntity
  8
0
100
AcDbLine
 10
64.430635
 20
32.82999999999999
 30
0.0
 11
65.24663499999999
 21
32.82999999999999
 31
0.0
  0
LINE
  5
743
330
1E
100
AcDbEntity
  8
0
100
AcDbLine
 10
65.1850857225443
 20
88.8297
 30
0.0
 11
65.1898153478693
 21
80.82970000000001
 31
0.0
  0
LINE
  5
744
330
1E
100
AcDbEntity
  8
0
100
AcDbLine
 10
65.1850857225443
 20
88.8297
 30
0.0
 11
65.24663499999999
 21
88.8297
 31
0.0
  0
LINE
  5
745
330
1E
100
AcDbEntity
  8
0
100
AcDbLine
 10
65.17562647189429
 20
104.8297
 30
0.0
 11
65.1803560972193
 21
96.8297
 31
0.0
  0
LINE
  5
746
330
1E
100
AcDbEntity
  8
0
100
AcDbLine
 10
65.17562647189429
 20
104.8297
 30
0.0
 11
65.24663499999999
 21
104.8297
 31
0.0
  0
LINE
  5
747
330
1E
100
AcDbEntity
  8
0
100
AcDbLine
 10
65.19454497319429
 20
72.8297
 30
0.0
 11
65.19927459851929
 21
64.8297
 31
0.0
  0
LINE
  5
748
330
1E
100
AcDbEntity
  8
0
100
AcDbLine
 10
65.19454497319429
 20
72.8297
 30
0.0
 11
65.24663499999999
 21
72.8297
 31
0.0
  0
LINE
  5
749
330
1E
100
AcDbEntity
  8
0
100
AcDbLine
 10
65.1850857225443
 20
88.8297
 30
0.0
 11
65.1898153478693
 21
80.82970000000001
 31
0.0
  0
LINE
  5
74B
330
1E
100
AcDbEntity
  8
0
100
AcDbLine
 10
64.430635
 20
120.8296999999999
 30
0.0
 11
65.24663499999999
 21
120.8296999999999
 31
0.0
  0
LINE
  5
74D
330
1E
100
AcDbEntity
  8
0
100
AcDbLine
 10
64.430635
 20
136.8297
 30
0.0
 11
65.24663499999999
 21
136.8297
 31
0.0
  0
LINE
  5
74F
330
1E
100
AcDbEntity
  8
0
100
AcDbLine
 10
64.430635
 20
144.8296999999999
 30
0.0
 11
65.24663499999999
 21
144.8296999999999
 31
0.0
  0
LINE
  5
751
330
1E
100
AcDbEntity
  8
0
100
AcDbLine
 10
64.430635
 20
152.8297
 30
0.0
 11
65.24663499999999
 21
152.8297
 31
0.0
  0
LINE
  5
753
330
1E
100
AcDbEntity
  8
0
100
AcDbLine
 10
64.430635
 20
160.8297
 30
0.0
 11
65.24663499999999
 21
160.8297
 31
0.0
  0
LINE
  5
755
330
1E
100
AcDbEntity
  8
0
100
AcDbLine
 10
64.430635
 20
168.8297
 30
0.0
 11
65.24663499999999
 21
168.8297
 31
0.0
  0
LINE
  5
757
330
1E
100
AcDbEntity
  8
0
100
AcDbLine
 10
64.430635
 20
184.8297
 30
0.0
 11
65.24663499999999
 21
184.8297
 31
0.0
  0
LINE
  5
758
330
1E
100
AcDbEntity
  8
0
100
AcDbLine
 10
64.430635
 20
176.8297
 30
0.0
 11
65.24663499999999
 21
176.8297
 31
0.0
  0
LINE
  5
75A
330
1E
100
AcDbEntity
  8
0
100
AcDbLine
 10
64.430635
 20
128.8297
 30
0.0
 11
65.24663499999999
 21
128.8297
 31
0.0
  0
LINE
  5
75C
330
1E
100
AcDbEntity
  8
0
100
AcDbLine
 10
64.430635
 20
112.8297
 30
0.0
 11
65.24663499999999
 21
112.8297
 31
0.0
  0
LINE
  5
75D
330
1E
100
AcDbEntity
  8
0
100
AcDbLine
 10
65.13778946929439
 20
168.8297
 30
0.0
 11
65.24663499999999
 21
168.8297
 31
0.0
  0
LINE
  5
75F
330
1E
100
AcDbEntity
  8
0
100
AcDbLine
 10
64.430635
 20
192.8297
 30
0.0
 11
65.24663499999999
 21
192.8297
 31
0.0
  0
LINE
  5
762
330
1E
100
AcDbEntity
  8
0
100
AcDbLine
 10
64.430635
 20
200.8297
 30
0.0
 11
65.24663499999999
 21
200.8297
 31
0.0
  0
LINE
  5
763
330
1E
100
AcDbEntity
  8
0
100
AcDbLine
 10
65.12833021864439
 20
184.8297
 30
0.0
 11
65.1330598439694
 21
176.8297
 31
0.0
  0
LINE
  5
764
330
1E
100
AcDbEntity
  8
0
100
AcDbLine
 10
65.12833021864439
 20
184.8297
 30
0.0
 11
65.24663499999999
 21
184.8297
 31
0.0
  0
LINE
  5
765
330
1E
100
AcDbEntity
  8
0
100
AcDbLine
 10
65.1472487199444
 20
152.8297
 30
0.0
 11
65.15197834526929
 21
144.8296999999999
 31
0.0
  0
LINE
  5
766
330
1E
100
AcDbEntity
  8
0
100
AcDbLine
 10
65.1472487199444
 20
152.8297
 30
0.0
 11
65.24663499999999
 21
152.8297
 31
0.0
  0
LINE
  5
767
330
1E
100
AcDbEntity
  8
0
100
AcDbLine
 10
65.1567079705943
 20
136.8297
 30
0.0
 11
65.1614375959193
 21
128.8297
 31
0.0
  0
LINE
  5
768
330
1E
100
AcDbEntity
  8
0
100
AcDbLine
 10
65.1567079705943
 20
136.8297
 30
0.0
 11
65.1614375959193
 21
128.8297
 31
0.0
  0
LINE
  5
769
330
1E
100
AcDbEntity
  8
0
100
AcDbLine
 10
65.1567079705943
 20
136.8297
 30
0.0
 11
65.24663499999999
 21
136.8297
 31
0.0
  0
LINE
  5
76A
330
1E
100
AcDbEntity
  8
0
100
AcDbLine
 10
65.1472487199444
 20
152.8297
 30
0.0
 11
65.15197834526929
 21
144.8296999999999
 31
0.0
  0
LINE
  5
76B
330
1E
100
AcDbEntity
  8
0
100
AcDbLine
 10
65.13778946929439
 20
168.8297
 30
0.0
 11
65.1425190946194
 21
160.8297
 31
0.0
  0
LINE
  5
76D
330
1E
100
AcDbEntity
  8
0
100
AcDbLine
 10
64.430635
 20
216.8296999999999
 30
0.0
 11
65.24663499999999
 21
216.8296999999999
 31
0.0
  0
LINE
  5
76E
330
1E
100
AcDbEntity
  8
0
100
AcDbLine
 10
64.430635
 20
232.8297
 30
0.0
 11
65.24663499999999
 21
232.8297
 31
0.0
  0
LINE
  5
76F
330
1E
100
AcDbEntity
  8
0
100
AcDbLine
 10
64.430635
 20
240.8297
 30
0.0
 11
65.24663499999999
 21
240.8297
 31
0.0
  0
LINE
  5
770
330
1E
100
AcDbEntity
  8
0
100
AcDbLine
 10
64.430635
 20
248.8297
 30
0.0
 11
65.24663499999999
 21
248.8297
 31
0.0
  0
LINE
  5
771
330
1E
100
AcDbEntity
  8
0
100
AcDbLine
 10
64.430635
 20
224.8296999999999
 30
0.0
 11
65.24663499999999
 21
224.8296999999999
 31
0.0
  0
LINE
  5
776
330
1E
100
AcDbEntity
  8
0
100
AcDbLine
 10
64.430635
 20
208.8296999999999
 30
0.0
 11
65.24663499999999
 21
208.8296999999999
 31
0.0
  0
LINE
  5
778
330
1E
100
AcDbEntity
  8
0
100
AcDbLine
 10
65.0999524666944
 20
232.8297
 30
0.0
 11
65.1046820920194
 21
224.8296999999999
 31
0.0
  0
LINE
  5
779
330
1E
100
AcDbEntity
  8
0
100
AcDbLine
 10
65.0999524666944
 20
232.8297
 30
0.0
 11
65.24663499999999
 21
232.8297
 31
0.0
  0
LINE
  5
77B
330
1E
100
AcDbEntity
  8
0
100
AcDbLine
 10
64.430635
 20
264.7157
 30
0.0
 11
65.24663499999999
 21
264.7157
 31
0.0
  0
LINE
  5
77C
330
1E
100
AcDbEntity
  8
0
100
AcDbLine
 10
64.430635
 20
280.7157
 30
0.0
 11
65.24663499999999
 21
280.7157
 31
0.0
  0
LINE
  5
77D
330
1E
100
AcDbEntity
  8
0
100
AcDbLine
 10
64.430635
 20
272.7157
 30
0.0
 11
65.24663499999999
 21
272.7157
 31
0.0
  0
LINE
  5
780
330
1E
100
AcDbEntity
  8
0
100
AcDbLine
 10
64.430635
 20
256.8297
 30
0.0
 11
65.24663499999999
 21
256.8297
 31
0.0
  0
LINE
  5
782
330
1E
100
AcDbEntity
  8
0
100
AcDbLine
 10
65.08110136255528
 20
264.7157
 30
0.0
 11
65.08576359071939
 21
256.8297
 31
0.0
  0
LINE
  5
783
330
1E
100
AcDbEntity
  8
0
100
AcDbLine
 10
65.08110136255528
 20
264.7157
 30
0.0
 11
65.24663499999999
 21
264.7157
 31
0.0
  0
LINE
  5
785
330
1E
100
AcDbEntity
  8
0
100
AcDbLine
 10
64.249735
 20
296.6557
 30
0.0
 11
65.065735
 21
296.6557
 31
0.0
  0
LINE
  5
786
330
1E
100
AcDbEntity
  8
0
100
AcDbLine
 10
64.249735
 20
304.6557
 30
0.0
 11
65.065735
 21
304.6557
 31
0.0
  0
LINE
  5
787
330
1E
100
AcDbEntity
  8
0
100
AcDbLine
 10
64.249735
 20
312.6557
 30
0.0
 11
65.065735
 21
312.6557
 31
0.0
  0
LINE
  5
788
330
1E
100
AcDbEntity
  8
0
100
AcDbLine
 10
64.249735
 20
328.6557
 30
0.0
 11
65.065735
 21
328.6557
 31
0.0
  0
LINE
  5
789
330
1E
100
AcDbEntity
  8
0
100
AcDbLine
 10
64.249735
 20
336.6557
 30
0.0
 11
65.065735
 21
336.6557
 31
0.0
  0
LINE
  5
78C
330
1E
100
AcDbEntity
  8
0
100
AcDbLine
 10
64.249735
 20
320.6557
 30
0.0
 11
65.065735
 21
320.6557
 31
0.0
  0
LINE
  5
792
330
1E
100
AcDbEntity
  8
0
100
AcDbLine
 10
65.00543499999999
 20
344.7157
 30
0.0
 11
65.311435
 21
344.7157
 31
0.0
  0
LINE
  5
793
330
1E
100
AcDbEntity
  8
0
100
AcDbLine
 10
65.00543499999999
 20
352.7157
 30
0.0
 11
65.311435
 21
352.7157
 31
0.0
  0
LINE
  5
794
330
1E
100
AcDbEntity
  8
0
100
AcDbLine
 10
65.00543499999999
 20
360.7157
 30
0.0
 11
65.311435
 21
360.7157
 31
0.0
  0
LINE
  5
796
330
1E
100
AcDbEntity
  8
0
100
AcDbLine
 10
64.430635
 20
288.7157
 30
0.0
 11
65.24663499999999
 21
288.7157
 31
0.0
  0
LINE
  5
798
330
1E
100
AcDbEntity
  8
0
100
AcDbLine
 10
65.05275908279529
 20
312.6557
 30
0.0
 11
65.05748870812031
 21
304.6557
 31
0.0
  0
LINE
  5
799
330
1E
100
AcDbEntity
  8
0
100
AcDbLine
 10
65.04329983214529
 20
328.6557
 30
0.0
 11
65.04802945747029
 21
320.6557
 31
0.0
  0
LINE
  5
79A
330
1E
100
AcDbEntity
  8
0
100
AcDbLine
 10
65.0338051093054
 20
344.7157
 30
0.0
 11
65.0385702068203
 21
336.6557
 31
0.0
  0
LINE
  5
79B
330
1E
100
AcDbEntity
  8
0
100
AcDbLine
 10
65.0338051093054
 20
344.7157
 30
0.0
 11
65.0385702068203
 21
336.6557
 31
0.0
  0
LINE
  5
79C
330
1E
100
AcDbEntity
  8
0
100
AcDbLine
 10
65.0338051093054
 20
344.7157
 30
0.0
 11
65.311435
 21
344.7157
 31
0.0
  0
LINE
  5
79D
330
1E
100
AcDbEntity
  8
0
100
AcDbLine
 10
64.249735
 20
392.5497
 30
0.0
 11
65.065735
 21
392.5497
 31
0.0
  0
LINE
  5
79E
330
1E
100
AcDbEntity
  8
0
100
AcDbLine
 10
64.249735
 20
400.5497
 30
0.0
 11
65.065735
 21
400.5497
 31
0.0
  0
LINE
  5
7A9
330
1E
100
AcDbEntity
  8
0
100
AcDbLine
 10
64.98657152359101
 20
424.6096999999999
 30
0.0
 11
64.99130114891599
 21
416.6096999999999
 31
0.0
  0
LINE
  5
7AA
330
1E
100
AcDbEntity
  8
0
100
AcDbLine
 10
65.00543499999999
 20
376.7157
 30
0.0
 11
65.311435
 21
376.7157
 31
0.0
  0
LINE
  5
7AB
330
1E
100
AcDbEntity
  8
0
100
AcDbLine
 10
65.00543499999999
 20
384.7157
 30
0.0
 11
65.311435
 21
384.7157
 31
0.0
  0
LINE
  5
7AC
330
1E
100
AcDbEntity
  8
0
100
AcDbLine
 10
65.00543499999999
 20
368.7157
 30
0.0
 11
65.311435
 21
368.7157
 31
0.0
  0
LINE
  5
7AD
330
1E
100
AcDbEntity
  8
0
100
AcDbLine
 10
65.00543499999999
 20
408.6096999999999
 30
0.0
 11
65.311435
 21
408.6096999999999
 31
0.0
  0
LINE
  5
7AE
330
1E
100
AcDbEntity
  8
0
100
AcDbLine
 10
65.00543499999999
 20
424.6096999999999
 30
0.0
 11
65.311435
 21
424.6096999999999
 31
0.0
  0
LINE
  5
7AF
330
1E
100
AcDbEntity
  8
0
100
AcDbLine
 10
65.00543499999999
 20
432.6096999999999
 30
0.0
 11
65.311435
 21
432.6096999999999
 31
0.0
  0
LINE
  5
7B0
330
1E
100
AcDbEntity
  8
0
100
AcDbLine
 10
65.00543499999999
 20
416.6096999999999
 30
0.0
 11
65.311435
 21
416.6096999999999
 31
0.0
  0
LINE
  5
7B1
330
1E
100
AcDbEntity
  8
0
100
AcDbLine
 10
65.00543499999999
 20
440.6096999999999
 30
0.0
 11
65.311435
 21
440.6096999999999
 31
0.0
  0
LINE
  5
7B2
330
1E
100
AcDbEntity
  8
0
100
AcDbLine
 10
65.00552549708089
 20
392.5497
 30
0.0
 11
65.0101569826804
 21
384.7157
 31
0.0
  0
LINE
  5
7B3
330
1E
100
AcDbEntity
  8
0
100
AcDbLine
 10
65.00552549708089
 20
392.5497
 30
0.0
 11
65.065735
 21
392.5497
 31
0.0
  0
LINE
  5
7B4
330
1E
100
AcDbEntity
  8
0
100
AcDbLine
 10
64.99603077424099
 20
408.6096999999999
 30
0.0
 11
65.0007958717559
 21
400.5497
 31
0.0
  0
LINE
  5
7B6
330
1E
100
AcDbEntity
  8
0
100
AcDbLine
 10
64.249735
 20
456.6557
 30
0.0
 11
65.065735
 21
456.6557
 31
0.0
  0
LINE
  5
7BA
330
1E
100
AcDbEntity
  8
0
100
AcDbLine
 10
64.249735
 20
464.6557
 30
0.0
 11
65.065735
 21
464.6557
 31
0.0
  0
LINE
  5
7BD
330
1E
100
AcDbEntity
  8
0
100
AcDbLine
 10
64.9581311041055
 20
472.7157
 30
0.0
 11
64.96289620162039
 21
464.6557
 31
0.0
  0
LINE
  5
7BE
330
1E
100
AcDbEntity
  8
0
100
AcDbLine
 10
64.29233499999999
 20
521.0637
 30
0.0
 11
65.10753499999999
 21
521.0987
 31
0.0
  0
LINE
  5
7C3
330
1E
100
AcDbEntity
  8
0
100
AcDbLine
 10
64.707526830058
 20
529.0893502770879
 30
0.0
 11
64.760735
 21
529.0916999999999
 31
0.0
  0
LINE
  5
7C5
330
1E
100
AcDbEntity
  8
0
100
AcDbLine
 10
64.760735
 20
529.0916999999999
 30
0.0
 11
65.066435
 21
529.1046999999999
 31
0.0
  0
LINE
  5
7C6
330
1E
100
AcDbEntity
  8
0
100
AcDbLine
 10
64.49993499999999
 20
537.5117
 30
0.0
 11
64.68783499999999
 21
537.8296999999999
 31
0.0
  0
LINE
  5
7C7
330
1E
100
AcDbEntity
  8
0
100
AcDbLine
 10
64.306535
 20
545.2047
 30
0.0
 11
64.68783499999999
 21
537.8296999999999
 31
0.0
  0
LINE
  5
7C8
330
1E
100
AcDbEntity
  8
0
100
AcDbLine
 10
64.9295314395833
 20
521.091057550767
 30
0.0
 11
64.9345456450161
 21
512.6096999999999
 31
0.0
  0
LINE
  5
7C9
330
1E
100
AcDbEntity
  8
0
100
AcDbLine
 10
64.9295314395833
 20
521.091057550767
 30
0.0
 11
65.10753499999999
 21
521.0987
 31
0.0
  0
LINE
  5
7CA
330
1E
100
AcDbEntity
  8
0
100
AcDbLine
 10
64.93927527034109
 20
504.6096999999999
 30
0.0
 11
64.94394222813049
 21
496.7157
 31
0.0
  0
LINE
  5
7CB
330
1E
100
AcDbEntity
  8
0
100
AcDbLine
 10
64.93927527034109
 20
504.6096999999999
 30
0.0
 11
65.00543499999999
 21
504.6096999999999
 31
0.0
  0
LINE
  5
7CC
330
1E
100
AcDbEntity
  8
0
100
AcDbLine
 10
64.94867185345549
 20
488.7157
 30
0.0
 11
64.95340147878049
 21
480.7157
 31
0.0
  0
LINE
  5
7CD
330
1E
100
AcDbEntity
  8
0
100
AcDbLine
 10
64.94867185345549
 20
488.7157
 30
0.0
 11
65.00543499999999
 21
488.7157
 31
0.0
  0
LINE
  5
7CE
330
1E
100
AcDbEntity
  8
0
100
AcDbLine
 10
65.00543499999999
 20
472.7157
 30
0.0
 11
65.311435
 21
472.7157
 31
0.0
  0
LINE
  5
7CF
330
1E
100
AcDbEntity
  8
0
100
AcDbLine
 10
65.00543499999999
 20
480.7157
 30
0.0
 11
65.311435
 21
480.7157
 31
0.0
  0
LINE
  5
7D0
330
1E
100
AcDbEntity
  8
0
100
AcDbLine
 10
65.00543499999999
 20
504.6096999999999
 30
0.0
 11
65.311435
 21
504.6096999999999
 31
0.0
  0
LINE
  5
7D1
330
1E
100
AcDbEntity
  8
0
100
AcDbLine
 10
65.00543499999999
 20
512.6096999999999
 30
0.0
 11
65.311435
 21
512.6096999999999
 31
0.0
  0
LINE
  5
7D2
330
1E
100
AcDbEntity
  8
0
100
AcDbLine
 10
65.00543499999999
 20
488.7157
 30
0.0
 11
65.311435
 21
488.7157
 31
0.0
  0
LINE
  5
7D3
330
1E
100
AcDbEntity
  8
0
100
AcDbLine
 10
65.00543499999999
 20
496.7157
 30
0.0
 11
65.311435
 21
496.7157
 31
0.0
  0
LINE
  5
7D4
330
1E
100
AcDbEntity
  8
0
100
AcDbLine
 10
65.00543499999999
 20
448.6097
 30
0.0
 11
65.311435
 21
448.6097
 31
0.0
  0
LINE
  5
7D5
330
1E
100
AcDbEntity
  8
0
100
AcDbLine
 10
64.9676258269454
 20
456.6557
 30
0.0
 11
64.972382647616
 21
448.6097
 31
0.0
  0
LINE
  5
7D6
330
1E
100
AcDbEntity
  8
0
100
AcDbLine
 10
64.9676258269454
 20
456.6557
 30
0.0
 11
65.065735
 21
456.6557
 31
0.0
  0
LINE
  5
7D7
330
1E
100
AcDbEntity
  8
0
100
AcDbLine
 10
64.977112272941
 20
440.6096999999999
 30
0.0
 11
64.98184189826599
 21
432.6096999999999
 31
0.0
  0
LINE
  5
7D8
330
1E
100
AcDbEntity
  8
0
100
AcDbLine
 10
65.01488660800539
 20
376.7157
 30
0.0
 11
65.01961623333039
 21
368.7157
 31
0.0
  0
LINE
  5
7D9
330
1E
100
AcDbEntity
  8
0
100
AcDbLine
 10
65.01488660800539
 20
376.7157
 30
0.0
 11
65.311435
 21
376.7157
 31
0.0
  0
LINE
  5
7DA
330
1E
100
AcDbEntity
  8
0
100
AcDbLine
 10
65.0243458586554
 20
360.7157
 30
0.0
 11
65.02907548398039
 21
352.7157
 31
0.0
  0
LINE
  5
7DB
330
1E
100
AcDbEntity
  8
0
100
AcDbLine
 10
65.0243458586554
 20
360.7157
 30
0.0
 11
65.311435
 21
360.7157
 31
0.0
  0
LINE
  5
7DC
330
1E
100
AcDbEntity
  8
0
100
AcDbLine
 10
65.065735
 20
296.6557
 30
0.0
 11
65.371735
 21
296.6557
 31
0.0
  0
LINE
  5
7DD
330
1E
100
AcDbEntity
  8
0
100
AcDbLine
 10
65.065735
 20
304.6557
 30
0.0
 11
65.371735
 21
304.6557
 31
0.0
  0
LINE
  5
7DE
330
1E
100
AcDbEntity
  8
0
100
AcDbLine
 10
65.065735
 20
392.5497
 30
0.0
 11
65.371735
 21
392.5497
 31
0.0
  0
LINE
  5
7DF
330
1E
100
AcDbEntity
  8
0
100
AcDbLine
 10
65.065735
 20
400.5497
 30
0.0
 11
65.371735
 21
400.5497
 31
0.0
  0
LINE
  5
7E0
330
1E
100
AcDbEntity
  8
0
100
AcDbLine
 10
65.065735
 20
328.6557
 30
0.0
 11
65.371735
 21
328.6557
 31
0.0
  0
LINE
  5
7E1
330
1E
100
AcDbEntity
  8
0
100
AcDbLine
 10
65.065735
 20
336.6557
 30
0.0
 11
65.371735
 21
336.6557
 31
0.0
  0
LINE
  5
7E2
330
1E
100
AcDbEntity
  8
0
100
AcDbLine
 10
65.065735
 20
312.6557
 30
0.0
 11
65.371735
 21
312.6557
 31
0.0
  0
LINE
  5
7E3
330
1E
100
AcDbEntity
  8
0
100
AcDbLine
 10
65.065735
 20
456.6557
 30
0.0
 11
65.371735
 21
456.6557
 31
0.0
  0
LINE
  5
7E4
330
1E
100
AcDbEntity
  8
0
100
AcDbLine
 10
65.066435
 20
529.1046999999999
 30
0.0
 11
65.28363500000001
 21
528.8057
 31
0.0
  0
LINE
  5
7E5
330
1E
100
AcDbEntity
  8
0
100
AcDbLine
 10
65.065735
 20
464.6557
 30
0.0
 11
65.371735
 21
464.6557
 31
0.0
  0
LINE
  5
7E6
330
1E
100
AcDbEntity
  8
0
100
AcDbLine
 10
65.065735
 20
320.6557
 30
0.0
 11
65.371735
 21
320.6557
 31
0.0
  0
LINE
  5
7E7
330
1E
100
AcDbEntity
  8
0
100
AcDbLine
 10
65.0622183334453
 20
296.6557
 30
0.0
 11
65.0669124865804
 21
288.7157
 31
0.0
  0
LINE
  5
7E8
330
1E
100
AcDbEntity
  8
0
100
AcDbLine
 10
65.0622183334453
 20
296.6557
 30
0.0
 11
65.0669124865804
 21
288.7157
 31
0.0
  0
LINE
  5
7E9
330
1E
100
AcDbEntity
  8
0
100
AcDbLine
 10
65.05275908279529
 20
312.6557
 30
0.0
 11
65.05748870812031
 21
304.6557
 31
0.0
  0
LINE
  5
7EA
330
1E
100
AcDbEntity
  8
0
100
AcDbLine
 10
65.07164211190531
 20
280.7157
 30
0.0
 11
65.0763717372303
 21
272.7157
 31
0.0
  0
LINE
  5
7EB
330
1E
100
AcDbEntity
  8
0
100
AcDbLine
 10
65.07164211190531
 20
280.7157
 30
0.0
 11
65.24663499999999
 21
280.7157
 31
0.0
  0
LINE
  5
7EC
330
1E
100
AcDbEntity
  8
0
100
AcDbLine
 10
65.10753499999999
 20
521.0987
 30
0.0
 11
65.413235
 21
521.1117
 31
0.0
  0
LINE
  5
7ED
330
1E
100
AcDbEntity
  8
0
100
AcDbLine
 10
65.08110136255528
 20
264.7157
 30
0.0
 11
65.08576359071939
 21
256.8297
 31
0.0
  0
LINE
  5
7EE
330
1E
100
AcDbEntity
  8
0
100
AcDbLine
 10
65.0904932160444
 20
248.8297
 30
0.0
 11
65.09522284136941
 21
240.8297
 31
0.0
  0
LINE
  5
7EF
330
1E
100
AcDbEntity
  8
0
100
AcDbLine
 10
65.0904932160444
 20
248.8297
 30
0.0
 11
65.09522284136941
 21
240.8297
 31
0.0
  0
LINE
  5
7F0
330
1E
100
AcDbEntity
  8
0
100
AcDbLine
 10
65.0904932160444
 20
248.8297
 30
0.0
 11
65.24663499999999
 21
248.8297
 31
0.0
  0
LINE
  5
7F1
330
1E
100
AcDbEntity
  8
0
100
AcDbLine
 10
65.1094117173444
 20
216.8296999999999
 30
0.0
 11
65.1141413426694
 21
208.8296999999999
 31
0.0
  0
LINE
  5
7F2
330
1E
100
AcDbEntity
  8
0
100
AcDbLine
 10
65.1094117173444
 20
216.8296999999999
 30
0.0
 11
65.24663499999999
 21
216.8296999999999
 31
0.0
  0
LINE
  5
7F3
330
1E
100
AcDbEntity
  8
0
100
AcDbLine
 10
65.1188709679944
 20
200.8297
 30
0.0
 11
65.12360059331939
 21
192.8297
 31
0.0
  0
LINE
  5
7F4
330
1E
100
AcDbEntity
  8
0
100
AcDbLine
 10
65.1188709679944
 20
200.8297
 30
0.0
 11
65.24663499999999
 21
200.8297
 31
0.0
  0
LINE
  5
7F5
330
1E
100
AcDbEntity
  8
0
100
AcDbLine
 10
65.16616722124429
 20
120.8296999999999
 30
0.0
 11
65.1708968465693
 21
112.8297
 31
0.0
  0
LINE
  5
7F6
330
1E
100
AcDbEntity
  8
0
100
AcDbLine
 10
65.16616722124429
 20
120.8296999999999
 30
0.0
 11
65.1708968465693
 21
112.8297
 31
0.0
  0
LINE
  5
7F7
330
1E
100
AcDbEntity
  8
0
100
AcDbLine
 10
65.16616722124429
 20
120.8296999999999
 30
0.0
 11
65.24663499999999
 21
120.8296999999999
 31
0.0
  0
LINE
  5
7F8
330
1E
100
AcDbEntity
  8
0
100
AcDbLine
 10
65.17562647189429
 20
104.8297
 30
0.0
 11
65.1803560972193
 21
96.8297
 31
0.0
  0
LINE
  5
7F9
330
1E
100
AcDbEntity
  8
0
100
AcDbLine
 10
65.21346329713328
 20
40.83
 30
0.0
 11
65.2181929224583
 21
32.82999999999999
 31
0.0
  0
LINE
  5
7FA
330
1E
100
AcDbEntity
  8
0
100
AcDbLine
 10
65.21346329713328
 20
40.83
 30
0.0
 11
65.2181929224583
 21
32.82999999999999
 31
0.0
  0
LINE
  5
7FB
330
1E
100
AcDbEntity
  8
0
100
AcDbLine
 10
65.2040042238443
 20
56.8297
 30
0.0
 11
65.2087336718083
 21
48.83
 31
0.0
  0
LINE
  5
7FC
330
1E
100
AcDbEntity
  8
0
100
AcDbLine
 10
65.2040042238443
 20
56.8297
 30
0.0
 11
65.2087336718083
 21
48.83
 31
0.0
  0
LINE
  5
7FD
330
1E
100
AcDbEntity
  8
0
100
AcDbLine
 10
65.2229225477833
 20
24.83
 30
0.0
 11
65.2276521731083
 21
16.82999999999999
 31
0.0
  0
LINE
  5
7FE
330
1E
100
AcDbEntity
  8
0
100
AcDbLine
 10
65.2229225477833
 20
24.83
 30
0.0
 11
65.2276521731083
 21
16.82999999999999
 31
0.0
  0
LINE
  5
7FF
330
1E
100
AcDbEntity
  8
0
100
AcDbLine
 10
65.24663499999999
 20
8.83009999999998
 30
0.0
 11
65.55263499999999
 21
8.83009999999998
 31
0.0
  0
LINE
  5
800
330
1E
100
AcDbEntity
  8
0
100
AcDbLine
 10
65.55263499999999
 20
8.83009999999998
 30
0.0
 11
65.756635
 21
9.137699999999989
 31
0.0
  0
LINE
  5
801
330
1E
100
AcDbEntity
  8
0
100
AcDbLine
 10
65.756635
 20
16.5224
 30
0.0
 11
65.756635
 21
9.137699999999989
 31
0.0
  0
LINE
  5
802
330
1E
100
AcDbEntity
  8
0
100
AcDbLine
 10
65.756635
 20
9.137699999999989
 30
0.0
 11
65.756635
 21
16.5224
 31
0.0
  0
LINE
  5
803
330
1E
100
AcDbEntity
  8
0
100
AcDbLine
 10
65.55263499999999
 20
16.82999999999999
 30
0.0
 11
65.756635
 21
16.5224
 31
0.0
  0
LINE
  5
804
330
1E
100
AcDbEntity
  8
0
100
AcDbLine
 10
65.24663499999999
 20
40.83
 30
0.0
 11
65.55263499999999
 21
40.83
 31
0.0
  0
LINE
  5
805
330
1E
100
AcDbEntity
  8
0
100
AcDbLine
 10
65.24663499999999
 20
48.83
 30
0.0
 11
65.55263499999999
 21
48.83
 31
0.0
  0
LINE
  5
806
330
1E
100
AcDbEntity
  8
0
100
AcDbLine
 10
65.24663499999999
 20
72.8297
 30
0.0
 11
65.55263499999999
 21
72.8297
 31
0.0
  0
LINE
  5
807
330
1E
100
AcDbEntity
  8
0
100
AcDbLine
 10
65.24663499999999
 20
80.82970000000001
 30
0.0
 11
65.55263499999999
 21
80.82970000000001
 31
0.0
  0
LINE
  5
808
330
1E
100
AcDbEntity
  8
0
100
AcDbLine
 10
65.24663499999999
 20
88.8297
 30
0.0
 11
65.55263499999999
 21
88.8297
 31
0.0
  0
LINE
  5
809
330
1E
100
AcDbEntity
  8
0
100
AcDbLine
 10
65.24663499999999
 20
96.8297
 30
0.0
 11
65.55263499999999
 21
96.8297
 31
0.0
  0
LINE
  5
80A
330
1E
100
AcDbEntity
  8
0
100
AcDbLine
 10
65.24663499999999
 20
120.8296999999999
 30
0.0
 11
65.55263499999999
 21
120.8296999999999
 31
0.0
  0
LINE
  5
80B
330
1E
100
AcDbEntity
  8
0
100
AcDbLine
 10
65.24663499999999
 20
104.8297
 30
0.0
 11
65.55263499999999
 21
104.8297
 31
0.0
  0
LINE
  5
80C
330
1E
100
AcDbEntity
  8
0
100
AcDbLine
 10
65.24663499999999
 20
112.8297
 30
0.0
 11
65.55263499999999
 21
112.8297
 31
0.0
  0
LINE
  5
80D
330
1E
100
AcDbEntity
  8
0
100
AcDbLine
 10
65.24663499999999
 20
56.8297
 30
0.0
 11
65.55263499999999
 21
56.8297
 31
0.0
  0
LINE
  5
80E
330
1E
100
AcDbEntity
  8
0
100
AcDbLine
 10
65.24663499999999
 20
64.8297
 30
0.0
 11
65.55263499999999
 21
64.8297
 31
0.0
  0
LINE
  5
80F
330
1E
100
AcDbEntity
  8
0
100
AcDbLine
 10
65.24663499999999
 20
24.83
 30
0.0
 11
65.55263499999999
 21
24.83
 31
0.0
  0
LINE
  5
810
330
1E
100
AcDbEntity
  8
0
100
AcDbLine
 10
65.756635
 20
32.5224
 30
0.0
 11
65.756635
 21
25.1377
 31
0.0
  0
LINE
  5
811
330
1E
100
AcDbEntity
  8
0
100
AcDbLine
 10
65.55263499999999
 20
24.83
 30
0.0
 11
65.756635
 21
25.1377
 31
0.0
  0
LINE
  5
812
330
1E
100
AcDbEntity
  8
0
100
AcDbLine
 10
65.756635
 20
25.1377
 30
0.0
 11
65.756635
 21
32.5224
 31
0.0
  0
LINE
  5
813
330
1E
100
AcDbEntity
  8
0
100
AcDbLine
 10
65.55263499999999
 20
40.83
 30
0.0
 11
65.756635
 21
41.1377
 31
0.0
  0
LINE
  5
814
330
1E
100
AcDbEntity
  8
0
100
AcDbLine
 10
65.55263499999999
 20
48.83
 30
0.0
 11
65.756635
 21
48.5224
 31
0.0
  0
LINE
  5
815
330
1E
100
AcDbEntity
  8
0
100
AcDbLine
 10
65.24663499999999
 20
136.8297
 30
0.0
 11
65.55263499999999
 21
136.8297
 31
0.0
  0
LINE
  5
816
330
1E
100
AcDbEntity
  8
0
100
AcDbLine
 10
65.24663499999999
 20
144.8296999999999
 30
0.0
 11
65.55263499999999
 21
144.8296999999999
 31
0.0
  0
LINE
  5
817
330
1E
100
AcDbEntity
  8
0
100
AcDbLine
 10
65.24663499999999
 20
152.8297
 30
0.0
 11
65.55263499999999
 21
152.8297
 31
0.0
  0
LINE
  5
818
330
1E
100
AcDbEntity
  8
0
100
AcDbLine
 10
65.24663499999999
 20
160.8297
 30
0.0
 11
65.55263499999999
 21
160.8297
 31
0.0
  0
LINE
  5
819
330
1E
100
AcDbEntity
  8
0
100
AcDbLine
 10
65.24663499999999
 20
168.8297
 30
0.0
 11
65.55263499999999
 21
168.8297
 31
0.0
  0
LINE
  5
81A
330
1E
100
AcDbEntity
  8
0
100
AcDbLine
 10
65.24663499999999
 20
184.8297
 30
0.0
 11
65.55263499999999
 21
184.8297
 31
0.0
  0
LINE
  5
81B
330
1E
100
AcDbEntity
  8
0
100
AcDbLine
 10
65.24663499999999
 20
192.8297
 30
0.0
 11
65.55263499999999
 21
192.8297
 31
0.0
  0
LINE
  5
81C
330
1E
100
AcDbEntity
  8
0
100
AcDbLine
 10
65.24663499999999
 20
176.8297
 30
0.0
 11
65.55263499999999
 21
176.8297
 31
0.0
  0
LINE
  5
81D
330
1E
100
AcDbEntity
  8
0
100
AcDbLine
 10
65.24663499999999
 20
200.8297
 30
0.0
 11
65.55263499999999
 21
200.8297
 31
0.0
  0
LINE
  5
81E
330
1E
100
AcDbEntity
  8
0
100
AcDbLine
 10
65.24663499999999
 20
232.8297
 30
0.0
 11
65.55263499999999
 21
232.8297
 31
0.0
  0
LINE
  5
81F
330
1E
100
AcDbEntity
  8
0
100
AcDbLine
 10
65.24663499999999
 20
240.8297
 30
0.0
 11
65.55263499999999
 21
240.8297
 31
0.0
  0
LINE
  5
820
330
1E
100
AcDbEntity
  8
0
100
AcDbLine
 10
65.24663499999999
 20
216.8296999999999
 30
0.0
 11
65.55263499999999
 21
216.8296999999999
 31
0.0
  0
LINE
  5
821
330
1E
100
AcDbEntity
  8
0
100
AcDbLine
 10
65.24663499999999
 20
224.8296999999999
 30
0.0
 11
65.55263499999999
 21
224.8296999999999
 31
0.0
  0
LINE
  5
822
330
1E
100
AcDbEntity
  8
0
100
AcDbLine
 10
65.24663499999999
 20
208.8296999999999
 30
0.0
 11
65.55263499999999
 21
208.8296999999999
 31
0.0
  0
LINE
  5
823
330
1E
100
AcDbEntity
  8
0
100
AcDbLine
 10
65.24663499999999
 20
280.7157
 30
0.0
 11
65.55263499999999
 21
280.7157
 31
0.0
  0
LINE
  5
824
330
1E
100
AcDbEntity
  8
0
100
AcDbLine
 10
65.24663499999999
 20
288.7157
 30
0.0
 11
65.55263499999999
 21
288.7157
 31
0.0
  0
LINE
  5
825
330
1E
100
AcDbEntity
  8
0
100
AcDbLine
 10
65.24663499999999
 20
264.7157
 30
0.0
 11
65.55263499999999
 21
264.7157
 31
0.0
  0
LINE
  5
826
330
1E
100
AcDbEntity
  8
0
100
AcDbLine
 10
65.24663499999999
 20
272.7157
 30
0.0
 11
65.55263499999999
 21
272.7157
 31
0.0
  0
LINE
  5
827
330
1E
100
AcDbEntity
  8
0
100
AcDbLine
 10
65.24663499999999
 20
248.8297
 30
0.0
 11
65.55263499999999
 21
248.8297
 31
0.0
  0
LINE
  5
828
330
1E
100
AcDbEntity
  8
0
100
AcDbLine
 10
65.371735
 20
296.6557
 30
0.0
 11
65.575735
 21
296.9627
 31
0.0
  0
LINE
  5
829
330
1E
100
AcDbEntity
  8
0
100
AcDbLine
 10
65.371735
 20
304.6557
 30
0.0
 11
65.575735
 21
304.3476999999999
 31
0.0
  0
LINE
  5
82A
330
1E
100
AcDbEntity
  8
0
100
AcDbLine
 10
65.371735
 20
312.6557
 30
0.0
 11
65.575735
 21
312.9626999999999
 31
0.0
  0
LINE
  5
82B
330
1E
100
AcDbEntity
  8
0
100
AcDbLine
 10
65.311435
 20
344.7157
 30
0.0
 11
65.515435
 21
345.0237
 31
0.0
  0
LINE
  5
82C
330
1E
100
AcDbEntity
  8
0
100
AcDbLine
 10
65.311435
 20
352.7157
 30
0.0
 11
65.515435
 21
352.4076999999999
 31
0.0
  0
LINE
  5
82D
330
1E
100
AcDbEntity
  8
0
100
AcDbLine
 10
65.28363500000001
 20
528.8057
 30
0.0
 11
65.603735
 21
521.4287
 31
0.0
  0
LINE
  5
82E
330
1E
100
AcDbEntity
  8
0
100
AcDbLine
 10
65.311435
 20
408.6096999999999
 30
0.0
 11
65.515435
 21
408.9177
 31
0.0
  0
LINE
  5
82F
330
1E
100
AcDbEntity
  8
0
100
AcDbLine
 10
65.311435
 20
376.7157
 30
0.0
 11
65.515435
 21
377.0237
 31
0.0
  0
LINE
  5
830
330
1E
100
AcDbEntity
  8
0
100
AcDbLine
 10
65.311435
 20
384.7157
 30
0.0
 11
65.515435
 21
384.4077
 31
0.0
  0
LINE
  5
831
330
1E
100
AcDbEntity
  8
0
100
AcDbLine
 10
65.311435
 20
360.7157
 30
0.0
 11
65.515435
 21
361.0237
 31
0.0
  0
LINE
  5
832
330
1E
100
AcDbEntity
  8
0
100
AcDbLine
 10
65.371735
 20
328.6557
 30
0.0
 11
65.575735
 21
328.9626999999999
 31
0.0
  0
LINE
  5
833
330
1E
100
AcDbEntity
  8
0
100
AcDbLine
 10
65.371735
 20
336.6557
 30
0.0
 11
65.575735
 21
336.3476999999999
 31
0.0
  0
LINE
  5
834
330
1E
100
AcDbEntity
  8
0
100
AcDbLine
 10
65.515435
 20
352.4076999999999
 30
0.0
 11
65.515435
 21
345.0237
 31
0.0
  0
LINE
  5
835
330
1E
100
AcDbEntity
  8
0
100
AcDbLine
 10
65.515435
 20
345.0237
 30
0.0
 11
65.515435
 21
352.4076999999999
 31
0.0
  0
LINE
  5
836
330
1E
100
AcDbEntity
  8
0
100
AcDbLine
 10
65.311435
 20
424.6096999999999
 30
0.0
 11
65.515435
 21
424.9177
 31
0.0
  0
LINE
  5
837
330
1E
100
AcDbEntity
  8
0
100
AcDbLine
 10
65.311435
 20
432.6096999999999
 30
0.0
 11
65.515435
 21
432.3027
 31
0.0
  0
LINE
  5
838
330
1E
100
AcDbEntity
  8
0
100
AcDbLine
 10
65.371735
 20
392.5497
 30
0.0
 11
65.575735
 21
392.8577
 31
0.0
  0
LINE
  5
839
330
1E
100
AcDbEntity
  8
0
100
AcDbLine
 10
65.371735
 20
400.5497
 30
0.0
 11
65.575735
 21
400.2416999999999
 31
0.0
  0
LINE
  5
83A
330
1E
100
AcDbEntity
  8
0
100
AcDbLine
 10
65.515435
 20
432.3027
 30
0.0
 11
65.515435
 21
424.9177
 31
0.0
  0
LINE
  5
83B
330
1E
100
AcDbEntity
  8
0
100
AcDbLine
 10
65.515435
 20
424.9177
 30
0.0
 11
65.515435
 21
432.3027
 31
0.0
  0
LINE
  5
83C
330
1E
100
AcDbEntity
  8
0
100
AcDbLine
 10
65.515435
 20
416.3027
 30
0.0
 11
65.515435
 21
408.9177
 31
0.0
  0
LINE
  5
83D
330
1E
100
AcDbEntity
  8
0
100
AcDbLine
 10
65.515435
 20
408.9177
 30
0.0
 11
65.515435
 21
416.3027
 31
0.0
  0
LINE
  5
83E
330
1E
100
AcDbEntity
  8
0
100
AcDbLine
 10
65.311435
 20
416.6096999999999
 30
0.0
 11
65.515435
 21
416.3027
 31
0.0
  0
LINE
  5
83F
330
1E
100
AcDbEntity
  8
0
100
AcDbLine
 10
65.515435
 20
448.3026999999999
 30
0.0
 11
65.515435
 21
440.9177
 31
0.0
  0
LINE
  5
840
330
1E
100
AcDbEntity
  8
0
100
AcDbLine
 10
65.311435
 20
440.6096999999999
 30
0.0
 11
65.515435
 21
440.9177
 31
0.0
  0
LINE
  5
841
330
1E
100
AcDbEntity
  8
0
100
AcDbLine
 10
65.515435
 20
440.9177
 30
0.0
 11
65.515435
 21
448.3026999999999
 31
0.0
  0
LINE
  5
842
330
1E
100
AcDbEntity
  8
0
100
AcDbLine
 10
65.311435
 20
472.7157
 30
0.0
 11
65.515435
 21
473.0237
 31
0.0
  0
LINE
  5
843
330
1E
100
AcDbEntity
  8
0
100
AcDbLine
 10
65.311435
 20
480.7157
 30
0.0
 11
65.515435
 21
480.4076999999999
 31
0.0
  0
LINE
  5
844
330
1E
100
AcDbEntity
  8
0
100
AcDbLine
 10
65.311435
 20
504.6096999999999
 30
0.0
 11
65.515435
 21
504.9177
 31
0.0
  0
LINE
  5
845
330
1E
100
AcDbEntity
  8
0
100
AcDbLine
 10
65.311435
 20
512.6096999999999
 30
0.0
 11
65.515435
 21
512.3026999999999
 31
0.0
  0
LINE
  5
846
330
1E
100
AcDbEntity
  8
0
100
AcDbLine
 10
65.311435
 20
488.7157
 30
0.0
 11
65.515435
 21
489.0236999999999
 31
0.0
  0
LINE
  5
847
330
1E
100
AcDbEntity
  8
0
100
AcDbLine
 10
65.311435
 20
496.7157
 30
0.0
 11
65.515435
 21
496.4076999999999
 31
0.0
  0
LINE
  5
848
330
1E
100
AcDbEntity
  8
0
100
AcDbLine
 10
65.371735
 20
456.6557
 30
0.0
 11
65.575735
 21
456.9626999999999
 31
0.0
  0
LINE
  5
849
330
1E
100
AcDbEntity
  8
0
100
AcDbLine
 10
65.413235
 20
521.1117
 30
0.0
 11
65.603735
 21
521.4287
 31
0.0
  0
LINE
  5
84A
330
1E
100
AcDbEntity
  8
0
100
AcDbLine
 10
65.371735
 20
464.6557
 30
0.0
 11
65.575735
 21
464.3476999999999
 31
0.0
  0
LINE
  5
84B
330
1E
100
AcDbEntity
  8
0
100
AcDbLine
 10
65.311435
 20
448.6097
 30
0.0
 11
65.515435
 21
448.3026999999999
 31
0.0
  0
LINE
  5
84C
330
1E
100
AcDbEntity
  8
0
100
AcDbLine
 10
65.515435
 20
384.4077
 30
0.0
 11
65.515435
 21
377.0237
 31
0.0
  0
LINE
  5
84D
330
1E
100
AcDbEntity
  8
0
100
AcDbLine
 10
65.515435
 20
377.0237
 30
0.0
 11
65.515435
 21
384.4077
 31
0.0
  0
LINE
  5
84E
330
1E
100
AcDbEntity
  8
0
100
AcDbLine
 10
65.515435
 20
480.4076999999999
 30
0.0
 11
65.515435
 21
473.0237
 31
0.0
  0
LINE
  5
84F
330
1E
100
AcDbEntity
  8
0
100
AcDbLine
 10
65.515435
 20
473.0237
 30
0.0
 11
65.515435
 21
480.4076999999999
 31
0.0
  0
LINE
  5
850
330
1E
100
AcDbEntity
  8
0
100
AcDbLine
 10
65.515435
 20
512.3026999999999
 30
0.0
 11
65.515435
 21
504.9177
 31
0.0
  0
LINE
  5
851
330
1E
100
AcDbEntity
  8
0
100
AcDbLine
 10
65.515435
 20
504.9177
 30
0.0
 11
65.515435
 21
512.3026999999999
 31
0.0
  0
LINE
  5
852
330
1E
100
AcDbEntity
  8
0
100
AcDbLine
 10
65.515435
 20
496.4076999999999
 30
0.0
 11
65.515435
 21
489.0236999999999
 31
0.0
  0
LINE
  5
853
330
1E
100
AcDbEntity
  8
0
100
AcDbLine
 10
65.515435
 20
489.0236999999999
 30
0.0
 11
65.515435
 21
496.4076999999999
 31
0.0
  0
LINE
  5
854
330
1E
100
AcDbEntity
  8
0
100
AcDbLine
 10
65.515435
 20
368.4076999999999
 30
0.0
 11
65.515435
 21
361.0237
 31
0.0
  0
LINE
  5
855
330
1E
100
AcDbEntity
  8
0
100
AcDbLine
 10
65.515435
 20
361.0237
 30
0.0
 11
65.515435
 21
368.4076999999999
 31
0.0
  0
LINE
  5
856
330
1E
100
AcDbEntity
  8
0
100
AcDbLine
 10
65.311435
 20
368.7157
 30
0.0
 11
65.515435
 21
368.4076999999999
 31
0.0
  0
LINE
  5
857
330
1E
100
AcDbEntity
  8
0
100
AcDbLine
 10
65.371735
 20
320.6557
 30
0.0
 11
65.575735
 21
320.3476999999999
 31
0.0
  0
LINE
  5
858
330
1E
100
AcDbEntity
  8
0
100
AcDbLine
 10
65.24663499999999
 20
256.8297
 30
0.0
 11
65.55263499999999
 21
256.8297
 31
0.0
  0
LINE
  5
859
330
1E
100
AcDbEntity
  8
0
100
AcDbLine
 10
65.55263499999999
 20
72.8297
 30
0.0
 11
65.756635
 21
73.13769999999999
 31
0.0
  0
LINE
  5
85A
330
1E
100
AcDbEntity
  8
0
100
AcDbLine
 10
65.24663499999999
 20
128.8297
 30
0.0
 11
65.55263499999999
 21
128.8297
 31
0.0
  0
LINE
  5
85B
330
1E
100
AcDbEntity
  8
0
100
AcDbLine
 10
65.55263499999999
 20
56.8297
 30
0.0
 11
65.756635
 21
57.1377
 31
0.0
  0
LINE
  5
85C
330
1E
100
AcDbEntity
  8
0
100
AcDbLine
 10
65.756635
 20
48.5224
 30
0.0
 11
65.756635
 21
41.1377
 31
0.0
  0
LINE
  5
85D
330
1E
100
AcDbEntity
  8
0
100
AcDbLine
 10
65.756635
 20
41.1377
 30
0.0
 11
65.756635
 21
48.5224
 31
0.0
  0
LINE
  5
85E
330
1E
100
AcDbEntity
  8
0
100
AcDbLine
 10
65.55263499999999
 20
80.82970000000001
 30
0.0
 11
65.756635
 21
80.5227
 31
0.0
  0
LINE
  5
85F
330
1E
100
AcDbEntity
  8
0
100
AcDbLine
 10
65.55263499999999
 20
88.8297
 30
0.0
 11
65.756635
 21
89.13769999999999
 31
0.0
  0
LINE
  5
860
330
1E
100
AcDbEntity
  8
0
100
AcDbLine
 10
65.756635
 20
80.5227
 30
0.0
 11
65.756635
 21
73.13769999999999
 31
0.0
  0
LINE
  5
861
330
1E
100
AcDbEntity
  8
0
100
AcDbLine
 10
65.756635
 20
73.13769999999999
 30
0.0
 11
65.756635
 21
80.5227
 31
0.0
  0
LINE
  5
862
330
1E
100
AcDbEntity
  8
0
100
AcDbLine
 10
65.756635
 20
96.52270000000001
 30
0.0
 11
65.756635
 21
89.13769999999999
 31
0.0
  0
LINE
  5
863
330
1E
100
AcDbEntity
  8
0
100
AcDbLine
 10
65.756635
 20
89.13769999999999
 30
0.0
 11
65.756635
 21
96.52270000000001
 31
0.0
  0
LINE
  5
864
330
1E
100
AcDbEntity
  8
0
100
AcDbLine
 10
65.55263499999999
 20
96.8297
 30
0.0
 11
65.756635
 21
96.52270000000001
 31
0.0
  0
LINE
  5
865
330
1E
100
AcDbEntity
  8
0
100
AcDbLine
 10
65.756635
 20
112.5226999999999
 30
0.0
 11
65.756635
 21
105.1377
 31
0.0
  0
LINE
  5
866
330
1E
100
AcDbEntity
  8
0
100
AcDbLine
 10
65.55263499999999
 20
104.8297
 30
0.0
 11
65.756635
 21
105.1377
 31
0.0
  0
LINE
  5
867
330
1E
100
AcDbEntity
  8
0
100
AcDbLine
 10
65.756635
 20
105.1377
 30
0.0
 11
65.756635
 21
112.5226999999999
 31
0.0
  0
LINE
  5
868
330
1E
100
AcDbEntity
  8
0
100
AcDbLine
 10
65.55263499999999
 20
136.8297
 30
0.0
 11
65.756635
 21
137.1377
 31
0.0
  0
LINE
  5
869
330
1E
100
AcDbEntity
  8
0
100
AcDbLine
 10
65.55263499999999
 20
144.8296999999999
 30
0.0
 11
65.756635
 21
144.5226999999999
 31
0.0
  0
LINE
  5
86A
330
1E
100
AcDbEntity
  8
0
100
AcDbLine
 10
65.55263499999999
 20
152.8297
 30
0.0
 11
65.756635
 21
153.1376999999999
 31
0.0
  0
LINE
  5
86B
330
1E
100
AcDbEntity
  8
0
100
AcDbLine
 10
65.55263499999999
 20
160.8297
 30
0.0
 11
65.756635
 21
160.5227
 31
0.0
  0
LINE
  5
86C
330
1E
100
AcDbEntity
  8
0
100
AcDbLine
 10
65.55263499999999
 20
184.8297
 30
0.0
 11
65.756635
 21
185.1377
 31
0.0
  0
LINE
  5
86D
330
1E
100
AcDbEntity
  8
0
100
AcDbLine
 10
65.55263499999999
 20
192.8297
 30
0.0
 11
65.756635
 21
192.5226999999999
 31
0.0
  0
LINE
  5
86E
330
1E
100
AcDbEntity
  8
0
100
AcDbLine
 10
65.55263499999999
 20
168.8297
 30
0.0
 11
65.756635
 21
169.1376999999999
 31
0.0
  0
LINE
  5
86F
330
1E
100
AcDbEntity
  8
0
100
AcDbLine
 10
65.55263499999999
 20
176.8297
 30
0.0
 11
65.756635
 21
176.5226999999999
 31
0.0
  0
LINE
  5
870
330
1E
100
AcDbEntity
  8
0
100
AcDbLine
 10
65.55263499999999
 20
120.8296999999999
 30
0.0
 11
65.756635
 21
121.1376999999999
 31
0.0
  0
LINE
  5
871
330
1E
100
AcDbEntity
  8
0
100
AcDbLine
 10
65.55263499999999
 20
232.8297
 30
0.0
 11
65.756635
 21
233.1376999999999
 31
0.0
  0
LINE
  5
872
330
1E
100
AcDbEntity
  8
0
100
AcDbLine
 10
65.55263499999999
 20
240.8297
 30
0.0
 11
65.756635
 21
240.5227
 31
0.0
  0
LINE
  5
873
330
1E
100
AcDbEntity
  8
0
100
AcDbLine
 10
65.55263499999999
 20
280.7157
 30
0.0
 11
65.756635
 21
281.0237
 31
0.0
  0
LINE
  5
874
330
1E
100
AcDbEntity
  8
0
100
AcDbLine
 10
65.55263499999999
 20
288.7157
 30
0.0
 11
65.756635
 21
288.4076999999999
 31
0.0
  0
LINE
  5
875
330
1E
100
AcDbEntity
  8
0
100
AcDbLine
 10
65.55263499999999
 20
264.7157
 30
0.0
 11
65.756635
 21
265.0237
 31
0.0
  0
LINE
  5
876
330
1E
100
AcDbEntity
  8
0
100
AcDbLine
 10
65.55263499999999
 20
272.7157
 30
0.0
 11
65.756635
 21
272.4076999999999
 31
0.0
  0
LINE
  5
877
330
1E
100
AcDbEntity
  8
0
100
AcDbLine
 10
65.55263499999999
 20
248.8297
 30
0.0
 11
65.756635
 21
249.1376999999999
 31
0.0
  0
LINE
  5
878
330
1E
100
AcDbEntity
  8
0
100
AcDbLine
 10
65.55263499999999
 20
256.8297
 30
0.0
 11
65.756635
 21
256.5226999999999
 31
0.0
  0
LINE
  5
879
330
1E
100
AcDbEntity
  8
0
100
AcDbLine
 10
65.55263499999999
 20
216.8296999999999
 30
0.0
 11
65.756635
 21
217.1377
 31
0.0
  0
LINE
  5
87A
330
1E
100
AcDbEntity
  8
0
100
AcDbLine
 10
65.55263499999999
 20
224.8296999999999
 30
0.0
 11
65.756635
 21
224.5226999999999
 31
0.0
  0
LINE
  5
87B
330
1E
100
AcDbEntity
  8
0
100
AcDbLine
 10
65.55263499999999
 20
200.8297
 30
0.0
 11
65.756635
 21
201.1376999999999
 31
0.0
  0
LINE
  5
87C
330
1E
100
AcDbEntity
  8
0
100
AcDbLine
 10
65.575735
 20
304.3476999999999
 30
0.0
 11
65.575735
 21
296.9627
 31
0.0
  0
LINE
  5
87D
330
1E
100
AcDbEntity
  8
0
100
AcDbLine
 10
65.575735
 20
296.9627
 30
0.0
 11
65.575735
 21
304.3476999999999
 31
0.0
  0
LINE
  5
87E
330
1E
100
AcDbEntity
  8
0
100
AcDbLine
 10
65.575735
 20
400.2416999999999
 30
0.0
 11
65.575735
 21
392.8577
 31
0.0
  0
LINE
  5
87F
330
1E
100
AcDbEntity
  8
0
100
AcDbLine
 10
65.575735
 20
392.8577
 30
0.0
 11
65.575735
 21
400.2416999999999
 31
0.0
  0
LINE
  5
880
330
1E
100
AcDbEntity
  8
0
100
AcDbLine
 10
65.575735
 20
336.3476999999999
 30
0.0
 11
65.575735
 21
328.9626999999999
 31
0.0
  0
LINE
  5
881
330
1E
100
AcDbEntity
  8
0
100
AcDbLine
 10
65.575735
 20
328.9626999999999
 30
0.0
 11
65.575735
 21
336.3476999999999
 31
0.0
  0
LINE
  5
882
330
1E
100
AcDbEntity
  8
0
100
AcDbLine
 10
65.575735
 20
464.3476999999999
 30
0.0
 11
65.575735
 21
456.9626999999999
 31
0.0
  0
LINE
  5
883
330
1E
100
AcDbEntity
  8
0
100
AcDbLine
 10
65.575735
 20
456.9626999999999
 30
0.0
 11
65.575735
 21
464.3476999999999
 31
0.0
  0
LINE
  5
884
330
1E
100
AcDbEntity
  8
0
100
AcDbLine
 10
65.575735
 20
320.3476999999999
 30
0.0
 11
65.575735
 21
312.9626999999999
 31
0.0
  0
LINE
  5
885
330
1E
100
AcDbEntity
  8
0
100
AcDbLine
 10
65.575735
 20
312.9626999999999
 30
0.0
 11
65.575735
 21
320.3476999999999
 31
0.0
  0
LINE
  5
886
330
1E
100
AcDbEntity
  8
0
100
AcDbLine
 10
65.55263499999999
 20
208.8296999999999
 30
0.0
 11
65.756635
 21
208.5226999999999
 31
0.0
  0
LINE
  5
887
330
1E
100
AcDbEntity
  8
0
100
AcDbLine
 10
65.756635
 20
121.1376999999999
 30
0.0
 11
65.756635
 21
128.5226999999999
 31
0.0
  0
LINE
  5
888
330
1E
100
AcDbEntity
  8
0
100
AcDbLine
 10
65.55263499999999
 20
128.8297
 30
0.0
 11
65.756635
 21
128.5226999999999
 31
0.0
  0
LINE
  5
889
330
1E
100
AcDbEntity
  8
0
100
AcDbLine
 10
65.55263499999999
 20
112.8297
 30
0.0
 11
65.756635
 21
112.5226999999999
 31
0.0
  0
LINE
  5
88A
330
1E
100
AcDbEntity
  8
0
100
AcDbLine
 10
65.756635
 20
144.5226999999999
 30
0.0
 11
65.756635
 21
137.1377
 31
0.0
  0
LINE
  5
88B
330
1E
100
AcDbEntity
  8
0
100
AcDbLine
 10
65.756635
 20
137.1377
 30
0.0
 11
65.756635
 21
144.5226999999999
 31
0.0
  0
LINE
  5
88C
330
1E
100
AcDbEntity
  8
0
100
AcDbLine
 10
65.756635
 20
160.5227
 30
0.0
 11
65.756635
 21
153.1376999999999
 31
0.0
  0
LINE
  5
88D
330
1E
100
AcDbEntity
  8
0
100
AcDbLine
 10
65.756635
 20
153.1376999999999
 30
0.0
 11
65.756635
 21
160.5227
 31
0.0
  0
LINE
  5
88E
330
1E
100
AcDbEntity
  8
0
100
AcDbLine
 10
65.756635
 20
192.5226999999999
 30
0.0
 11
65.756635
 21
185.1377
 31
0.0
  0
LINE
  5
88F
330
1E
100
AcDbEntity
  8
0
100
AcDbLine
 10
65.756635
 20
185.1377
 30
0.0
 11
65.756635
 21
192.5226999999999
 31
0.0
  0
LINE
  5
890
330
1E
100
AcDbEntity
  8
0
100
AcDbLine
 10
65.756635
 20
176.5226999999999
 30
0.0
 11
65.756635
 21
169.1376999999999
 31
0.0
  0
LINE
  5
891
330
1E
100
AcDbEntity
  8
0
100
AcDbLine
 10
65.756635
 20
169.1376999999999
 30
0.0
 11
65.756635
 21
176.5226999999999
 31
0.0
  0
LINE
  5
892
330
1E
100
AcDbEntity
  8
0
100
AcDbLine
 10
65.756635
 20
240.5227
 30
0.0
 11
65.756635
 21
233.1376999999999
 31
0.0
  0
LINE
  5
893
330
1E
100
AcDbEntity
  8
0
100
AcDbLine
 10
65.756635
 20
233.1376999999999
 30
0.0
 11
65.756635
 21
240.5227
 31
0.0
  0
LINE
  5
894
330
1E
100
AcDbEntity
  8
0
100
AcDbLine
 10
65.756635
 20
224.5226999999999
 30
0.0
 11
65.756635
 21
217.1377
 31
0.0
  0
LINE
  5
895
330
1E
100
AcDbEntity
  8
0
100
AcDbLine
 10
65.756635
 20
217.1377
 30
0.0
 11
65.756635
 21
224.5226999999999
 31
0.0
  0
LINE
  5
896
330
1E
100
AcDbEntity
  8
0
100
AcDbLine
 10
65.756635
 20
288.4076999999999
 30
0.0
 11
65.756635
 21
281.0237
 31
0.0
  0
LINE
  5
897
330
1E
100
AcDbEntity
  8
0
100
AcDbLine
 10
65.756635
 20
281.0237
 30
0.0
 11
65.756635
 21
288.4076999999999
 31
0.0
  0
LINE
  5
898
330
1E
100
AcDbEntity
  8
0
100
AcDbLine
 10
65.756635
 20
272.4076999999999
 30
0.0
 11
65.756635
 21
265.0237
 31
0.0
  0
LINE
  5
899
330
1E
100
AcDbEntity
  8
0
100
AcDbLine
 10
65.756635
 20
265.0237
 30
0.0
 11
65.756635
 21
272.4076999999999
 31
0.0
  0
LINE
  5
89A
330
1E
100
AcDbEntity
  8
0
100
AcDbLine
 10
65.756635
 20
256.5226999999999
 30
0.0
 11
65.756635
 21
249.1376999999999
 31
0.0
  0
LINE
  5
89B
330
1E
100
AcDbEntity
  8
0
100
AcDbLine
 10
65.756635
 20
249.1376999999999
 30
0.0
 11
65.756635
 21
256.5226999999999
 31
0.0
  0
LINE
  5
89C
330
1E
100
AcDbEntity
  8
0
100
AcDbLine
 10
65.756635
 20
208.5226999999999
 30
0.0
 11
65.756635
 21
201.1376999999999
 31
0.0
  0
LINE
  5
89D
330
1E
100
AcDbEntity
  8
0
100
AcDbLine
 10
65.756635
 20
201.1376999999999
 30
0.0
 11
65.756635
 21
208.5226999999999
 31
0.0
  0
LINE
  5
89E
330
1E
100
AcDbEntity
  8
0
100
AcDbLine
 10
65.756635
 20
64.5227
 30
0.0
 11
65.756635
 21
57.1377
 31
0.0
  0
LINE
  5
89F
330
1E
100
AcDbEntity
  8
0
100
AcDbLine
 10
65.756635
 20
57.1377
 30
0.0
 11
65.756635
 21
64.5227
 31
0.0
  0
LINE
  5
8A0
330
1E
100
AcDbEntity
  8
0
100
AcDbLine
 10
65.55263499999999
 20
64.8297
 30
0.0
 11
65.756635
 21
64.5227
 31
0.0
  0
LINE
  5
8A1
330
1E
100
AcDbEntity
  8
0
100
AcDbLine
 10
65.55263499999999
 20
32.82999999999999
 30
0.0
 11
65.756635
 21
32.5224
 31
0.0
  0
LINE
  5
8A2
330
1E
100
AcDbEntity
  8
0
100
AcDbLine
 10
65.24663499999999
 20
32.82999999999999
 30
0.0
 11
65.55263499999999
 21
32.82999999999999
 31
0.0
  0
LINE
  5
8A3
330
1E
100
AcDbEntity
  8
0
100
AcDbLine
 10
65.24663499999999
 20
16.82999999999999
 30
0.0
 11
65.55263499999999
 21
16.82999999999999
 31
0.0
  0
LINE
  5
8A4
330
1E
100
AcDbEntity
  8
0
100
AcDbLine
 10
65.232381739313
 20
8.830099999999999
 30
0.0
 11
65.235035
 21
4.34219999999999
 31
0.0
  0
LINE
  5
8A5
330
1E
100
AcDbEntity
  8
0
100
AcDbLine
 10
64.97203499999999
 20
2.80039999999999
 30
0.0
 11
65.235035
 21
4.34219999999999
 31
0.0
  0
LINE
  5
8A6
330
1E
100
AcDbEntity
  8
0
100
AcDbLine
 10
64.218725532761
 20
537.4969769912439
 30
0.0
 11
64.707526830058
 21
529.0893502770879
 31
0.0
  0
LINE
  5
8A8
330
1E
100
AcDbEntity
  8
0
100
AcDbLine
 10
59.232735
 20
579.9277
 30
0.0
 11
60.03933499999999
 21
580.0507
 31
0.0
  0
LINE
  5
8A9
330
1E
100
AcDbEntity
  8
0
100
AcDbLine
 10
60.59013499999999
 20
579.8246999999999
 30
0.0
 11
61.71153499999999
 21
572.5257
 31
0.0
  0
LINE
  5
8AA
330
1E
100
AcDbEntity
  8
0
100
AcDbLine
 10
61.254135
 20
572.1436999999999
 30
0.0
 11
61.556635
 21
572.1906999999999
 31
0.0
  0
LINE
  5
8AB
330
1E
100
AcDbEntity
  8
0
100
AcDbLine
 10
61.556635
 20
572.1906999999999
 30
0.0
 11
61.71153499999999
 21
572.5257
 31
0.0
  0
LINE
  5
8AD
330
1E
100
AcDbEntity
  8
0
100
AcDbLine
 10
60.341735
 20
580.0977
 30
0.0
 11
60.59013499999999
 21
579.8246999999999
 31
0.0
  0
LINE
  5
8AE
330
1E
100
AcDbEntity
  8
0
100
AcDbLine
 10
60.03933499999999
 20
580.0507
 30
0.0
 11
60.341735
 21
580.0977
 31
0.0
  0
LINE
  5
8B0
330
1E
100
AcDbEntity
  8
0
100
AcDbLine
 10
61.04698511816521
 20
572.111850545136
 30
0.0
 11
62.4428175562659
 21
562.907655997898
 31
0.0
  0
LINE
  5
8B1
330
1E
100
AcDbEntity
  8
0
100
AcDbLine
 10
61.04698511816521
 20
572.111850545136
 30
0.0
 11
61.254135
 21
572.1436999999999
 31
0.0
  0
LINE
  5
8B2
330
1E
100
AcDbEntity
  8
0
100
AcDbLine
 10
59.227035
 20
584.1127
 30
0.0
 11
59.84748125603021
 21
580.021443850101
 31
0.0
  0
LINE
  5
8B5
330
1E
100
AcDbEntity
  8
0
100
AcDbLine
 10
53.47743499999999
 20
609.5687
 30
0.0
 11
54.273435
 21
609.7477
 31
0.0
  0
LINE
  5
8B6
330
1E
100
AcDbEntity
  8
0
100
AcDbLine
 10
52.611435
 20
616.5877
 30
0.0
 11
52.909135
 21
616.6586999999999
 31
0.0
  0
LINE
  5
8B7
330
1E
100
AcDbEntity
  8
0
100
AcDbLine
 10
52.909135
 20
616.6586999999999
 30
0.0
 11
53.036335
 21
617.0046999999999
 31
0.0
  0
LINE
  5
8B8
330
1E
100
AcDbEntity
  8
0
100
AcDbLine
 10
53.940935
 20
601.4727
 30
0.0
 11
55.234535
 21
601.7636999999999
 31
0.0
  0
LINE
  5
8B9
330
1E
100
AcDbEntity
  8
0
100
AcDbLine
 10
55.234535
 20
601.7636999999999
 30
0.0
 11
56.030635
 21
601.9426999999999
 31
0.0
  0
LINE
  5
8BC
330
1E
100
AcDbEntity
  8
0
100
AcDbLine
 10
54.0758353229406
 20
609.7032648967419
 30
0.0
 11
54.273435
 21
609.7477
 31
0.0
  0
LINE
  5
8BD
330
1E
100
AcDbEntity
  8
0
100
AcDbLine
 10
54.838635
 20
609.5597
 30
0.0
 11
56.460535
 21
602.3556999999999
 31
0.0
  0
LINE
  5
8BE
330
1E
100
AcDbEntity
  8
0
100
AcDbLine
 10
54.572035
 20
609.8146999999999
 30
0.0
 11
54.838635
 21
609.5597
 31
0.0
  0
LINE
  5
8BF
330
1E
100
AcDbEntity
  8
0
100
AcDbLine
 10
54.273435
 20
609.7477
 30
0.0
 11
54.572035
 21
609.8146999999999
 31
0.0
  0
LINE
  5
8C1
330
1E
100
AcDbEntity
  8
0
100
AcDbLine
 10
55.42783499999999
 20
594.5297
 30
0.0
 11
56.73593499999999
 21
594.7467
 31
0.0
  0
LINE
  5
8C3
330
1E
100
AcDbEntity
  8
0
100
AcDbLine
 10
53.717335
 20
594.2457
 30
0.0
 11
55.42783499999999
 21
594.5297
 31
0.0
  0
LINE
  5
8C5
330
1E
100
AcDbEntity
  8
0
100
AcDbLine
 10
58.85283499999999
 20
586.9896999999999
 30
0.0
 11
59.154735
 21
587.0397
 31
0.0
  0
LINE
  5
8C6
330
1E
100
AcDbEntity
  8
0
100
AcDbLine
 10
59.154735
 20
587.0397
 30
0.0
 11
59.30543499999999
 21
587.3766999999999
 31
0.0
  0
LINE
  5
8C9
330
1E
100
AcDbEntity
  8
0
100
AcDbLine
 10
56.030635
 20
601.9426999999999
 30
0.0
 11
56.329135
 21
602.0107
 31
0.0
  0
LINE
  5
8CA
330
1E
100
AcDbEntity
  8
0
100
AcDbLine
 10
56.329135
 20
602.0107
 30
0.0
 11
56.460535
 21
602.3556999999999
 31
0.0
  0
LINE
  5
8CB
330
1E
100
AcDbEntity
  8
0
100
AcDbLine
 10
57.0801036214695
 20
594.8039972981449
 30
0.0
 11
57.540835
 21
594.8807
 31
0.0
  0
LINE
  5
8CC
330
1E
100
AcDbEntity
  8
0
100
AcDbLine
 10
57.0801036214695
 20
594.8039972981449
 30
0.0
 11
57.540835
 21
594.8807
 31
0.0
  0
LINE
  5
8CD
330
1E
100
AcDbEntity
  8
0
100
AcDbLine
 10
58.094435
 20
594.6607
 30
0.0
 11
59.30543499999999
 21
587.3766999999999
 31
0.0
  0
LINE
  5
8CE
330
1E
100
AcDbEntity
  8
0
100
AcDbLine
 10
57.842735
 20
594.9307
 30
0.0
 11
58.094435
 21
594.6607
 31
0.0
  0
LINE
  5
8CF
330
1E
100
AcDbEntity
  8
0
100
AcDbLine
 10
57.540835
 20
594.8807
 30
0.0
 11
57.842735
 21
594.9307
 31
0.0
  0
LINE
  5
8D0
330
1E
100
AcDbEntity
  8
0
100
AcDbLine
 10
56.73593499999999
 20
594.7467
 30
0.0
 11
57.540835
 21
594.8807
 31
0.0
  0
LINE
  5
8D2
330
1E
100
AcDbEntity
  8
0
100
AcDbLine
 10
55.6631646171621
 20
601.860075708419
 30
0.0
 11
57.0801036214695
 21
594.8039972981449
 31
0.0
  0
LINE
  5
8D3
330
1E
100
AcDbEntity
  8
0
100
AcDbLine
 10
58.65588564249979
 20
586.9569118102809
 30
0.0
 11
59.227035
 21
584.1127
 31
0.0
  0
LINE
  5
8D4
330
1E
100
AcDbEntity
  8
0
100
AcDbLine
 10
52.2759668101027
 20
616.5078266214529
 30
0.0
 11
54.0758353229406
 21
609.7032648967419
 31
0.0
  0
LINE
  5
8D5
330
1E
100
AcDbEntity
  8
0
100
AcDbLine
 10
43.69503499999999
 20
645.7116999999999
 30
0.0
 11
43.98523499999999
 21
645.8087
 31
0.0
  0
LINE
  5
8D6
330
1E
100
AcDbEntity
  8
0
100
AcDbLine
 10
48.969535
 20
631.4287
 30
0.0
 11
49.260935
 21
631.5217
 31
0.0
  0
LINE
  5
8D7
330
1E
100
AcDbEntity
  8
0
100
AcDbLine
 10
49.260935
 20
631.5217
 30
0.0
 11
49.361235
 21
631.8767
 31
0.0
  0
LINE
  5
8D9
330
1E
100
AcDbEntity
  8
0
100
AcDbLine
 10
47.106035
 20
638.9086999999999
 30
0.0
 11
49.361235
 21
631.8767
 31
0.0
  0
LINE
  5
8DA
330
1E
100
AcDbEntity
  8
0
100
AcDbLine
 10
46.81783499999999
 20
639.1396999999999
 30
0.0
 11
47.106035
 21
638.9086999999999
 31
0.0
  0
LINE
  5
8DB
330
1E
100
AcDbEntity
  8
0
100
AcDbLine
 10
46.52643499999999
 20
639.0457
 30
0.0
 11
46.81783499999999
 21
639.1396999999999
 31
0.0
  0
LINE
  5
8DC
330
1E
100
AcDbEntity
  8
0
100
AcDbLine
 10
45.74943499999999
 20
638.7966999999999
 30
0.0
 11
46.52643499999999
 21
639.0457
 31
0.0
  0
LINE
  5
8DE
330
1E
100
AcDbEntity
  8
0
100
AcDbLine
 10
44.48673499999999
 20
638.3917
 30
0.0
 11
45.74943499999999
 21
638.7966999999999
 31
0.0
  0
LINE
  5
8E0
330
1E
100
AcDbEntity
  8
0
100
AcDbLine
 10
43.98523499999999
 20
645.8087
 30
0.0
 11
44.08113499999999
 21
646.1647
 31
0.0
  0
LINE
  5
8E1
330
1E
100
AcDbEntity
  8
0
100
AcDbLine
 10
48.37947736755179
 20
631.2388487669089
 30
0.0
 11
50.2297288865832
 21
624.243809641723
 31
0.0
  0
LINE
  5
8E2
330
1E
100
AcDbEntity
  8
0
100
AcDbLine
 10
43.5871152062825
 20
645.675582637844
 30
0.0
 11
46.0165144966247
 21
638.8822891823159
 31
0.0
  0
LINE
  5
8E3
330
1E
100
AcDbEntity
  8
0
100
AcDbLine
 10
38.33953499999999
 20
660.2837
 30
0.0
 11
38.62223499999999
 21
660.4007
 31
0.0
  0
LINE
  5
8E4
330
1E
100
AcDbEntity
  8
0
100
AcDbLine
 10
38.62223499999999
 20
660.4007
 30
0.0
 11
38.69283499999999
 21
660.7636999999999
 31
0.0
  0
LINE
  5
8E5
330
1E
100
AcDbEntity
  8
0
100
AcDbLine
 10
38.92803499999999
 20
658.7037
 30
0.0
 11
40.8927433987227
 21
653.2098148407669
 31
0.0
  0
LINE
  5
8E6
330
1E
100
AcDbEntity
  8
0
100
AcDbLine
 10
38.22202281601829
 20
660.235054913888
 30
0.0
 11
38.92803499999999
 21
658.7037
 31
0.0
  0
LINE
  5
8E7
330
1E
100
AcDbEntity
  8
0
100
AcDbLine
 10
29.44613499999999
 20
677.2527
 30
0.0
 11
30.65863499999999
 21
677.9527
 31
0.0
  0
LINE
  5
8E8
330
1E
100
AcDbEntity
  8
0
100
AcDbLine
 10
30.65863499999999
 20
677.9527
 30
0.0
 11
31.438035
 21
678.4027
 31
0.0
  0
LINE
  5
8E9
330
1E
100
AcDbEntity
  8
0
100
AcDbLine
 10
27.80073499999999
 20
676.3027
 30
0.0
 11
29.44613499999999
 21
677.2527
 31
0.0
  0
LINE
  5
8EA
330
1E
100
AcDbEntity
  8
0
100
AcDbLine
 10
25.89543499999999
 20
675.2027
 30
0.0
 11
27.80073499999999
 21
676.3027
 31
0.0
  0
LINE
  5
8EB
330
1E
100
AcDbEntity
  8
0
100
AcDbLine
 10
23.903635
 20
674.0527
 30
0.0
 11
25.89543499999999
 21
675.2027
 31
0.0
  0
LINE
  5
8EC
330
1E
100
AcDbEntity
  8
0
100
AcDbLine
 10
33.428235
 20
672.0137
 30
0.0
 11
33.710935
 21
672.1307
 31
0.0
  0
LINE
  5
8ED
330
1E
100
AcDbEntity
  8
0
100
AcDbLine
 10
33.710935
 20
672.1307
 30
0.0
 11
33.78143499999999
 21
672.4936999999999
 31
0.0
  0
LINE
  5
8EF
330
1E
100
AcDbEntity
  8
0
100
AcDbLine
 10
31.438035
 20
678.4027
 30
0.0
 11
31.69783499999999
 21
678.5527
 31
0.0
  0
LINE
  5
8F0
330
1E
100
AcDbEntity
  8
0
100
AcDbLine
 10
31.3517026321619
 20
678.352854522034
 30
0.0
 11
31.438035
 21
678.4027
 31
0.0
  0
LINE
  5
8F1
330
1E
100
AcDbEntity
  8
0
100
AcDbLine
 10
31.3517026321619
 20
678.352854522034
 30
0.0
 11
33.78143499999999
 21
672.4936999999999
 31
0.0
  0
LINE
  5
8F2
330
1E
100
AcDbEntity
  8
0
100
AcDbLine
 10
32.89363883571589
 20
671.792429101543
 30
0.0
 11
34.8700877278806
 21
667.505470899213
 31
0.0
  0
ENDSEC
  0
SECTION
  2
OBJECTS
  0
DICTIONARY
  5
C
330
0
100
AcDbDictionary
  3
ACAD_GROUP
350
D
  3
ACAD_LAYOUT
350
19
  3
ACAD_MLINESTYLE
350
16
  3
ACAD_PLOTSETTINGS
350
18
  3
ACAD_PLOTSTYLENAME
350
E
  3
ACDBHEADERROUNDTRIPXREC
350
8FB
  3
ACDBVARIABLEDICTIONARY
350
8F8
  0
DICTIONARY
  5
91D
330
1E
100
AcDbDictionary
280
     1
  3
ACAD_LAYOUTSELFREF
360
91E
  0
DICTIONARY
  5
91B
330
1A
100
AcDbDictionary
280
     1
  3
ACAD_LAYOUTSELFREF
360
91C
  0
DICTIONARY
  5
D
102
{ACAD_REACTORS
330
C
102
}
330
C
100
AcDbDictionary
  0
DICTIONARY
  5
19
102
{ACAD_REACTORS
330
C
102
}
330
C
100
AcDbDictionary
  0
DICTIONARY
  5
16
102
{ACAD_REACTORS
330
C
102
}
330
C
100
AcDbDictionary
  3
STANDARD
350
17
  0
DICTIONARY
  5
18
102
{ACAD_REACTORS
330
C
102
}
330
C
100
AcDbDictionary
  0
ACDBDICTIONARYWDFLT
  5
E
102
{ACAD_REACTORS
330
C
102
}
330
C
100
AcDbDictionary
281
     1
  3
Normal
350
F
100
AcDbDictionaryWithDefault
340
F
  0
DICTIONARY
  5
8FB
102
{ACAD_REACTORS
330
C
102
}
330
C
100
AcDbDictionary
  3
CEPSNTYPE
350
905
  3
FINGERPRINTGUID
350
906
  3
HYPERLINKBASE
350
8FE
  3
INSUNITS
350
904
  3
LAYOUTDICT
350
900
  3
LWETCUNION
350
903
  3
PLOTSETDICT
350
901
  3
PLOTSTYLNAMDICT
350
902
  3
PSVPSCALE
350
908
  3
PUCSBASE
350
90B
  3
PUCSORGBACK
350
911
  3
PUCSORGBOTTOM
350
90D
  3
PUCSORGFRONT
350
910
  3
PUCSORGLEFT
350
90E
  3
PUCSORGRIGHT
350
90F
  3
PUCSORGTOP
350
90C
  3
PUCSORTHOREF
350
909
  3
PUCSORTHOVIEW
350
90A
  3
STYLESHEET
350
8FF
  3
TSTACKALIGN
350
8FC
  3
TSTACKSIZE
350
8FD
  3
UCSBASE
350
914
  3
UCSORGBACK
350
91A
  3
UCSORGBOTTOM
350
916
  3
UCSORGFRONT
350
919
  3
UCSORGLEFT
350
917
  3
UCSORGRIGHT
350
918
  3
UCSORGTOP
350
915
  3
UCSORTHOREF
350
912
  3
UCSORTHOVIEW
350
913
  3
VERSIONGUID
350
907
  0
DICTIONARY
  5
8F8
102
{ACAD_REACTORS
330
C
102
}
330
C
100
AcDbDictionary
  3
DIMASSOC
350
8F9
  0
XRECORD
  5
91E
102
{ACAD_REACTORS
330
91D
102
}
330
91D
100
AcDbXrecord
340
1E
  0
XRECORD
  5
91C
102
{ACAD_REACTORS
330
91B
102
}
330
91B
100
AcDbXrecord
340
1A
  0
MLINESTYLE
  5
17
102
{ACAD_REACTORS
330
16
102
}
330
16
100
AcDbMlineStyle
  2
STANDARD
 70
     0
  3

 62
   256
 51
90.0
 52
90.0
 71
     2
 49
0.5
 62
   256
  6
BYLAYER
 49
-0.5
 62
   256
  6
BYLAYER
  0
ACDBPLACEHOLDER
  5
F
102
{ACAD_REACTORS
330
E
102
}
330
E
100
AcDbPlaceHolder
280
     0
  0
XRECORD
  5
905
102
{ACAD_REACTORS
330
8FB
102
}
330
8FB
100
AcDbXrecord
 90
        0
  0
XRECORD
  5
906
102
{ACAD_REACTORS
330
8FB
102
}
330
8FB
100
AcDbXrecord
  1
{95305302-8801-4444-B58E-E2567A5390A0}
  0
XRECORD
  5
8FE
102
{ACAD_REACTORS
330
8FB
102
}
330
8FB
100
AcDbXrecord
  1

  0
XRECORD
  5
904
102
{ACAD_REACTORS
330
8FB
102
}
330
8FB
100
AcDbXrecord
 90
        0
  0
XRECORD
  5
900
102
{ACAD_REACTORS
330
8FB
102
}
330
8FB
100
AcDbXrecord
340
19
  0
XRECORD
  5
903
102
{ACAD_REACTORS
330
8FB
102
}
330
8FB
100
AcDbXrecord
 90
    10781
  0
XRECORD
  5
901
102
{ACAD_REACTORS
330
8FB
102
}
330
8FB
100
AcDbXrecord
340
18
  0
XRECORD
  5
902
102
{ACAD_REACTORS
330
8FB
102
}
330
8FB
100
AcDbXrecord
340
E
  0
XRECORD
  5
908
102
{ACAD_REACTORS
330
8FB
102
}
330
8FB
100
AcDbXrecord
 40
0.0
  0
XRECORD
  5
90B
102
{ACAD_REACTORS
330
8FB
102
}
330
8FB
100
AcDbXrecord
340
0
  0
XRECORD
  5
911
102
{ACAD_REACTORS
330
8FB
102
}
330
8FB
100
AcDbXrecord
 10
0.0
 20
0.0
 30
0.0
  0
XRECORD
  5
90D
102
{ACAD_REACTORS
330
8FB
102
}
330
8FB
100
AcDbXrecord
 10
0.0
 20
0.0
 30
0.0
  0
XRECORD
  5
910
102
{ACAD_REACTORS
330
8FB
102
}
330
8FB
100
AcDbXrecord
 10
0.0
 20
0.0
 30
0.0
  0
XRECORD
  5
90E
102
{ACAD_REACTORS
330
8FB
102
}
330
8FB
100
AcDbXrecord
 10
0.0
 20
0.0
 30
0.0
  0
XRECORD
  5
90F
102
{ACAD_REACTORS
330
8FB
102
}
330
8FB
100
AcDbXrecord
 10
0.0
 20
0.0
 30
0.0
  0
XRECORD
  5
90C
102
{ACAD_REACTORS
330
8FB
102
}
330
8FB
100
AcDbXrecord
 10
0.0
 20
0.0
 30
0.0
  0
XRECORD
  5
909
102
{ACAD_REACTORS
330
8FB
102
}
330
8FB
100
AcDbXrecord
340
0
  0
XRECORD
  5
90A
102
{ACAD_REACTORS
330
8FB
102
}
330
8FB
100
AcDbXrecord
 70
     0
  0
XRECORD
  5
8FF
102
{ACAD_REACTORS
330
8FB
102
}
330
8FB
100
AcDbXrecord
  1

  0
XRECORD
  5
8FC
102
{ACAD_REACTORS
330
8FB
102
}
330
8FB
100
AcDbXrecord
 90
        1
  0
XRECORD
  5
8FD
102
{ACAD_REACTORS
330
8FB
102
}
330
8FB
100
AcDbXrecord
 90
       70
  0
XRECORD
  5
914
102
{ACAD_REACTORS
330
8FB
102
}
330
8FB
100
AcDbXrecord
340
0
  0
XRECORD
  5
91A
102
{ACAD_REACTORS
330
8FB
102
}
330
8FB
100
AcDbXrecord
 10
0.0
 20
0.0
 30
0.0
  0
XRECORD
  5
916
102
{ACAD_REACTORS
330
8FB
102
}
330
8FB
100
AcDbXrecord
 10
0.0
 20
0.0
 30
0.0
  0
XRECORD
  5
919
102
{ACAD_REACTORS
330
8FB
102
}
330
8FB
100
AcDbXrecord
 10
0.0
 20
0.0
 30
0.0
  0
XRECORD
  5
917
102
{ACAD_REACTORS
330
8FB
102
}
330
8FB
100
AcDbXrecord
 10
0.0
 20
0.0
 30
0.0
  0
XRECORD
  5
918
102
{ACAD_REACTORS
330
8FB
102
}
330
8FB
100
AcDbXrecord
 10
0.0
 20
0.0
 30
0.0
  0
XRECORD
  5
915
102
{ACAD_REACTORS
330
8FB
102
}
330
8FB
100
AcDbXrecord
 10
0.0
 20
0.0
 30
0.0
  0
XRECORD
  5
912
102
{ACAD_REACTORS
330
8FB
102
}
330
8FB
100
AcDbXrecord
340
0
  0
XRECORD
  5
913
102
{ACAD_REACTORS
330
8FB
102
}
330
8FB
100
AcDbXrecord
 70
     1
  0
XRECORD
  5
907
102
{ACAD_REACTORS
330
8FB
102
}
330
8FB
100
AcDbXrecord
  1
{7DF49D56-230E-4573-88D4-4925A73B7093}
  0
DICTIONARYVAR
  5
8F9
102
{ACAD_REACTORS
330
8F8
102
}
330
8F8
100
DictionaryVariables
280
     0
  1
1
  0
ENDSEC
  0
EOF
