  0
SECTION
  2
HEADER
  9
$ACADVER
  1
AC1015
  9
$ACADMAINTVER
 70
    13
  9
$DWGCODEPAGE
  3
ANSI_1252
  9
$INSBASE
 10
0.0
 20
0.0
 30
0.0
  9
$EXTMIN
 10
-0.179399999999956
 20
0.168999999999998
 30
0.0
  9
$EXTMAX
 10
241.1793999999999
 20
134.831
 30
0.0
  9
$LIMMIN
 10
0.0
 20
0.0
  9
$LIMMAX
 10
12.0
 20
9.0
  9
$ORTHOMODE
 70
     0
  9
$REGENMODE
 70
     1
  9
$FILLMODE
 70
     1
  9
$QTEXTMODE
 70
     0
  9
$MIRRTEXT
 70
     1
  9
$LTSCALE
 40
1.0
  9
$ATTMODE
 70
     1
  9
$TEXTSIZE
 40
0.2
  9
$TRACEWID
 40
0.05
  9
$TEXTSTYLE
  7
Standard
  9
$CLAYER
  8
0
  9
$CELTYPE
  6
Continuous
  9
$CECOLOR
 62
   256
  9
$CELTSCALE
 40
1.0
  9
$DISPSILH
 70
     0
  9
$DIMSCALE
 40
1.0
  9
$DIMASZ
 40
0.18
  9
$DIMEXO
 40
0.0625
  9
$DIMDLI
 40
0.38
  9
$DIMRND
 40
0.0
  9
$DIMDLE
 40
0.0
  9
$DIMEXE
 40
0.18
  9
$DIMTP
 40
0.0
  9
$DIMTM
 40
0.0
  9
$DIMTXT
 40
0.18
  9
$DIMCEN
 40
0.09
  9
$DIMTSZ
 40
0.0
  9
$DIMTOL
 70
     0
  9
$DIMLIM
 70
     0
  9
$DIMTIH
 70
     1
  9
$DIMTOH
 70
     1
  9
$DIMSE1
 70
     0
  9
$DIMSE2
 70
     0
  9
$DIMTAD
 70
     0
  9
$DIMZIN
 70
     0
  9
$DIMBLK
  1

  9
$DIMASO
 70
     1
  9
$DIMSHO
 70
     1
  9
$DIMPOST
  1

  9
$DIMAPOST
  1

  9
$DIMALT
 70
     0
  9
$DIMALTD
 70
     2
  9
$DIMALTF
 40
25.4
  9
$DIMLFAC
 40
1.0
  9
$DIMTOFL
 70
     0
  9
$DIMTVP
 40
0.0
  9
$DIMTIX
 70
     0
  9
$DIMSOXD
 70
     0
  9
$DIMSAH
 70
     0
  9
$DIMBLK1
  1

  9
$DIMBLK2
  1

  9
$DIMSTYLE
  2
Standard
  9
$DIMCLRD
 70
     0
  9
$DIMCLRE
 70
     0
  9
$DIMCLRT
 70
     0
  9
$DIMTFAC
 40
1.0
  9
$DIMGAP
 40
0.09
  9
$DIMJUST
 70
     0
  9
$DIMSD1
 70
     0
  9
$DIMSD2
 70
     0
  9
$DIMTOLJ
 70
     1
  9
$DIMTZIN
 70
     0
  9
$DIMALTZ
 70
     0
  9
$DIMALTTZ
 70
     0
  9
$DIMUPT
 70
     0
  9
$DIMDEC
 70
     4
  9
$DIMTDEC
 70
     4
  9
$DIMALTU
 70
     2
  9
$DIMALTTD
 70
     2
  9
$DIMTXSTY
  7
Standard
  9
$DIMAUNIT
 70
     0
  9
$DIMADEC
 70
     0
  9
$DIMALTRND
 40
0.0
  9
$DIMAZIN
 70
     0
  9
$DIMDSEP
 70
    46
  9
$DIMATFIT
 70
     3
  9
$DIMFRAC
 70
     0
  9
$DIMLDRBLK
  1

  9
$DIMLUNIT
 70
     2
  9
$DIMLWD
 70
    -2
  9
$DIMLWE
 70
    -2
  9
$DIMTMOVE
 70
     0
  9
$LUNITS
 70
     2
  9
$LUPREC
 70
     4
  9
$SKETCHINC
 40
0.1
  9
$FILLETRAD
 40
0.0
  9
$AUNITS
 70
     0
  9
$AUPREC
 70
     0
  9
$MENU
  1
.
  9
$ELEVATION
 40
0.0
  9
$PELEVATION
 40
0.0
  9
$THICKNESS
 40
0.0
  9
$LIMCHECK
 70
     0
  9
$CHAMFERA
 40
0.0
  9
$CHAMFERB
 40
0.0
  9
$CHAMFERC
 40
0.0
  9
$CHAMFERD
 40
0.0
  9
$SKPOLY
 70
     0
  9
$TDCREATE
 40
2454907.854250208
  9
$TDUCREATE
 40
2454907.812583541
  9
$TDUPDATE
 40
2454907.857207928
  9
$TDUUPDATE
 40
2454907.815541261
  9
$TDINDWG
 40
0.0029577199
  9
$TDUSRTIMER
 40
0.0029577199
  9
$USRTIMER
 70
     1
  9
$ANGBASE
 50
0.0
  9
$ANGDIR
 70
     0
  9
$PDMODE
 70
     0
  9
$PDSIZE
 40
0.0
  9
$PLINEWID
 40
0.0
  9
$SPLFRAME
 70
     0
  9
$SPLINETYPE
 70
     6
  9
$SPLINESEGS
 70
     8
  9
$HANDSEED
  5
223
  9
$SURFTAB1
 70
     6
  9
$SURFTAB2
 70
     6
  9
$SURFTYPE
 70
     6
  9
$SURFU
 70
     6
  9
$SURFV
 70
     6
  9
$UCSBASE
  2

  9
$UCSNAME
  2

  9
$UCSORG
 10
0.0
 20
0.0
 30
0.0
  9
$UCSXDIR
 10
1.0
 20
0.0
 30
0.0
  9
$UCSYDIR
 10
0.0
 20
1.0
 30
0.0
  9
$UCSORTHOREF
  2

  9
$UCSORTHOVIEW
 70
     1
  9
$UCSORGTOP
 10
0.0
 20
0.0
 30
0.0
  9
$UCSORGBOTTOM
 10
0.0
 20
0.0
 30
0.0
  9
$UCSORGLEFT
 10
0.0
 20
0.0
 30
0.0
  9
$UCSORGRIGHT
 10
0.0
 20
0.0
 30
0.0
  9
$UCSORGFRONT
 10
0.0
 20
0.0
 30
0.0
  9
$UCSORGBACK
 10
0.0
 20
0.0
 30
0.0
  9
$PUCSBASE
  2

  9
$PUCSNAME
  2

  9
$PUCSORG
 10
0.0
 20
0.0
 30
0.0
  9
$PUCSXDIR
 10
1.0
 20
0.0
 30
0.0
  9
$PUCSYDIR
 10
0.0
 20
1.0
 30
0.0
  9
$PUCSORTHOREF
  2

  9
$PUCSORTHOVIEW
 70
     0
  9
$PUCSORGTOP
 10
0.0
 20
0.0
 30
0.0
  9
$PUCSORGBOTTOM
 10
0.0
 20
0.0
 30
0.0
  9
$PUCSORGLEFT
 10
0.0
 20
0.0
 30
0.0
  9
$PUCSORGRIGHT
 10
0.0
 20
0.0
 30
0.0
  9
$PUCSORGFRONT
 10
0.0
 20
0.0
 30
0.0
  9
$PUCSORGBACK
 10
0.0
 20
0.0
 30
0.0
  9
$USERI1
 70
     0
  9
$USERI2
 70
     0
  9
$USERI3
 70
     0
  9
$USERI4
 70
     0
  9
$USERI5
 70
     0
  9
$USERR1
 40
0.0
  9
$USERR2
 40
0.0
  9
$USERR3
 40
0.0
  9
$USERR4
 40
0.0
  9
$USERR5
 40
0.0
  9
$WORLDVIEW
 70
     1
  9
$SHADEDGE
 70
     3
  9
$SHADEDIF
 70
    70
  9
$TILEMODE
 70
     1
  9
$MAXACTVP
 70
    64
  9
$PINSBASE
 10
0.0
 20
0.0
 30
0.0
  9
$PLIMCHECK
 70
     0
  9
$PEXTMIN
 10
1.000000000000000E+20
 20
1.000000000000000E+20
 30
1.000000000000000E+20
  9
$PEXTMAX
 10
-1.000000000000000E+20
 20
-1.000000000000000E+20
 30
-1.000000000000000E+20
  9
$PLIMMIN
 10
0.0
 20
0.0
  9
$PLIMMAX
 10
12.0
 20
9.0
  9
$UNITMODE
 70
     0
  9
$VISRETAIN
 70
     1
  9
$PLINEGEN
 70
     0
  9
$PSLTSCALE
 70
     1
  9
$TREEDEPTH
 70
  3020
  9
$CMLSTYLE
  2
Standard
  9
$CMLJUST
 70
     0
  9
$CMLSCALE
 40
1.0
  9
$PROXYGRAPHICS
 70
     1
  9
$MEASUREMENT
 70
     0
  9
$CELWEIGHT
370
    -1
  9
$ENDCAPS
280
     0
  9
$JOINSTYLE
280
     0
  9
$LWDISPLAY
290
     0
  9
$INSUNITS
 70
     0
  9
$HYPERLINKBASE
  1

  9
$STYLESHEET
  1

  9
$XEDIT
290
     1
  9
$CEPSNTYPE
380
     0
  9
$PSTYLEMODE
290
     1
  9
$FINGERPRINTGUID
  2
{7060F0B8-ADDD-44EB-9D2A-784BB057637D}
  9
$VERSIONGUID
  2
{C065A240-AFAB-4B75-857E-C4D759BE4D2B}
  9
$EXTNAMES
290
     1
  9
$PSVPSCALE
 40
0.0
  9
$OLESTARTUP
290
     0
  0
ENDSEC
  0
SECTION
  2
CLASSES
  0
CLASS
  1
ACDBDICTIONARYWDFLT
  2
AcDbDictionaryWithDefault
  3
AutoCAD 2000
 90
        0
280
     0
281
     0
  0
CLASS
  1
ACDBPLACEHOLDER
  2
AcDbPlaceHolder
  3
AutoCAD 2000
 90
        0
280
     0
281
     0
  0
CLASS
  1
LAYOUT
  2
AcDbLayout
  3
AutoCAD 2000
 90
        0
280
     0
281
     0
  0
CLASS
  1
DICTIONARYVAR
  2
AcDbDictionaryVar
  3
AutoCAD 2000
 90
        0
280
     0
281
     0
  0
ENDSEC
  0
SECTION
  2
TABLES
  0
TABLE
  2
VPORT
  5
8
330
0
100
AcDbSymbolTable
 70
     2
  0
VPORT
  5
222
330
8
100
AcDbSymbolTableRecord
100
AcDbViewportTableRecord
  2
*Active
 70
     0
 10
0.0
 20
0.0
 11
1.0
 21
1.0
 12
120.5
 22
67.5
 13
0.0
 23
0.0
 14
1.0
 24
1.0
 15
0.0
 25
0.0
 16
0.0
 26
0.0
 36
1.0
 17
0.0
 27
0.0
 37
0.0
 40
135.5124968421052
 41
1.968387776606954
 42
50.0
 43
0.0
 44
0.0
 50
0.0
 51
0.0
 71
     0
 72
   100
 73
     1
 74
     3
 75
     0
 76
     0
 77
     0
 78
     0
281
     0
 65
     1
110
0.0
120
0.0
130
0.0
111
1.0
121
0.0
131
0.0
112
0.0
122
1.0
132
0.0
 79
     1
146
0.0
  0
ENDTAB
  0
TABLE
  2
LTYPE
  5
5
330
0
100
AcDbSymbolTable
 70
     1
  0
LTYPE
  5
13
330
5
100
AcDbSymbolTableRecord
100
AcDbLinetypeTableRecord
  2
ByBlock
 70
     0
  3

 72
    65
 73
     0
 40
0.0
  0
LTYPE
  5
14
330
5
100
AcDbSymbolTableRecord
100
AcDbLinetypeTableRecord
  2
ByLayer
 70
     0
  3

 72
    65
 73
     0
 40
0.0
  0
LTYPE
  5
15
330
5
100
AcDbSymbolTableRecord
100
AcDbLinetypeTableRecord
  2
Continuous
 70
     0
  3
Solid line
 72
    65
 73
     0
 40
0.0
  0
ENDTAB
  0
TABLE
  2
LAYER
  5
2
330
0
100
AcDbSymbolTable
 70
     1
  0
LAYER
  5
10
330
2
100
AcDbSymbolTableRecord
100
AcDbLayerTableRecord
  2
0
 70
     0
 62
     7
  6
Continuous
370
    -3
390
F
  0
ENDTAB
  0
TABLE
  2
STYLE
  5
3
330
0
100
AcDbSymbolTable
 70
     1
  0
STYLE
  5
11
330
3
100
AcDbSymbolTableRecord
100
AcDbTextStyleTableRecord
  2
Standard
 70
     0
 40
0.0
 41
1.0
 50
0.0
 71
     0
 42
0.2
  3
txt
  4

  0
ENDTAB
  0
TABLE
  2
VIEW
  5
6
330
0
100
AcDbSymbolTable
 70
     0
  0
ENDTAB
  0
TABLE
  2
UCS
  5
7
330
0
100
AcDbSymbolTable
 70
     0
  0
ENDTAB
  0
TABLE
  2
APPID
  5
9
330
0
100
AcDbSymbolTable
 70
     1
  0
APPID
  5
12
330
9
100
AcDbSymbolTableRecord
100
AcDbRegAppTableRecord
  2
ACAD
 70
     0
  0
ENDTAB
  0
TABLE
  2
DIMSTYLE
  5
A
330
0
100
AcDbSymbolTable
 70
     1
100
AcDbDimStyleTable
 71
     0
  0
DIMSTYLE
105
21A
330
A
100
AcDbSymbolTableRecord
100
AcDbDimStyleTableRecord
  2
Standard
 70
     0
340
11
  0
ENDTAB
  0
TABLE
  2
BLOCK_RECORD
  5
1
330
0
100
AcDbSymbolTable
 70
     0
  0
BLOCK_RECORD
  5
1E
330
1
100
AcDbSymbolTableRecord
100
AcDbBlockTableRecord
  2
*Model_Space
340
21
  0
BLOCK_RECORD
  5
1A
330
1
100
AcDbSymbolTableRecord
100
AcDbBlockTableRecord
  2
*Paper_Space
340
1D
  0
ENDTAB
  0
ENDSEC
  0
SECTION
  2
BLOCKS
  0
BLOCK
  5
1F
330
1E
100
AcDbEntity
  8
0
100
AcDbBlockBegin
  2
*Model_Space
 70
     0
 10
0.0
 20
0.0
 30
0.0
  3
*Model_Space
  1

  0
ENDBLK
  5
20
330
1E
100
AcDbEntity
  8
0
100
AcDbBlockEnd
  0
BLOCK
  5
1B
330
1A
100
AcDbEntity
 67
     1
  8
0
100
AcDbBlockBegin
  2
*Paper_Space
 70
     0
 10
0.0
 20
0.0
 30
0.0
  3
*Paper_Space
  1

  0
ENDBLK
  5
1C
330
1A
100
AcDbEntity
 67
     1
  8
0
100
AcDbBlockEnd
  0
ENDSEC
  0
SECTION
  2
ENTITIES
  0
LINE
  5
22
330
1E
100
AcDbEntity
  8
0
100
AcDbLine
 10
79.7714000000001
 20
95.43799999999999
 30
0.0
 11
80.10040000000008
 21
94.99500000000001
 31
0.0
  0
LINE
  5
23
330
1E
100
AcDbEntity
  8
0
100
AcDbLine
 10
79.7714000000001
 20
95.43799999999999
 30
0.0
 11
79.98032444164341
 21
96.08182838139072
 31
0.0
  0
LINE
  5
24
330
1E
100
AcDbEntity
  8
0
100
AcDbLine
 10
79.7714000000001
 20
95.43799999999999
 30
0.0
 11
80.29740000000009
 21
95.60399999999999
 31
0.0
  0
LINE
  5
25
330
1E
100
AcDbEntity
  8
0
100
AcDbLine
 10
79.7714000000001
 20
95.43799999999999
 30
0.0
 11
79.8082106369028
 21
95.55143686065969
 31
0.0
  0
LINE
  5
27
330
1E
100
AcDbEntity
  8
0
100
AcDbLine
 10
81.33840000000009
 20
95.41
 30
0.0
 11
82.2954000000001
 21
94.95499999999999
 31
0.0
  0
LINE
  5
29
330
1E
100
AcDbEntity
  8
0
100
AcDbLine
 10
80.29740000000009
 20
95.60399999999999
 30
0.0
 11
81.33840000000009
 21
95.41
 31
0.0
  0
LINE
  5
2A
330
1E
100
AcDbEntity
  8
0
100
AcDbLine
 10
80.10040000000008
 20
94.99500000000001
 30
0.0
 11
81.05640000000009
 21
94.54
 31
0.0
  0
LINE
  5
2B
330
1E
100
AcDbEntity
  8
0
100
AcDbLine
 10
81.05640000000009
 20
94.54
 30
0.0
 11
82.09740000000008
 21
94.3459999999999
 31
0.0
  0
LINE
  5
2C
330
1E
100
AcDbEntity
  8
0
100
AcDbLine
 10
82.6688368960519
 20
94.64793818987409
 30
0.0
 11
89.3443164939044
 21
92.54155634457491
 31
0.0
  0
LINE
  5
2E
330
1E
100
AcDbEntity
  8
0
100
AcDbLine
 10
82.2954000000001
 20
94.95499999999999
 30
0.0
 11
82.6244000000001
 21
94.51100000000002
 31
0.0
  0
LINE
  5
30
330
1E
100
AcDbEntity
  8
0
100
AcDbLine
 10
82.09740000000008
 20
94.3459999999999
 30
0.0
 11
82.6244000000001
 21
94.51100000000002
 31
0.0
  0
LINE
  5
31
330
1E
100
AcDbEntity
  8
0
100
AcDbLine
 10
70.58939999999999
 20
98.085
 30
0.0
 11
71.5454000000001
 21
97.62999999999999
 31
0.0
  0
LINE
  5
32
330
1E
100
AcDbEntity
  8
0
100
AcDbLine
 10
71.5454000000001
 20
97.62999999999999
 30
0.0
 11
72.58639999999999
 21
97.436
 31
0.0
  0
LINE
  5
33
330
1E
100
AcDbEntity
  8
0
100
AcDbLine
 10
73.13169695775091
 20
97.65728877325051
 30
0.0
 11
79.80795859588879
 21
95.55066016284099
 31
0.0
  0
LINE
  5
34
330
1E
100
AcDbEntity
  8
0
100
AcDbLine
 10
73.13169695775091
 20
97.65728877325051
 30
0.0
 11
79.80795859588879
 21
95.55066016284099
 31
0.0
  0
LINE
  5
36
330
1E
100
AcDbEntity
  8
0
100
AcDbLine
 10
72.78440000000009
 20
98.045
 30
0.0
 11
73.1134000000001
 21
97.60100000000001
 31
0.0
  0
LINE
  5
37
330
1E
100
AcDbEntity
  8
0
100
AcDbLine
 10
73.1134000000001
 20
97.60100000000001
 30
0.0
 11
73.32066484742958
 21
98.2386297173892
 31
0.0
  0
LINE
  5
38
330
1E
100
AcDbEntity
  8
0
100
AcDbLine
 10
72.58639999999999
 20
97.436
 30
0.0
 11
73.1134000000001
 21
97.60100000000001
 31
0.0
  0
LINE
  5
39
330
1E
100
AcDbEntity
  8
0
100
AcDbLine
 10
67.4598
 20
99.447
 30
0.0
 11
70.27080650553
 21
98.56001458067959
 31
0.0
  0
LINE
  5
3A
330
1E
100
AcDbEntity
  8
0
100
AcDbLine
 10
64.65440000000011
 20
100.35
 30
0.0
 11
64.9040737455051
 21
101.1186184622069
 31
0.0
  0
LINE
  5
3B
330
1E
100
AcDbEntity
  8
0
100
AcDbLine
 10
64.12750000000011
 20
100.185
 30
0.0
 11
64.65440000000011
 21
100.35
 31
0.0
  0
LINE
  5
3C
330
1E
100
AcDbEntity
  8
0
100
AcDbLine
 10
64.66465053114539
 20
100.3815561713139
 30
0.0
 11
67.4598
 21
99.447
 31
0.0
  0
LINE
  5
3D
330
1E
100
AcDbEntity
  8
0
100
AcDbLine
 10
64.66465053114539
 20
100.3815561713139
 30
0.0
 11
67.4598
 21
99.447
 31
0.0
  0
LINE
  5
3E
330
1E
100
AcDbEntity
  8
0
100
AcDbLine
 10
63.0865
 20
100.3789999999999
 30
0.0
 11
64.12750000000011
 21
100.185
 31
0.0
  0
LINE
  5
40
330
1E
100
AcDbEntity
  8
0
100
AcDbLine
 10
70.78740000000009
 20
98.69399999999991
 30
0.0
 11
71.8284000000001
 21
98.50000000000001
 31
0.0
  0
LINE
  5
41
330
1E
100
AcDbEntity
  8
0
100
AcDbLine
 10
70.2604
 20
98.528
 30
0.0
 11
70.58939999999999
 21
98.085
 31
0.0
  0
LINE
  5
42
330
1E
100
AcDbEntity
  8
0
100
AcDbLine
 10
70.2604
 20
98.528
 30
0.0
 11
70.51032941569101
 21
99.29688302416309
 31
0.0
  0
LINE
  5
43
330
1E
100
AcDbEntity
  8
0
100
AcDbLine
 10
70.2604
 20
98.528
 30
0.0
 11
70.78740000000009
 21
98.69399999999991
 31
0.0
  0
LINE
  5
44
330
1E
100
AcDbEntity
  8
0
100
AcDbLine
 10
33.59859999999999
 20
110.104
 30
0.0
 11
34.5548
 21
109.6489999999999
 31
0.0
  0
LINE
  5
45
330
1E
100
AcDbEntity
  8
0
100
AcDbLine
 10
31.5098000000001
 20
111.969
 30
0.0
 11
33.46729518092359
 21
111.156574707191
 31
0.0
  0
LINE
  5
46
330
1E
100
AcDbEntity
  8
0
100
AcDbLine
 10
33.7964
 20
110.7129999999999
 30
0.0
 11
34.8374
 21
110.5189999999999
 31
0.0
  0
LINE
  5
48
330
1E
100
AcDbEntity
  8
0
100
AcDbLine
 10
33.2695
 20
110.5479999999999
 30
0.0
 11
33.59859999999999
 21
110.104
 31
0.0
  0
LINE
  5
49
330
1E
100
AcDbEntity
  8
0
100
AcDbLine
 10
33.2695
 20
110.5479999999999
 30
0.0
 11
33.5190385311955
 21
111.315778253474
 31
0.0
  0
LINE
  5
4A
330
1E
100
AcDbEntity
  8
0
100
AcDbLine
 10
33.2695
 20
110.5479999999999
 30
0.0
 11
33.7964
 21
110.7129999999999
 31
0.0
  0
LINE
  5
4B
330
1E
100
AcDbEntity
  8
0
100
AcDbLine
 10
33.2695
 20
110.5479999999999
 30
0.0
 11
33.46729518092359
 21
111.156574707191
 31
0.0
  0
LINE
  5
4C
330
1E
100
AcDbEntity
  8
0
100
AcDbLine
 10
34.8374
 20
110.5189999999999
 30
0.0
 11
35.79359999999999
 21
110.064
 31
0.0
  0
LINE
  5
4E
330
1E
100
AcDbEntity
  8
0
100
AcDbLine
 10
34.5548
 20
109.6489999999999
 30
0.0
 11
35.59579999999999
 21
109.4549999999999
 31
0.0
  0
LINE
  5
4F
330
1E
100
AcDbEntity
  8
0
100
AcDbLine
 10
37.7334000000001
 20
109.386
 30
0.0
 11
42.8509030614631
 21
107.6749666112319
 31
0.0
  0
LINE
  5
50
330
1E
100
AcDbEntity
  8
0
100
AcDbLine
 10
53.85850000000011
 20
104.3379999999999
 30
0.0
 11
54.8147
 21
103.8839999999999
 31
0.0
  0
LINE
  5
52
330
1E
100
AcDbEntity
  8
0
100
AcDbLine
 10
53.57600000000011
 20
103.4689999999999
 30
0.0
 11
54.61690000000011
 21
103.275
 31
0.0
  0
LINE
  5
53
330
1E
100
AcDbEntity
  8
0
100
AcDbLine
 10
52.6197
 20
103.9239999999999
 30
0.0
 11
53.57600000000011
 21
103.4689999999999
 31
0.0
  0
LINE
  5
54
330
1E
100
AcDbEntity
  8
0
100
AcDbLine
 10
52.8175000000001
 20
104.5329999999999
 30
0.0
 11
53.85850000000011
 21
104.3379999999999
 31
0.0
  0
LINE
  5
56
330
1E
100
AcDbEntity
  8
0
100
AcDbLine
 10
52.29060000000011
 20
104.367
 30
0.0
 11
52.6197
 21
103.9239999999999
 31
0.0
  0
LINE
  5
57
330
1E
100
AcDbEntity
  8
0
100
AcDbLine
 10
52.29060000000011
 20
104.367
 30
0.0
 11
52.5403061809261
 21
105.135587735414
 31
0.0
  0
LINE
  5
58
330
1E
100
AcDbEntity
  8
0
100
AcDbLine
 10
52.29060000000011
 20
104.367
 30
0.0
 11
52.8175000000001
 21
104.5329999999999
 31
0.0
  0
LINE
  5
59
330
1E
100
AcDbEntity
  8
0
100
AcDbLine
 10
52.29060000000011
 20
104.367
 30
0.0
 11
52.3354344444631
 21
104.504999003511
 31
0.0
  0
LINE
  5
5A
330
1E
100
AcDbEntity
  8
0
100
AcDbLine
 10
54.8147
 20
103.8839999999999
 30
0.0
 11
55.1438
 21
103.4399999999999
 31
0.0
  0
LINE
  5
5C
330
1E
100
AcDbEntity
  8
0
100
AcDbLine
 10
55.1803811258236
 20
103.5526146788859
 30
0.0
 11
61.8193516689094
 21
101.3328797554599
 31
0.0
  0
LINE
  5
5D
330
1E
100
AcDbEntity
  8
0
100
AcDbLine
 10
55.1803811258237
 20
103.5526146788859
 30
0.0
 11
61.8193516689094
 21
101.3328797554599
 31
0.0
  0
LINE
  5
5E
330
1E
100
AcDbEntity
  8
0
100
AcDbLine
 10
55.1438
 20
103.4399999999999
 30
0.0
 11
55.3528979565033
 21
104.083706247339
 31
0.0
  0
LINE
  5
5F
330
1E
100
AcDbEntity
  8
0
100
AcDbLine
 10
54.61690000000011
 20
103.275
 30
0.0
 11
55.1438
 21
103.4399999999999
 31
0.0
  0
LINE
  5
60
330
1E
100
AcDbEntity
  8
0
100
AcDbLine
 10
62.1303000000001
 20
100.834
 30
0.0
 11
63.0865
 21
100.3789999999999
 31
0.0
  0
LINE
  5
61
330
1E
100
AcDbEntity
  8
0
100
AcDbLine
 10
62.3281
 20
101.442
 30
0.0
 11
63.3691
 21
101.2479999999999
 31
0.0
  0
LINE
  5
63
330
1E
100
AcDbEntity
  8
0
100
AcDbLine
 10
61.8012
 20
101.2769999999999
 30
0.0
 11
62.1303000000001
 21
100.834
 31
0.0
  0
LINE
  5
64
330
1E
100
AcDbEntity
  8
0
100
AcDbLine
 10
61.8012
 20
101.2769999999999
 30
0.0
 11
62.00829572229078
 21
101.9145423866649
 31
0.0
  0
LINE
  5
65
330
1E
100
AcDbEntity
  8
0
100
AcDbLine
 10
61.8012
 20
101.2769999999999
 30
0.0
 11
62.3281
 21
101.442
 31
0.0
  0
LINE
  5
66
330
1E
100
AcDbEntity
  8
0
100
AcDbLine
 10
61.8012
 20
101.2769999999999
 30
0.0
 11
61.81948044556439
 21
101.333276193277
 31
0.0
  0
LINE
  5
67
330
1E
100
AcDbEntity
  8
0
100
AcDbLine
 10
64.3253000000001
 20
100.7929999999999
 30
0.0
 11
64.65440000000011
 21
100.35
 31
0.0
  0
LINE
  5
69
330
1E
100
AcDbEntity
  8
0
100
AcDbLine
 10
63.3691
 20
101.2479999999999
 30
0.0
 11
64.3253000000001
 21
100.7929999999999
 31
0.0
  0
LINE
  5
6B
330
1E
100
AcDbEntity
  8
0
100
AcDbLine
 10
65.0151
 20
102.7879999999999
 30
0.0
 11
65.6319000000001
 21
103.2299999999999
 31
0.0
  0
LINE
  5
6C
330
1E
100
AcDbEntity
  8
0
100
AcDbLine
 10
65.39279999999999
 20
103.95
 30
0.0
 11
65.6319000000001
 21
103.2299999999999
 31
0.0
  0
LINE
  5
6E
330
1E
100
AcDbEntity
  8
0
100
AcDbLine
 10
65.6319000000001
 20
103.2299999999999
 30
0.0
 11
65.71375926540961
 21
103.4818496006429
 31
0.0
  0
LINE
  5
6F
330
1E
100
AcDbEntity
  8
0
100
AcDbLine
 10
63.9355000000001
 20
102.8629999999999
 30
0.0
 11
65.0151
 21
102.7879999999999
 31
0.0
  0
LINE
  5
70
330
1E
100
AcDbEntity
  8
0
100
AcDbLine
 10
63.01780000000011
 20
103.437
 30
0.0
 11
63.9355000000001
 21
102.8629999999999
 31
0.0
  0
LINE
  5
71
330
1E
100
AcDbEntity
  8
0
100
AcDbLine
 10
63.39560000000011
 20
104.5989999999999
 30
0.0
 11
64.47510000000011
 21
104.5239999999999
 31
0.0
  0
LINE
  5
73
330
1E
100
AcDbEntity
  8
0
100
AcDbLine
 10
64.47510000000011
 20
104.5239999999999
 30
0.0
 11
65.39279999999999
 21
103.95
 31
0.0
  0
LINE
  5
75
330
1E
100
AcDbEntity
  8
0
100
AcDbLine
 10
62.7787000000001
 20
104.157
 30
0.0
 11
63.01780000000011
 21
103.437
 31
0.0
  0
LINE
  5
76
330
1E
100
AcDbEntity
  8
0
100
AcDbLine
 10
62.7787000000001
 20
104.157
 30
0.0
 11
62.97698231592949
 21
104.7673118637939
 31
0.0
  0
LINE
  5
77
330
1E
100
AcDbEntity
  8
0
100
AcDbLine
 10
62.7787000000001
 20
104.157
 30
0.0
 11
63.39560000000011
 21
104.5989999999999
 31
0.0
  0
LINE
  5
78
330
1E
100
AcDbEntity
  8
0
100
AcDbLine
 10
56.1213
 20
106.3199999999999
 30
0.0
 11
56.16078994155611
 21
106.44154982011
 31
0.0
  0
LINE
  5
79
330
1E
100
AcDbEntity
  8
0
100
AcDbLine
 10
55.50450000000011
 20
105.8779999999999
 30
0.0
 11
56.1213
 21
106.3199999999999
 31
0.0
  0
LINE
  5
7A
330
1E
100
AcDbEntity
  8
0
100
AcDbLine
 10
54.4249000000001
 20
105.9529999999999
 30
0.0
 11
55.50450000000011
 21
105.8779999999999
 31
0.0
  0
LINE
  5
7B
330
1E
100
AcDbEntity
  8
0
100
AcDbLine
 10
45.3042
 20
106.9739999999999
 30
0.0
 11
45.6332000000001
 21
106.53
 31
0.0
  0
LINE
  5
7D
330
1E
100
AcDbEntity
  8
0
100
AcDbLine
 10
45.696121361589
 20
106.723669962968
 30
0.0
 11
52.33508908039979
 21
104.503935983836
 31
0.0
  0
LINE
  5
7E
330
1E
100
AcDbEntity
  8
0
100
AcDbLine
 10
45.696121361589
 20
106.723669962968
 30
0.0
 11
52.33508908039979
 21
104.503935983836
 31
0.0
  0
LINE
  5
7F
330
1E
100
AcDbEntity
  8
0
100
AcDbLine
 10
53.50730000000011
 20
106.5269999999999
 30
0.0
 11
54.4249000000001
 21
105.9529999999999
 31
0.0
  0
LINE
  5
80
330
1E
100
AcDbEntity
  8
0
100
AcDbLine
 10
45.6332000000001
 20
106.53
 30
0.0
 11
45.82449715506419
 21
107.1188065992459
 31
0.0
  0
LINE
  5
81
330
1E
100
AcDbEntity
  8
0
100
AcDbLine
 10
45.6332000000001
 20
106.53
 30
0.0
 11
45.82449715506419
 21
107.1188065992459
 31
0.0
  0
LINE
  5
82
330
1E
100
AcDbEntity
  8
0
100
AcDbLine
 10
45.1064
 20
106.3649999999999
 30
0.0
 11
45.6332000000001
 21
106.53
 31
0.0
  0
LINE
  5
83
330
1E
100
AcDbEntity
  8
0
100
AcDbLine
 10
44.0654000000001
 20
106.559
 30
0.0
 11
45.1064
 21
106.3649999999999
 31
0.0
  0
LINE
  5
84
330
1E
100
AcDbEntity
  8
0
100
AcDbLine
 10
43.99669999999999
 20
109.617
 30
0.0
 11
44.91439999999999
 21
109.043
 31
0.0
  0
LINE
  5
85
330
1E
100
AcDbEntity
  8
0
100
AcDbLine
 10
43.30689999999999
 20
107.623
 30
0.0
 11
44.3479
 21
107.4289999999999
 31
0.0
  0
LINE
  5
87
330
1E
100
AcDbEntity
  8
0
100
AcDbLine
 10
53.885
 20
107.6889999999999
 30
0.0
 11
54.9645000000001
 21
107.6139999999999
 31
0.0
  0
LINE
  5
8A
330
1E
100
AcDbEntity
  8
0
100
AcDbLine
 10
54.9645000000001
 20
107.6139999999999
 30
0.0
 11
55.88219999999999
 21
107.04
 31
0.0
  0
LINE
  5
8C
330
1E
100
AcDbEntity
  8
0
100
AcDbLine
 10
55.88219999999999
 20
107.04
 30
0.0
 11
56.1213
 21
106.3199999999999
 31
0.0
  0
LINE
  5
8E
330
1E
100
AcDbEntity
  8
0
100
AcDbLine
 10
53.26820000000011
 20
107.247
 30
0.0
 11
53.50730000000011
 21
106.5269999999999
 31
0.0
  0
LINE
  5
8F
330
1E
100
AcDbEntity
  8
0
100
AcDbLine
 10
53.26820000000011
 20
107.247
 30
0.0
 11
53.42381416085171
 21
107.726074839478
 31
0.0
  0
LINE
  5
90
330
1E
100
AcDbEntity
  8
0
100
AcDbLine
 10
53.26820000000011
 20
107.247
 30
0.0
 11
53.885
 21
107.6889999999999
 31
0.0
  0
LINE
  5
91
330
1E
100
AcDbEntity
  8
0
100
AcDbLine
 10
45.99389999999999
 20
108.9679999999999
 30
0.0
 11
46.6108
 21
109.41
 31
0.0
  0
LINE
  5
92
330
1E
100
AcDbEntity
  8
0
100
AcDbLine
 10
46.6108
 20
109.41
 30
0.0
 11
46.6611460318474
 21
109.564995644314
 31
0.0
  0
LINE
  5
93
330
1E
100
AcDbEntity
  8
0
100
AcDbLine
 10
44.91439999999999
 20
109.043
 30
0.0
 11
45.99389999999999
 21
108.9679999999999
 31
0.0
  0
LINE
  5
94
330
1E
100
AcDbEntity
  8
0
100
AcDbLine
 10
44.3479
 20
107.4289999999999
 30
0.0
 11
45.3042
 21
106.9739999999999
 31
0.0
  0
LINE
  5
96
330
1E
100
AcDbEntity
  8
0
100
AcDbLine
 10
43.1092000000001
 20
107.014
 30
0.0
 11
44.0654000000001
 21
106.559
 31
0.0
  0
LINE
  5
97
330
1E
100
AcDbEntity
  8
0
100
AcDbLine
 10
42.7801
 20
107.457
 30
0.0
 11
43.1092000000001
 21
107.014
 31
0.0
  0
LINE
  5
98
330
1E
100
AcDbEntity
  8
0
100
AcDbLine
 10
42.7801
 20
107.457
 30
0.0
 11
43.0297347345592
 21
108.225498367348
 31
0.0
  0
LINE
  5
99
330
1E
100
AcDbEntity
  8
0
100
AcDbLine
 10
42.7801
 20
107.457
 30
0.0
 11
43.30689999999999
 21
107.623
 31
0.0
  0
LINE
  5
9A
330
1E
100
AcDbEntity
  8
0
100
AcDbLine
 10
42.7801
 20
107.457
 30
0.0
 11
42.8514649053526
 21
107.676696242777
 31
0.0
  0
LINE
  5
9B
330
1E
100
AcDbEntity
  8
0
100
AcDbLine
 10
36.2468453260747
 20
110.002969394362
 30
0.0
 11
37.7334000000001
 21
109.386
 31
0.0
  0
LINE
  5
9C
330
1E
100
AcDbEntity
  8
0
100
AcDbLine
 10
44.3744
 20
110.779
 30
0.0
 11
45.4540000000001
 21
110.704
 31
0.0
  0
LINE
  5
A0
330
1E
100
AcDbEntity
  8
0
100
AcDbLine
 10
45.4540000000001
 20
110.704
 30
0.0
 11
46.3717
 21
110.1299999999999
 31
0.0
  0
LINE
  5
A2
330
1E
100
AcDbEntity
  8
0
100
AcDbLine
 10
46.3717
 20
110.1299999999999
 30
0.0
 11
46.6108
 21
109.41
 31
0.0
  0
LINE
  5
A4
330
1E
100
AcDbEntity
  8
0
100
AcDbLine
 10
43.7576000000001
 20
110.3369999999999
 30
0.0
 11
43.99669999999999
 21
109.617
 31
0.0
  0
LINE
  5
A5
330
1E
100
AcDbEntity
  8
0
100
AcDbLine
 10
43.7576000000001
 20
110.3369999999999
 30
0.0
 11
43.92170186789569
 21
110.842205153502
 31
0.0
  0
LINE
  5
A6
330
1E
100
AcDbEntity
  8
0
100
AcDbLine
 10
43.7576000000001
 20
110.3369999999999
 30
0.0
 11
44.3744
 21
110.779
 31
0.0
  0
LINE
  5
A7
330
1E
100
AcDbEntity
  8
0
100
AcDbLine
 10
35.79359999999999
 20
110.064
 30
0.0
 11
36.1227
 21
109.621
 31
0.0
  0
LINE
  5
A9
330
1E
100
AcDbEntity
  8
0
100
AcDbLine
 10
36.1227
 20
109.621
 30
0.0
 11
36.3575224837747
 21
110.3435000307779
 31
0.0
  0
LINE
  5
AA
330
1E
100
AcDbEntity
  8
0
100
AcDbLine
 10
35.59579999999999
 20
109.4549999999999
 30
0.0
 11
36.1227
 21
109.621
 31
0.0
  0
LINE
  5
AB
330
1E
100
AcDbEntity
  8
0
100
AcDbLine
 10
37.1002
 20
112.5
 30
0.0
 11
37.2160147671875
 21
112.856548148933
 31
0.0
  0
LINE
  5
AC
330
1E
100
AcDbEntity
  8
0
100
AcDbLine
 10
36.4834
 20
112.0579999999999
 30
0.0
 11
37.1002
 21
112.5
 31
0.0
  0
LINE
  5
AD
330
1E
100
AcDbEntity
  8
0
100
AcDbLine
 10
35.40379999999999
 20
112.1329999999999
 30
0.0
 11
36.4834
 21
112.0579999999999
 31
0.0
  0
LINE
  5
AE
330
1E
100
AcDbEntity
  8
0
100
AcDbLine
 10
36.8611
 20
113.221
 30
0.0
 11
37.1002
 21
112.5
 31
0.0
  0
LINE
  5
B0
330
1E
100
AcDbEntity
  8
0
100
AcDbLine
 10
34.4861000000001
 20
112.707
 30
0.0
 11
35.40379999999999
 21
112.1329999999999
 31
0.0
  0
LINE
  5
B1
330
1E
100
AcDbEntity
  8
0
100
AcDbLine
 10
34.247
 20
113.427
 30
0.0
 11
34.4861000000001
 21
112.707
 31
0.0
  0
LINE
  5
B2
330
1E
100
AcDbEntity
  8
0
100
AcDbLine
 10
34.247
 20
113.427
 30
0.0
 11
34.48910419773339
 21
114.172195371853
 31
0.0
  0
LINE
  5
B3
330
1E
100
AcDbEntity
  8
0
100
AcDbLine
 10
34.247
 20
113.427
 30
0.0
 11
34.48910419773339
 21
114.172195371853
 31
0.0
  0
LINE
  5
B4
330
1E
100
AcDbEntity
  8
0
100
AcDbLine
 10
34.247
 20
113.427
 30
0.0
 11
34.8639
 21
113.87
 31
0.0
  0
LINE
  5
B5
330
1E
100
AcDbEntity
  8
0
100
AcDbLine
 10
26.8078
 20
113.6029999999999
 30
0.0
 11
27.0819027464196
 21
114.2849762784049
 31
0.0
  0
LINE
  5
B6
330
1E
100
AcDbEntity
  8
0
100
AcDbLine
 10
26.8078
 20
113.6029999999999
 30
0.0
 11
27.0819027464196
 21
114.2849762784049
 31
0.0
  0
LINE
  5
B7
330
1E
100
AcDbEntity
  8
0
100
AcDbLine
 10
26.2709000000001
 20
113.473
 30
0.0
 11
26.8078
 21
113.6029999999999
 31
0.0
  0
LINE
  5
B8
330
1E
100
AcDbEntity
  8
0
100
AcDbLine
 10
25.5864000000001
 20
114.586
 30
0.0
 11
26.5096000000001
 21
114.067
 31
0.0
  0
LINE
  5
BB
330
1E
100
AcDbEntity
  8
0
100
AcDbLine
 10
35.94339999999999
 20
113.7939999999999
 30
0.0
 11
36.8611
 21
113.221
 31
0.0
  0
LINE
  5
BD
330
1E
100
AcDbEntity
  8
0
100
AcDbLine
 10
27.0213214330125
 20
114.1342480598889
 30
0.0
 11
31.5098000000001
 21
111.969
 31
0.0
  0
LINE
  5
BE
330
1E
100
AcDbEntity
  8
0
100
AcDbLine
 10
27.0213214330125
 20
114.1342480598889
 30
0.0
 11
31.5098000000001
 21
111.969
 31
0.0
  0
LINE
  5
BF
330
1E
100
AcDbEntity
  8
0
100
AcDbLine
 10
34.8639
 20
113.87
 30
0.0
 11
35.94339999999999
 21
113.7939999999999
 31
0.0
  0
LINE
  5
C1
330
1E
100
AcDbEntity
  8
0
100
AcDbLine
 10
26.5096000000001
 20
114.067
 30
0.0
 11
26.8078
 21
113.6029999999999
 31
0.0
  0
LINE
  5
C3
330
1E
100
AcDbEntity
  8
0
100
AcDbLine
 10
25.2455000000001
 20
113.738
 30
0.0
 11
26.2709000000001
 21
113.473
 31
0.0
  0
LINE
  5
C4
330
1E
100
AcDbEntity
  8
0
100
AcDbLine
 10
24.3224
 20
114.256
 30
0.0
 11
25.2455000000001
 21
113.738
 31
0.0
  0
LINE
  5
C5
330
1E
100
AcDbEntity
  8
0
100
AcDbLine
 10
17.7608
 20
118.1189999999999
 30
0.0
 11
18.01983712802599
 21
118.763857282948
 31
0.0
  0
LINE
  5
C6
330
1E
100
AcDbEntity
  8
0
100
AcDbLine
 10
17.2239000000001
 20
117.9899999999999
 30
0.0
 11
17.7608
 21
118.1189999999999
 31
0.0
  0
LINE
  5
C7
330
1E
100
AcDbEntity
  8
0
100
AcDbLine
 10
16.6701000000001
 20
119.198
 30
0.0
 11
17.7496000000001
 21
119.123
 31
0.0
  0
LINE
  5
C8
330
1E
100
AcDbEntity
  8
0
100
AcDbLine
 10
16.5394000000001
 20
119.103
 30
0.0
 11
17.4625000000001
 21
118.5839999999999
 31
0.0
  0
LINE
  5
C9
330
1E
100
AcDbEntity
  8
0
100
AcDbLine
 10
16.5394000000001
 20
119.103
 30
0.0
 11
16.5961686974478
 21
119.2442423097579
 31
0.0
  0
LINE
  5
CA
330
1E
100
AcDbEntity
  8
0
100
AcDbLine
 10
17.4625000000001
 20
118.5839999999999
 30
0.0
 11
17.7608
 21
118.1189999999999
 31
0.0
  0
LINE
  5
CC
330
1E
100
AcDbEntity
  8
0
100
AcDbLine
 10
17.98889975285789
 20
118.686840556256
 30
0.0
 11
18.3292
 21
118.494
 31
0.0
  0
LINE
  5
CD
330
1E
100
AcDbEntity
  8
0
100
AcDbLine
 10
18.3292
 20
118.494
 30
0.0
 11
24.3138958591882
 21
115.442327719336
 31
0.0
  0
LINE
  5
CE
330
1E
100
AcDbEntity
  8
0
100
AcDbLine
 10
17.7496000000001
 20
119.123
 30
0.0
 11
18.3664000000001
 21
119.565
 31
0.0
  0
LINE
  5
CF
330
1E
100
AcDbEntity
  8
0
100
AcDbLine
 10
16.1985000000001
 20
118.2539999999999
 30
0.0
 11
17.2239000000001
 21
117.9899999999999
 31
0.0
  0
LINE
  5
D0
330
1E
100
AcDbEntity
  8
0
100
AcDbLine
 10
15.2753
 20
118.7729999999999
 30
0.0
 11
16.1985000000001
 21
118.2539999999999
 31
0.0
  0
LINE
  5
D1
330
1E
100
AcDbEntity
  8
0
100
AcDbLine
 10
0.24390000000004
 20
131.661
 30
0.0
 11
1.878900000000039
 21
129.4479999999999
 31
0.0
  0
LINE
  5
D5
330
1E
100
AcDbEntity
  8
0
100
AcDbLine
 10
-0.179399999999956
 20
133.9799999999999
 30
0.0
 11
0.24390000000004
 21
131.661
 31
0.0
  0
LINE
  5
D9
330
1E
100
AcDbEntity
  8
0
100
AcDbLine
 10
1.878900000000039
 20
129.4479999999999
 30
0.0
 11
4.57810000000004
 21
126.888
 31
0.0
  0
LINE
  5
E9
330
1E
100
AcDbEntity
  8
0
100
AcDbLine
 10
-0.179399999999956
 20
133.9799999999999
 30
0.0
 11
0.500000000000045
 21
134.831
 31
0.0
  0
LINE
  5
EB
330
1E
100
AcDbEntity
  8
0
100
AcDbLine
 10
0.500000000000045
 20
134.831
 30
0.0
 11
4.090300000000049
 21
134.7359999999999
 31
0.0
  0
LINE
  5
ED
330
1E
100
AcDbEntity
  8
0
100
AcDbLine
 10
4.57810000000004
 20
126.888
 30
0.0
 11
7.44300000000005
 21
124.8359999999999
 31
0.0
  0
LINE
  5
EE
330
1E
100
AcDbEntity
  8
0
100
AcDbLine
 10
7.44300000000005
 20
124.8359999999999
 30
0.0
 11
11.3711
 21
122.437
 31
0.0
  0
LINE
  5
F2
330
1E
100
AcDbEntity
  8
0
100
AcDbLine
 10
11.3711
 20
122.437
 30
0.0
 11
15.3553881389419
 21
120.179192821051
 31
0.0
  0
LINE
  5
105
330
1E
100
AcDbEntity
  8
0
100
AcDbLine
 10
11.6840000000001
 20
133.341
 30
0.0
 11
11.82470000000009
 21
133.2959999999999
 31
0.0
  0
LINE
  5
106
330
1E
100
AcDbEntity
  8
0
100
AcDbLine
 10
4.090300000000049
 20
134.7359999999999
 30
0.0
 11
11.6840000000001
 21
133.341
 31
0.0
  0
LINE
  5
107
330
1E
100
AcDbEntity
  8
0
100
AcDbLine
 10
15.5133000000001
 20
120.4919999999999
 30
0.0
 11
15.75239999999999
 21
119.772
 31
0.0
  0
LINE
  5
108
330
1E
100
AcDbEntity
  8
0
100
AcDbLine
 10
15.5133000000001
 20
120.4919999999999
 30
0.0
 11
15.67007996019849
 21
120.974663877467
 31
0.0
  0
LINE
  5
109
330
1E
100
AcDbEntity
  8
0
100
AcDbLine
 10
15.5133000000001
 20
120.4919999999999
 30
0.0
 11
16.1301000000001
 21
120.934
 31
0.0
  0
LINE
  5
10A
330
1E
100
AcDbEntity
  8
0
100
AcDbLine
 10
18.3664000000001
 20
119.565
 30
0.0
 11
18.4287968347958
 21
119.757057109887
 31
0.0
  0
LINE
  5
10D
330
1E
100
AcDbEntity
  8
0
100
AcDbLine
 10
11.82470000000009
 20
133.2959999999999
 30
0.0
 11
18.7199000000001
 21
131.055
 31
0.0
  0
LINE
  5
10E
330
1E
100
AcDbEntity
  8
0
100
AcDbLine
 10
16.1301000000001
 20
120.934
 30
0.0
 11
17.2097
 21
120.859
 31
0.0
  0
LINE
  5
110
330
1E
100
AcDbEntity
  8
0
100
AcDbLine
 10
17.2097
 20
120.859
 30
0.0
 11
18.1273000000001
 21
120.2849999999999
 31
0.0
  0
LINE
  5
115
330
1E
100
AcDbEntity
  8
0
100
AcDbLine
 10
18.7199000000001
 20
131.055
 30
0.0
 11
20.4717000000001
 21
130.4859999999999
 31
0.0
  0
LINE
  5
116
330
1E
100
AcDbEntity
  8
0
100
AcDbLine
 10
20.4717000000001
 20
130.4859999999999
 30
0.0
 11
24.3378
 21
129.23
 31
0.0
  0
LINE
  5
117
330
1E
100
AcDbEntity
  8
0
100
AcDbLine
 10
18.1273000000001
 20
120.2849999999999
 30
0.0
 11
18.3664000000001
 21
119.565
 31
0.0
  0
LINE
  5
119
330
1E
100
AcDbEntity
  8
0
100
AcDbLine
 10
15.75239999999999
 20
119.772
 30
0.0
 11
16.6701000000001
 21
119.198
 31
0.0
  0
LINE
  5
11A
330
1E
100
AcDbEntity
  8
0
100
AcDbLine
 10
15.5140000000001
 20
119.367
 30
0.0
 11
16.5394000000001
 21
119.103
 31
0.0
  0
LINE
  5
11C
330
1E
100
AcDbEntity
  8
0
100
AcDbLine
 10
14.9771000000001
 20
119.2379999999999
 30
0.0
 11
15.2753
 21
118.7729999999999
 31
0.0
  0
LINE
  5
11D
330
1E
100
AcDbEntity
  8
0
100
AcDbLine
 10
14.9771000000001
 20
119.2379999999999
 30
0.0
 11
15.38800738432009
 21
120.260350532376
 31
0.0
  0
LINE
  5
11E
330
1E
100
AcDbEntity
  8
0
100
AcDbLine
 10
14.9771000000001
 20
119.2379999999999
 30
0.0
 11
15.5140000000001
 21
119.367
 31
0.0
  0
LINE
  5
11F
330
1E
100
AcDbEntity
  8
0
100
AcDbLine
 10
14.9771000000001
 20
119.2379999999999
 30
0.0
 11
15.3553881389419
 21
120.179192821051
 31
0.0
  0
LINE
  5
122
330
1E
100
AcDbEntity
  8
0
100
AcDbLine
 10
27.7225000000001
 20
115.999
 30
0.0
 11
27.7971785356552
 21
116.22886011671
 31
0.0
  0
LINE
  5
123
330
1E
100
AcDbEntity
  8
0
100
AcDbLine
 10
27.1057
 20
115.5569999999999
 30
0.0
 11
27.7225000000001
 21
115.999
 31
0.0
  0
LINE
  5
124
330
1E
100
AcDbEntity
  8
0
100
AcDbLine
 10
26.0261
 20
115.633
 30
0.0
 11
27.1057
 21
115.5569999999999
 31
0.0
  0
LINE
  5
125
330
1E
100
AcDbEntity
  8
0
100
AcDbLine
 10
25.4862000000001
 20
117.369
 30
0.0
 11
26.5657
 21
117.293
 31
0.0
  0
LINE
  5
127
330
1E
100
AcDbEntity
  8
0
100
AcDbLine
 10
26.5657
 20
117.293
 30
0.0
 11
27.48340000000009
 21
116.72
 31
0.0
  0
LINE
  5
12A
330
1E
100
AcDbEntity
  8
0
100
AcDbLine
 10
56.5776000000001
 20
118.754
 30
0.0
 11
72.0954
 21
113.7129999999999
 31
0.0
  0
LINE
  5
12B
330
1E
100
AcDbEntity
  8
0
100
AcDbLine
 10
27.48340000000009
 20
116.72
 30
0.0
 11
27.7225000000001
 21
115.999
 31
0.0
  0
LINE
  5
12D
330
1E
100
AcDbEntity
  8
0
100
AcDbLine
 10
25.10839999999999
 20
116.206
 30
0.0
 11
26.0261
 21
115.633
 31
0.0
  0
LINE
  5
12E
330
1E
100
AcDbEntity
  8
0
100
AcDbLine
 10
24.8693
 20
116.9259999999999
 30
0.0
 11
25.10839999999999
 21
116.206
 31
0.0
  0
LINE
  5
12F
330
1E
100
AcDbEntity
  8
0
100
AcDbLine
 10
24.8693
 20
116.9259999999999
 30
0.0
 11
24.9683923830871
 21
117.231005803095
 31
0.0
  0
LINE
  5
130
330
1E
100
AcDbEntity
  8
0
100
AcDbLine
 10
24.8693
 20
116.9259999999999
 30
0.0
 11
25.4862000000001
 21
117.369
 31
0.0
  0
LINE
  5
137
330
1E
100
AcDbEntity
  8
0
100
AcDbLine
 10
24.56100000000009
 20
114.85
 30
0.0
 11
25.5864000000001
 21
114.586
 31
0.0
  0
LINE
  5
139
330
1E
100
AcDbEntity
  8
0
100
AcDbLine
 10
24.0241000000001
 20
114.721
 30
0.0
 11
24.3224
 21
114.256
 31
0.0
  0
LINE
  5
13A
330
1E
100
AcDbEntity
  8
0
100
AcDbLine
 10
24.0241000000001
 20
114.721
 30
0.0
 11
24.3640806247999
 21
115.567242073274
 31
0.0
  0
LINE
  5
13B
330
1E
100
AcDbEntity
  8
0
100
AcDbLine
 10
24.0241000000001
 20
114.721
 30
0.0
 11
24.56100000000009
 21
114.85
 31
0.0
  0
LINE
  5
13C
330
1E
100
AcDbEntity
  8
0
100
AcDbLine
 10
24.0241000000001
 20
114.721
 30
0.0
 11
24.3138958591882
 21
115.442327719336
 31
0.0
  0
LINE
  5
13F
330
1E
100
AcDbEntity
  8
0
100
AcDbLine
 10
71.16240000000009
 20
101.4329999999999
 30
0.0
 11
71.40140000000009
 21
100.7129999999999
 31
0.0
  0
LINE
  5
140
330
1E
100
AcDbEntity
  8
0
100
AcDbLine
 10
71.16240000000009
 20
101.4329999999999
 30
0.0
 11
71.24417958423579
 21
101.6850179617779
 31
0.0
  0
LINE
  5
141
330
1E
100
AcDbEntity
  8
0
100
AcDbLine
 10
71.16240000000009
 20
101.4329999999999
 30
0.0
 11
71.77939999999999
 21
101.875
 31
0.0
  0
LINE
  5
142
330
1E
100
AcDbEntity
  8
0
100
AcDbLine
 10
71.40140000000009
 20
100.7129999999999
 30
0.0
 11
72.3194000000001
 21
100.139
 31
0.0
  0
LINE
  5
144
330
1E
100
AcDbEntity
  8
0
100
AcDbLine
 10
71.8284000000001
 20
98.50000000000001
 30
0.0
 11
72.78440000000009
 21
98.045
 31
0.0
  0
LINE
  5
146
330
1E
100
AcDbEntity
  8
0
100
AcDbLine
 10
73.77639999999999
 20
101.2259999999999
 30
0.0
 11
74.0154000000001
 21
100.506
 31
0.0
  0
LINE
  5
147
330
1E
100
AcDbEntity
  8
0
100
AcDbLine
 10
72.0954
 20
113.7129999999999
 30
0.0
 11
95.06005654953822
 21
106.2510782779529
 31
0.0
  0
LINE
  5
148
330
1E
100
AcDbEntity
  8
0
100
AcDbLine
 10
72.0954
 20
113.7129999999999
 30
0.0
 11
87.61240000000009
 21
108.671
 31
0.0
  0
LINE
  5
149
330
1E
100
AcDbEntity
  8
0
100
AcDbLine
 10
72.09540000055921
 20
113.7129999998179
 30
0.0
 11
95.06005654953822
 21
106.2510782779529
 31
0.0
  0
LINE
  5
14B
330
1E
100
AcDbEntity
  8
0
100
AcDbLine
 10
72.85840000000009
 20
101.8
 30
0.0
 11
73.77639999999999
 21
101.2259999999999
 31
0.0
  0
LINE
  5
14D
330
1E
100
AcDbEntity
  8
0
100
AcDbLine
 10
71.77939999999999
 20
101.875
 30
0.0
 11
72.85840000000009
 21
101.8
 31
0.0
  0
LINE
  5
14E
330
1E
100
AcDbEntity
  8
0
100
AcDbLine
 10
72.3194000000001
 20
100.139
 30
0.0
 11
73.39840000000009
 21
100.0639999999999
 31
0.0
  0
LINE
  5
14F
330
1E
100
AcDbEntity
  8
0
100
AcDbLine
 10
74.0154000000001
 20
100.506
 30
0.0
 11
74.21401362236778
 21
101.1164506166609
 31
0.0
  0
LINE
  5
150
330
1E
100
AcDbEntity
  8
0
100
AcDbLine
 10
73.39840000000009
 20
100.0639999999999
 30
0.0
 11
74.0154000000001
 21
100.506
 31
0.0
  0
LINE
  5
151
330
1E
100
AcDbEntity
  8
0
100
AcDbLine
 10
80.6724000000001
 20
98.34299999999998
 30
0.0
 11
80.91240000000009
 21
97.62200000000001
 31
0.0
  0
LINE
  5
152
330
1E
100
AcDbEntity
  8
0
100
AcDbLine
 10
80.6724000000001
 20
98.34299999999998
 30
0.0
 11
80.71191905729078
 21
98.4644641403012
 31
0.0
  0
LINE
  5
153
330
1E
100
AcDbEntity
  8
0
100
AcDbLine
 10
80.6724000000001
 20
98.34299999999998
 30
0.0
 11
81.2894000000001
 21
98.785
 31
0.0
  0
LINE
  5
155
330
1E
100
AcDbEntity
  8
0
100
AcDbLine
 10
83.28740000000008
 20
98.136
 30
0.0
 11
83.52640000000009
 21
97.416
 31
0.0
  0
LINE
  5
157
330
1E
100
AcDbEntity
  8
0
100
AcDbLine
 10
82.3694
 20
98.71
 30
0.0
 11
83.28740000000008
 21
98.136
 31
0.0
  0
LINE
  5
159
330
1E
100
AcDbEntity
  8
0
100
AcDbLine
 10
81.2894000000001
 20
98.785
 30
0.0
 11
82.3694
 21
98.71
 31
0.0
  0
LINE
  5
15A
330
1E
100
AcDbEntity
  8
0
100
AcDbLine
 10
80.91240000000009
 20
97.62200000000001
 30
0.0
 11
81.8294
 21
97.049
 31
0.0
  0
LINE
  5
15B
330
1E
100
AcDbEntity
  8
0
100
AcDbLine
 10
81.8294
 20
97.049
 30
0.0
 11
82.9094
 21
96.973
 31
0.0
  0
LINE
  5
15C
330
1E
100
AcDbEntity
  8
0
100
AcDbLine
 10
83.52640000000009
 20
97.416
 30
0.0
 11
83.6818767478949
 21
97.89481882917421
 31
0.0
  0
LINE
  5
15D
330
1E
100
AcDbEntity
  8
0
100
AcDbLine
 10
82.9094
 20
96.973
 30
0.0
 11
83.52640000000009
 21
97.416
 31
0.0
  0
LINE
  5
15E
330
1E
100
AcDbEntity
  8
0
100
AcDbLine
 10
97.3514000000001
 20
90.015
 30
0.0
 11
98.91644997449329
 21
89.64027645200978
 31
0.0
  0
LINE
  5
162
330
1E
100
AcDbEntity
  8
0
100
AcDbLine
 10
89.28140000000009
 20
92.34799999999999
 30
0.0
 11
89.61040000000009
 21
91.905
 31
0.0
  0
LINE
  5
163
330
1E
100
AcDbEntity
  8
0
100
AcDbLine
 10
89.28140000000009
 20
92.34799999999999
 30
0.0
 11
89.4727885788208
 21
92.9367879538595
 31
0.0
  0
LINE
  5
164
330
1E
100
AcDbEntity
  8
0
100
AcDbLine
 10
89.28140000000009
 20
92.34799999999999
 30
0.0
 11
89.80840000000009
 21
92.51299999999998
 31
0.0
  0
LINE
  5
165
330
1E
100
AcDbEntity
  8
0
100
AcDbLine
 10
89.28140000000009
 20
92.34799999999999
 30
0.0
 11
89.34476387266292
 21
92.54293266089149
 31
0.0
  0
LINE
  5
167
330
1E
100
AcDbEntity
  8
0
100
AcDbLine
 10
91.80540000000009
 20
91.865
 30
0.0
 11
92.1344000000001
 21
91.42100000000001
 31
0.0
  0
LINE
  5
169
330
1E
100
AcDbEntity
  8
0
100
AcDbLine
 10
90.84940000000001
 20
92.31900000000001
 30
0.0
 11
91.80540000000009
 21
91.865
 31
0.0
  0
LINE
  5
16B
330
1E
100
AcDbEntity
  8
0
100
AcDbLine
 10
90.80040000000009
 20
95.69499999999999
 30
0.0
 11
91.87940000000001
 21
95.61899999999999
 31
0.0
  0
LINE
  5
16C
330
1E
100
AcDbEntity
  8
0
100
AcDbLine
 10
90.18340000000009
 20
95.25299999999999
 30
0.0
 11
90.4224000000001
 21
94.532
 31
0.0
  0
LINE
  5
16D
330
1E
100
AcDbEntity
  8
0
100
AcDbLine
 10
90.18340000000009
 20
95.25299999999999
 30
0.0
 11
90.23372397284651
 21
95.4076736819494
 31
0.0
  0
LINE
  5
16E
330
1E
100
AcDbEntity
  8
0
100
AcDbLine
 10
90.18340000000009
 20
95.25299999999999
 30
0.0
 11
90.80040000000009
 21
95.69499999999999
 31
0.0
  0
LINE
  5
16F
330
1E
100
AcDbEntity
  8
0
100
AcDbLine
 10
90.4224000000001
 20
94.532
 30
0.0
 11
91.34040000000011
 21
93.95900000000001
 31
0.0
  0
LINE
  5
171
330
1E
100
AcDbEntity
  8
0
100
AcDbLine
 10
91.87940000000001
 20
95.61899999999999
 30
0.0
 11
92.79740000000009
 21
95.04600000000001
 31
0.0
  0
LINE
  5
172
330
1E
100
AcDbEntity
  8
0
100
AcDbLine
 10
91.34040000000011
 20
93.95900000000001
 30
0.0
 11
92.4194000000001
 21
93.88299999999999
 31
0.0
  0
LINE
  5
174
330
1E
100
AcDbEntity
  8
0
100
AcDbLine
 10
89.80840000000009
 20
92.51299999999998
 30
0.0
 11
90.84940000000001
 21
92.31900000000001
 31
0.0
  0
LINE
  5
175
330
1E
100
AcDbEntity
  8
0
100
AcDbLine
 10
89.61040000000009
 20
91.905
 30
0.0
 11
90.5664000000001
 21
91.45000000000001
 31
0.0
  0
LINE
  5
176
330
1E
100
AcDbEntity
  8
0
100
AcDbLine
 10
90.5664000000001
 20
91.45000000000001
 30
0.0
 11
91.60740000000009
 21
91.256
 31
0.0
  0
LINE
  5
177
330
1E
100
AcDbEntity
  8
0
100
AcDbLine
 10
92.20520694612529
 20
91.63883053714581
 30
0.0
 11
97.3514000000001
 21
90.015
 31
0.0
  0
LINE
  5
179
330
1E
100
AcDbEntity
  8
0
100
AcDbLine
 10
92.79740000000009
 20
95.04600000000001
 30
0.0
 11
93.0364000000001
 21
94.325
 31
0.0
  0
LINE
  5
17A
330
1E
100
AcDbEntity
  8
0
100
AcDbLine
 10
93.0364000000001
 20
94.325
 30
0.0
 11
93.20081982766099
 21
94.83068086161329
 31
0.0
  0
LINE
  5
17B
330
1E
100
AcDbEntity
  8
0
100
AcDbLine
 10
92.4194000000001
 20
93.88299999999999
 30
0.0
 11
93.0364000000001
 21
94.325
 31
0.0
  0
LINE
  5
17C
330
1E
100
AcDbEntity
  8
0
100
AcDbLine
 10
92.1344000000001
 20
91.42100000000001
 30
0.0
 11
92.3842299724497
 21
92.18957709690782
 31
0.0
  0
LINE
  5
17D
330
1E
100
AcDbEntity
  8
0
100
AcDbLine
 10
91.60740000000009
 20
91.256
 30
0.0
 11
92.1344000000001
 21
91.42100000000001
 31
0.0
  0
LINE
  5
17E
330
1E
100
AcDbEntity
  8
0
100
AcDbLine
 10
98.7924000000001
 20
89.25800000000009
 30
0.0
 11
99.12140000000009
 21
88.815
 31
0.0
  0
LINE
  5
17F
330
1E
100
AcDbEntity
  8
0
100
AcDbLine
 10
98.7924000000001
 20
89.25800000000009
 30
0.0
 11
99.0270924122074
 21
89.98123580088391
 31
0.0
  0
LINE
  5
180
330
1E
100
AcDbEntity
  8
0
100
AcDbLine
 10
98.7924000000001
 20
89.25800000000009
 30
0.0
 11
99.31940000000011
 21
89.42299999999999
 31
0.0
  0
LINE
  5
181
330
1E
100
AcDbEntity
  8
0
100
AcDbLine
 10
98.7924000000001
 20
89.25800000000009
 30
0.0
 11
98.91644997449329
 21
89.64027645200978
 31
0.0
  0
LINE
  5
182
330
1E
100
AcDbEntity
  8
0
100
AcDbLine
 10
98.7924000000001
 20
89.25800000000009
 30
0.0
 11
98.91644997449329
 21
89.64027645200978
 31
0.0
  0
LINE
  5
184
330
1E
100
AcDbEntity
  8
0
100
AcDbLine
 10
100.3603999999999
 20
89.229
 30
0.0
 11
101.3163999999999
 21
88.77399999999999
 31
0.0
  0
LINE
  5
18A
330
1E
100
AcDbEntity
  8
0
100
AcDbLine
 10
100.3103999999999
 20
92.605
 30
0.0
 11
101.3903999999999
 21
92.529
 31
0.0
  0
LINE
  5
18B
330
1E
100
AcDbEntity
  8
0
100
AcDbLine
 10
99.69440000000011
 20
92.162
 30
0.0
 11
99.9334000000001
 21
91.4420000000001
 31
0.0
  0
LINE
  5
18C
330
1E
100
AcDbEntity
  8
0
100
AcDbLine
 10
99.69440000000011
 20
92.162
 30
0.0
 11
99.8100384118792
 21
92.51835980712549
 31
0.0
  0
LINE
  5
18D
330
1E
100
AcDbEntity
  8
0
100
AcDbLine
 10
99.69440000000011
 20
92.162
 30
0.0
 11
100.3103999999999
 21
92.605
 31
0.0
  0
LINE
  5
18E
330
1E
100
AcDbEntity
  8
0
100
AcDbLine
 10
99.9334000000001
 20
91.4420000000001
 30
0.0
 11
100.8503999999999
 21
90.868
 31
0.0
  0
LINE
  5
18F
330
1E
100
AcDbEntity
  8
0
100
AcDbLine
 10
100.8503999999999
 20
90.868
 30
0.0
 11
101.9303999999999
 21
90.79299999999999
 31
0.0
  0
LINE
  5
191
330
1E
100
AcDbEntity
  8
0
100
AcDbLine
 10
99.31940000000011
 20
89.42299999999999
 30
0.0
 11
100.3603999999999
 21
89.229
 31
0.0
  0
LINE
  5
192
330
1E
100
AcDbEntity
  8
0
100
AcDbLine
 10
99.12140000000009
 20
88.815
 30
0.0
 11
100.0774
 21
88.36
 31
0.0
  0
LINE
  5
193
330
1E
100
AcDbEntity
  8
0
100
AcDbLine
 10
100.0774
 20
88.36
 30
0.0
 11
101.1183999999999
 21
88.16599999999999
 31
0.0
  0
LINE
  5
194
330
1E
100
AcDbEntity
  8
0
100
AcDbLine
 10
101.8432017630169
 20
88.9395174780752
 30
0.0
 11
103.9044
 21
88.44599999999999
 31
0.0
  0
LINE
  5
195
330
1E
100
AcDbEntity
  8
0
100
AcDbLine
 10
101.8432017630169
 20
88.9395174780752
 30
0.0
 11
103.9044
 21
88.44599999999999
 31
0.0
  0
LINE
  5
196
330
1E
100
AcDbEntity
  8
0
100
AcDbLine
 10
103.9044
 20
88.44599999999999
 30
0.0
 11
108.8083015133159
 21
87.5599956916316
 31
0.0
  0
LINE
  5
198
330
1E
100
AcDbEntity
  8
0
100
AcDbLine
 10
102.3084
 20
91.956
 30
0.0
 11
102.5473999999999
 21
91.23499999999999
 31
0.0
  0
LINE
  5
19C
330
1E
100
AcDbEntity
  8
0
100
AcDbLine
 10
101.3903999999999
 20
92.529
 30
0.0
 11
102.3084
 21
91.956
 31
0.0
  0
LINE
  5
19D
330
1E
100
AcDbEntity
  8
0
100
AcDbLine
 10
102.5473999999999
 20
91.23499999999999
 30
0.0
 11
102.7891299883029
 21
91.97993285240109
 31
0.0
  0
LINE
  5
19E
330
1E
100
AcDbEntity
  8
0
100
AcDbLine
 10
101.9303999999999
 20
90.79299999999999
 30
0.0
 11
102.5473999999999
 21
91.23499999999999
 31
0.0
  0
LINE
  5
1A0
330
1E
100
AcDbEntity
  8
0
100
AcDbLine
 10
101.3163999999999
 20
88.77399999999999
 30
0.0
 11
101.6453999999999
 21
88.33099999999999
 31
0.0
  0
LINE
  5
1A1
330
1E
100
AcDbEntity
  8
0
100
AcDbLine
 10
101.6453999999999
 20
88.33099999999999
 30
0.0
 11
101.8951312968589
 21
89.09927353125508
 31
0.0
  0
LINE
  5
1A2
330
1E
100
AcDbEntity
  8
0
100
AcDbLine
 10
101.1183999999999
 20
88.16599999999999
 30
0.0
 11
101.6453999999999
 21
88.33099999999999
 31
0.0
  0
LINE
  5
1A3
330
1E
100
AcDbEntity
  8
0
100
AcDbLine
 10
108.6683999999999
 20
87.004
 30
0.0
 11
109.0273999999999
 21
86.584
 31
0.0
  0
LINE
  5
1A4
330
1E
100
AcDbEntity
  8
0
100
AcDbLine
 10
108.6683999999999
 20
87.004
 30
0.0
 11
108.8478953922739
 21
87.717349429942
 31
0.0
  0
LINE
  5
1A5
330
1E
100
AcDbEntity
  8
0
100
AcDbLine
 10
108.6683999999999
 20
87.004
 30
0.0
 11
109.1834
 21
87.20499999999999
 31
0.0
  0
LINE
  5
1A6
330
1E
100
AcDbEntity
  8
0
100
AcDbLine
 10
108.6683999999999
 20
87.004
 30
0.0
 11
108.8083015133159
 21
87.5599956916316
 31
0.0
  0
LINE
  5
1A8
330
1E
100
AcDbEntity
  8
0
100
AcDbLine
 10
110.2343999999999
 20
87.0820000000001
 30
0.0
 11
111.2193999999999
 21
86.69299999999999
 31
0.0
  0
LINE
  5
1AA
330
1E
100
AcDbEntity
  8
0
100
AcDbLine
 10
109.9544
 20
89.92299999999998
 30
0.0
 11
111.0333999999999
 21
89.84799999999999
 31
0.0
  0
LINE
  5
1AB
330
1E
100
AcDbEntity
  8
0
100
AcDbLine
 10
109.3374
 20
89.48100000000001
 30
0.0
 11
109.5764
 21
88.76100000000009
 31
0.0
  0
LINE
  5
1AC
330
1E
100
AcDbEntity
  8
0
100
AcDbLine
 10
109.3374
 20
89.48100000000001
 30
0.0
 11
109.4120859086959
 21
89.71070000149509
 31
0.0
  0
LINE
  5
1AD
330
1E
100
AcDbEntity
  8
0
100
AcDbLine
 10
109.3374
 20
89.48100000000001
 30
0.0
 11
109.9544
 21
89.92299999999998
 31
0.0
  0
LINE
  5
1AE
330
1E
100
AcDbEntity
  8
0
100
AcDbLine
 10
109.5764
 20
88.76100000000009
 30
0.0
 11
110.4943999999999
 21
88.18700000000001
 31
0.0
  0
LINE
  5
1B2
330
1E
100
AcDbEntity
  8
0
100
AcDbLine
 10
111.0333999999999
 20
89.84799999999999
 30
0.0
 11
111.9514
 21
89.274
 31
0.0
  0
LINE
  5
1B3
330
1E
100
AcDbEntity
  8
0
100
AcDbLine
 10
110.4943999999999
 20
88.18700000000001
 30
0.0
 11
111.5734
 21
88.1120000000001
 31
0.0
  0
LINE
  5
1B5
330
1E
100
AcDbEntity
  8
0
100
AcDbLine
 10
109.1834
 20
87.20499999999999
 30
0.0
 11
110.2343999999999
 21
87.0820000000001
 31
0.0
  0
LINE
  5
1B6
330
1E
100
AcDbEntity
  8
0
100
AcDbLine
 10
109.0273999999999
 20
86.584
 30
0.0
 11
110.0124
 21
86.195
 31
0.0
  0
LINE
  5
1B7
330
1E
100
AcDbEntity
  8
0
100
AcDbLine
 10
110.0124
 20
86.195
 30
0.0
 11
111.0634
 21
86.07200000000011
 31
0.0
  0
LINE
  5
1B8
330
1E
100
AcDbEntity
  8
0
100
AcDbLine
 10
178.6983999999999
 20
37.832
 30
0.0
 11
196.0623999999999
 21
22.678
 31
0.0
  0
LINE
  5
1B9
330
1E
100
AcDbEntity
  8
0
100
AcDbLine
 10
196.0623999999999
 20
22.678
 30
0.0
 11
221.4704
 21
3.167999999999979
 31
0.0
  0
LINE
  5
1BB
330
1E
100
AcDbEntity
  8
0
100
AcDbLine
 10
221.4704
 20
3.167999999999979
 30
0.0
 11
221.9154
 21
3.779999999999999
 31
0.0
  0
LINE
  5
1BC
330
1E
100
AcDbEntity
  8
0
100
AcDbLine
 10
221.4704
 20
3.167999999999979
 30
0.0
 11
222.7940092165539
 21
4.967637935778929
 31
0.0
  0
LINE
  5
1BD
330
1E
100
AcDbEntity
  8
0
100
AcDbLine
 10
221.4704
 20
3.167999999999979
 30
0.0
 11
222.7940092165539
 21
4.967637935778929
 31
0.0
  0
LINE
  5
1BE
330
1E
100
AcDbEntity
  8
0
100
AcDbLine
 10
221.9154
 20
3.779999999999999
 30
0.0
 11
223.1003999999999
 21
5.41099999999999
 31
0.0
  0
LINE
  5
1C0
330
1E
100
AcDbEntity
  8
0
100
AcDbLine
 10
222.758367272055
 20
4.91917756347154
 30
0.0
 11
229.1603999999999
 21
0.268000000000017
 31
0.0
  0
LINE
  5
1C1
330
1E
100
AcDbEntity
  8
0
100
AcDbLine
 10
166.3094
 20
49.265
 30
0.0
 11
178.6983999999999
 21
37.832
 31
0.0
  0
LINE
  5
1C4
330
1E
100
AcDbEntity
  8
0
100
AcDbLine
 10
157.5903999999999
 20
57.74
 30
0.0
 11
166.3094
 21
49.265
 31
0.0
  0
LINE
  5
1C7
330
1E
100
AcDbEntity
  8
0
100
AcDbLine
 10
149.5103999999999
 20
66.12999999999999
 30
0.0
 11
157.5903999999999
 21
57.74
 31
0.0
  0
LINE
  5
1C8
330
1E
100
AcDbEntity
  8
0
100
AcDbLine
 10
142.1424
 20
71.8429999999999
 30
0.0
 11
149.5103999999999
 21
66.12999999999999
 31
0.0
  0
LINE
  5
1C9
330
1E
100
AcDbEntity
  8
0
100
AcDbLine
 10
134.5804
 20
76.92499999999999
 30
0.0
 11
142.1424
 21
71.8429999999999
 31
0.0
  0
LINE
  5
1CA
330
1E
100
AcDbEntity
  8
0
100
AcDbLine
 10
132.0603999999999
 20
78.381
 30
0.0
 11
134.5804
 21
76.92499999999999
 31
0.0
  0
LINE
  5
1CF
330
1E
100
AcDbEntity
  8
0
100
AcDbLine
 10
126.1284
 20
81.308
 30
0.0
 11
132.0603999999999
 21
78.381
 31
0.0
  0
LINE
  5
1D0
330
1E
100
AcDbEntity
  8
0
100
AcDbLine
 10
119.9944
 20
83.98799999999999
 30
0.0
 11
126.1284
 21
81.308
 31
0.0
  0
LINE
  5
1D3
330
1E
100
AcDbEntity
  8
0
100
AcDbLine
 10
149.3754
 20
85.42299999999999
 30
0.0
 11
158.4293999999999
 21
79.468
 31
0.0
  0
LINE
  5
1D4
330
1E
100
AcDbEntity
  8
0
100
AcDbLine
 10
158.4293999999999
 20
79.468
 30
0.0
 11
167.9104
 21
72.923
 31
0.0
  0
LINE
  5
1D5
330
1E
100
AcDbEntity
  8
0
100
AcDbLine
 10
167.9104
 20
72.923
 30
0.0
 11
177.3913999999999
 21
66.378
 31
0.0
  0
LINE
  5
1D6
330
1E
100
AcDbEntity
  8
0
100
AcDbLine
 10
177.3913999999999
 20
66.378
 30
0.0
 11
192.2453999999999
 21
55.979
 31
0.0
  0
LINE
  5
1D7
330
1E
100
AcDbEntity
  8
0
100
AcDbLine
 10
192.2453999999999
 20
55.979
 30
0.0
 11
210.6124
 21
42.48
 31
0.0
  0
LINE
  5
1D8
330
1E
100
AcDbEntity
  8
0
100
AcDbLine
 10
210.6124
 20
42.48
 30
0.0
 11
236.3964
 21
23.49199999999999
 31
0.0
  0
LINE
  5
1D9
330
1E
100
AcDbEntity
  8
0
100
AcDbLine
 10
223.1003999999999
 20
5.41099999999999
 30
0.0
 11
225.0754
 21
8.128999999999958
 31
0.0
  0
LINE
  5
1DA
330
1E
100
AcDbEntity
  8
0
100
AcDbLine
 10
225.0754
 20
8.128999999999958
 30
0.0
 11
227.6914
 21
11.731
 31
0.0
  0
LINE
  5
1DB
330
1E
100
AcDbEntity
  8
0
100
AcDbLine
 10
235.4423999999999
 20
8.06499999999999
 30
0.0
 11
236.9244
 21
10.10299999999999
 31
0.0
  0
LINE
  5
1DC
330
1E
100
AcDbEntity
  8
0
100
AcDbLine
 10
233.9614
 20
6.025999999999999
 30
0.0
 11
235.4423999999999
 21
8.06499999999999
 31
0.0
  0
LINE
  5
1DD
330
1E
100
AcDbEntity
  8
0
100
AcDbLine
 10
232.5984
 20
4.14899999999996
 30
0.0
 11
233.9614
 21
6.025999999999999
 31
0.0
  0
LINE
  5
1DE
330
1E
100
AcDbEntity
  8
0
100
AcDbLine
 10
231.3984
 20
2.498
 30
0.0
 11
232.5984
 21
4.14899999999996
 31
0.0
  0
LINE
  5
1DF
330
1E
100
AcDbEntity
  8
0
100
AcDbLine
 10
230.4823999999999
 20
1.235999999999999
 30
0.0
 11
231.3984
 21
2.498
 31
0.0
  0
LINE
  5
1E0
330
1E
100
AcDbEntity
  8
0
100
AcDbLine
 10
229.9173999999999
 20
0.459999999999986
 30
0.0
 11
230.4823999999999
 21
1.235999999999999
 31
0.0
  0
LINE
  5
1E1
330
1E
100
AcDbEntity
  8
0
100
AcDbLine
 10
229.7064
 20
0.168999999999998
 30
0.0
 11
229.9173999999999
 21
0.459999999999986
 31
0.0
  0
LINE
  5
1E2
330
1E
100
AcDbEntity
  8
0
100
AcDbLine
 10
229.1603999999999
 20
0.268000000000017
 30
0.0
 11
229.7064
 21
0.168999999999998
 31
0.0
  0
LINE
  5
1E3
330
1E
100
AcDbEntity
  8
0
100
AcDbLine
 10
227.6914
 20
11.731
 30
0.0
 11
230.6544
 21
15.80799999999999
 31
0.0
  0
LINE
  5
1E4
330
1E
100
AcDbEntity
  8
0
100
AcDbLine
 10
231.622428349408
 20
16.9711490822263
 30
0.0
 11
234.6334
 21
21.065
 31
0.0
  0
LINE
  5
1E5
330
1E
100
AcDbEntity
  8
0
100
AcDbLine
 10
231.622428349408
 20
16.9711490822263
 30
0.0
 11
234.6334
 21
21.065
 31
0.0
  0
LINE
  5
1E6
330
1E
100
AcDbEntity
  8
0
100
AcDbLine
 10
230.6544
 20
15.80799999999999
 30
0.0
 11
234.6334
 21
21.065
 31
0.0
  0
LINE
  5
1E7
330
1E
100
AcDbEntity
  8
0
100
AcDbLine
 10
236.9244
 20
10.10299999999999
 30
0.0
 11
238.2874
 21
11.98
 31
0.0
  0
LINE
  5
1E8
330
1E
100
AcDbEntity
  8
0
100
AcDbLine
 10
238.2874
 20
11.98
 30
0.0
 11
239.4864
 21
13.6309999999999
 31
0.0
  0
LINE
  5
1E9
330
1E
100
AcDbEntity
  8
0
100
AcDbLine
 10
239.4864
 20
13.6309999999999
 30
0.0
 11
240.4034
 21
14.893
 31
0.0
  0
LINE
  5
1EA
330
1E
100
AcDbEntity
  8
0
100
AcDbLine
 10
240.4034
 20
14.893
 30
0.0
 11
240.9683999999999
 21
15.669
 31
0.0
  0
LINE
  5
1EB
330
1E
100
AcDbEntity
  8
0
100
AcDbLine
 10
240.9683999999999
 20
15.669
 30
0.0
 11
241.1793999999999
 21
15.9609999999999
 31
0.0
  0
LINE
  5
1EC
330
1E
100
AcDbEntity
  8
0
100
AcDbLine
 10
234.6334
 20
21.065
 30
0.0
 11
235.2214
 21
21.874
 31
0.0
  0
LINE
  5
1ED
330
1E
100
AcDbEntity
  8
0
100
AcDbLine
 10
235.2214
 20
21.874
 30
0.0
 11
235.8094
 21
22.683
 31
0.0
  0
LINE
  5
1EE
330
1E
100
AcDbEntity
  8
0
100
AcDbLine
 10
235.8094
 20
22.683
 30
0.0
 11
236.3964
 21
23.49199999999999
 31
0.0
  0
LINE
  5
1EF
330
1E
100
AcDbEntity
  8
0
100
AcDbLine
 10
240.9164
 20
16.449
 30
0.0
 11
241.1793999999999
 21
15.9609999999999
 31
0.0
  0
LINE
  5
1F0
330
1E
100
AcDbEntity
  8
0
100
AcDbLine
 10
234.60880860607
 20
21.031564447529
 30
0.0
 11
240.9164
 21
16.449
 31
0.0
  0
LINE
  5
1F1
330
1E
100
AcDbEntity
  8
0
100
AcDbLine
 10
222.758367272055
 20
4.91917756347154
 30
0.0
 11
229.1603999999999
 21
0.268000000000017
 31
0.0
  0
LINE
  5
1F2
330
1E
100
AcDbEntity
  8
0
100
AcDbLine
 10
95.06005654953822
 20
106.2510782779529
 30
0.0
 11
124.365794029062
 21
96.72874474741099
 31
0.0
  0
LINE
  5
1F3
330
1E
100
AcDbEntity
  8
0
100
AcDbLine
 10
111.757551874645
 20
86.98651867315469
 30
0.0
 11
119.9944
 21
83.98799999999999
 31
0.0
  0
LINE
  5
1FB
330
1E
100
AcDbEntity
  8
0
100
AcDbLine
 10
143.2854
 20
89.33200000000001
 30
0.0
 11
149.3754
 21
85.42299999999999
 31
0.0
  0
LINE
  5
1FE
330
1E
100
AcDbEntity
  8
0
100
AcDbLine
 10
141.1824
 20
90.46500000000008
 30
0.0
 11
143.2854
 21
89.33200000000001
 31
0.0
  0
LINE
  5
200
330
1E
100
AcDbEntity
  8
0
100
AcDbLine
 10
111.9514
 20
89.274
 30
0.0
 11
112.1904
 21
88.55400000000001
 31
0.0
  0
LINE
  5
201
330
1E
100
AcDbEntity
  8
0
100
AcDbLine
 10
112.1904
 20
88.55400000000001
 30
0.0
 11
112.289489367608
 21
88.85875397950229
 31
0.0
  0
LINE
  5
202
330
1E
100
AcDbEntity
  8
0
100
AcDbLine
 10
111.5734
 20
88.1120000000001
 30
0.0
 11
112.1904
 21
88.55400000000001
 31
0.0
  0
LINE
  5
212
330
1E
100
AcDbEntity
  8
0
100
AcDbLine
 10
130.8974
 20
94.607
 30
0.0
 11
132.5064
 21
94.084
 31
0.0
  0
LINE
  5
214
330
1E
100
AcDbEntity
  8
0
100
AcDbLine
 10
132.5064
 20
94.084
 30
0.0
 11
138.0464
 21
91.92200000000001
 31
0.0
  0
LINE
  5
215
330
1E
100
AcDbEntity
  8
0
100
AcDbLine
 10
138.0464
 20
91.92200000000001
 30
0.0
 11
141.1824
 21
90.46500000000008
 31
0.0
  0
LINE
  5
217
330
1E
100
AcDbEntity
  8
0
100
AcDbLine
 10
111.2193999999999
 20
86.69299999999999
 30
0.0
 11
111.5784
 21
86.2730000000001
 31
0.0
  0
LINE
  5
218
330
1E
100
AcDbEntity
  8
0
100
AcDbLine
 10
111.5784
 20
86.2730000000001
 30
0.0
 11
111.7976827417499
 21
87.14635023007121
 31
0.0
  0
LINE
  5
219
330
1E
100
AcDbEntity
  8
0
100
AcDbLine
 10
111.0634
 20
86.07200000000011
 30
0.0
 11
111.5784
 21
86.2730000000001
 31
0.0
  0
LINE
  5
21E
330
1E
100
AcDbEntity
  8
0
100
AcDbLine
 10
124.365794029062
 20
96.72874474741099
 30
0.0
 11
130.8974
 21
94.607
 31
0.0
  0
LINE
  5
21F
330
1E
100
AcDbEntity
  8
0
100
AcDbLine
 10
24.3378
 20
129.23
 30
0.0
 11
56.5776000000001
 21
118.754
 31
0.0
  0
ENDSEC
  0
SECTION
  2
OBJECTS
  0
DICTIONARY
  5
C
330
0
100
AcDbDictionary
281
     1
  3
ACAD_GROUP
350
D
  3
ACAD_LAYOUT
350
19
  3
ACAD_MLINESTYLE
350
16
  3
ACAD_PLOTSETTINGS
350
18
  3
ACAD_PLOTSTYLENAME
350
E
  3
AcDbVariableDictionary
350
220
  0
DICTIONARY
  5
D
102
{ACAD_REACTORS
330
C
102
}
330
C
100
AcDbDictionary
281
     1
  0
DICTIONARY
  5
19
102
{ACAD_REACTORS
330
C
102
}
330
C
100
AcDbDictionary
281
     1
  3
Layout1
350
1D
  3
Model
350
21
  0
DICTIONARY
  5
16
102
{ACAD_REACTORS
330
C
102
}
330
C
100
AcDbDictionary
281
     1
  3
Standard
350
17
  0
DICTIONARY
  5
18
102
{ACAD_REACTORS
330
C
102
}
330
C
100
AcDbDictionary
281
     1
  0
ACDBDICTIONARYWDFLT
  5
E
102
{ACAD_REACTORS
330
C
102
}
330
C
100
AcDbDictionary
281
     1
  3
Normal
350
F
100
AcDbDictionaryWithDefault
340
F
  0
DICTIONARY
  5
220
102
{ACAD_REACTORS
330
C
102
}
330
C
100
AcDbDictionary
281
     1
  3
DIMASSOC
350
221
  0
LAYOUT
  5
1D
102
{ACAD_REACTORS
330
19
102
}
330
19
100
AcDbPlotSettings
  1

  2
hp deskjet 980c series
  4

  6

 40
0.0
 41
0.0
 42
0.0
 43
0.0
 44
0.0
 45
0.0
 46
0.0
 47
0.0
 48
0.0
 49
0.0
140
0.0
141
0.0
142
1.0
143
1.0
 70
   688
 72
     0
 73
     0
 74
     5
  7

 75
    16
147
1.0
148
0.0
149
0.0
100
AcDbLayout
  1
Layout1
 70
     1
 71
     1
 10
0.0
 20
0.0
 11
12.0
 21
9.0
 12
0.0
 22
0.0
 32
0.0
 14
1.000000000000000E+20
 24
1.000000000000000E+20
 34
1.000000000000000E+20
 15
-1.000000000000000E+20
 25
-1.000000000000000E+20
 35
-1.000000000000000E+20
146
0.0
 13
0.0
 23
0.0
 33
0.0
 16
1.0
 26
0.0
 36
0.0
 17
0.0
 27
1.0
 37
0.0
 76
     0
330
1A
  0
LAYOUT
  5
21
102
{ACAD_REACTORS
330
19
102
}
330
19
100
AcDbPlotSettings
  1

  2
hp deskjet 980c series
  4

  6

 40
0.0
 41
0.0
 42
0.0
 43
0.0
 44
0.0
 45
0.0
 46
0.0
 47
0.0
 48
0.0
 49
0.0
140
0.0
141
0.0
142
1.0
143
1.0
 70
  1712
 72
     0
 73
     0
 74
     0
  7

 75
     0
147
1.0
148
0.0
149
0.0
100
AcDbLayout
  1
Model
 70
     1
 71
     0
 10
0.0
 20
0.0
 11
12.0
 21
9.0
 12
0.0
 22
0.0
 32
0.0
 14
0.0
 24
0.0
 34
0.0
 15
0.0
 25
0.0
 35
0.0
146
0.0
 13
0.0
 23
0.0
 33
0.0
 16
1.0
 26
0.0
 36
0.0
 17
0.0
 27
1.0
 37
0.0
 76
     0
330
1E
  0
MLINESTYLE
  5
17
102
{ACAD_REACTORS
330
16
102
}
330
16
100
AcDbMlineStyle
  2
STANDARD
 70
     0
  3

 62
   256
 51
90.0
 52
90.0
 71
     2
 49
0.5
 62
   256
  6
BYLAYER
 49
-0.5
 62
   256
  6
BYLAYER
  0
ACDBPLACEHOLDER
  5
F
102
{ACAD_REACTORS
330
E
102
}
330
E
  0
DICTIONARYVAR
  5
221
102
{ACAD_REACTORS
330
220
102
}
330
220
100
DictionaryVariables
280
     0
  1
1
  0
ENDSEC
  0
EOF
