999
unknown String-ID: 20550
0
SECTION
2
HEADER
9
$ACADVER
1
AC1009
9
$DWGCODEPAGE
3
unknown String-ID: 20561
0
ENDSEC
0
SECTION
2
TABLES
0
TABLE
2
LAYER
70
1
0
LAYER
2
0
70
0
62
7
6
CONTINUOUS
0
ENDTAB
0
ENDSEC
0
SECTION
2
ENTITIES
0
LINE
8
0
6
CONTINUOUS
10
0.026890
20
0.134594
30
0.0
11
0.022642
21
0.135718
31
0.0
0
LINE
8
0
6
CONTINUOUS
10
0.031163
20
0.048159
30
0.0
11
0.031135
21
0.053192
31
0.0
0
LINE
8
0
6
CONTINUOUS
10
0.022642
20
0.135718
30
0.0
11
0.018242
21
0.136147
31
0.0
0
LINE
8
0
6
CONTINUOUS
10
0.032728
20
0.054483
30
0.0
11
0.032729
21
0.054723
31
0.0
0
LINE
8
0
6
CONTINUOUS
10
0.030701
20
0.132632
30
0.0
11
0.026890
21
0.134594
31
0.0
0
LINE
8
0
6
CONTINUOUS
10
0.032385
20
0.129405
30
0.0
11
0.030701
21
0.132632
31
0.0
0
LINE
8
0
6
CONTINUOUS
10
0.032933
20
0.121269
30
0.0
11
0.032934
21
0.121735
31
0.0
0
LINE
8
0
6
CONTINUOUS
10
0.032934
20
0.121735
30
0.0
11
0.032886
21
0.122415
31
0.0
0
LINE
8
0
6
CONTINUOUS
10
0.031325
20
0.051935
30
0.0
11
0.032726
21
0.053727
31
0.0
0
LINE
8
0
6
CONTINUOUS
10
0.031142
20
0.051877
30
0.0
11
0.031325
21
0.051935
31
0.0
0
LINE
8
0
6
CONTINUOUS
10
0.031135
20
0.053192
30
0.0
11
0.031133
21
0.053496
31
0.0
0
LINE
8
0
6
CONTINUOUS
10
0.032886
20
0.122415
30
0.0
11
0.032432
21
0.128753
31
0.0
0
LINE
8
0
6
CONTINUOUS
10
0.032726
20
0.053727
30
0.0
11
0.032728
21
0.054483
31
0.0
0
LINE
8
0
6
CONTINUOUS
10
0.032432
20
0.128753
30
0.0
11
0.032385
21
0.129405
31
0.0
0
LINE
8
0
6
CONTINUOUS
10
0.032729
20
0.054723
30
0.0
11
0.032933
21
0.121269
31
0.0
0
LINE
8
0
6
CONTINUOUS
10
0.013845
20
0.135699
30
0.0
11
0.009607
21
0.134555
31
0.0
0
LINE
8
0
6
CONTINUOUS
10
0.005132
20
0.053134
30
0.0
11
0.005086
21
0.048140
31
0.0
0
LINE
8
0
6
CONTINUOUS
10
0.018242
20
0.136147
30
0.0
11
0.013845
21
0.135699
31
0.0
0
LINE
8
0
6
CONTINUOUS
10
0.003551
20
0.054658
30
0.0
11
0.003550
21
0.054418
31
0.0
0
LINE
8
0
6
CONTINUOUS
10
0.009607
20
0.134555
30
0.0
11
0.005813
21
0.132576
31
0.0
0
LINE
8
0
6
CONTINUOUS
10
0.005813
20
0.132576
30
0.0
11
0.004156
21
0.129342
31
0.0
0
LINE
8
0
6
CONTINUOUS
10
0.003672
20
0.121670
30
0.0
11
0.003672
21
0.121204
31
0.0
0
LINE
8
0
6
CONTINUOUS
10
0.003715
20
0.122349
30
0.0
11
0.003672
21
0.121670
31
0.0
0
LINE
8
0
6
CONTINUOUS
10
0.003549
20
0.053662
30
0.0
11
0.004976
21
0.051876
31
0.0
0
LINE
8
0
6
CONTINUOUS
10
0.004976
20
0.051876
30
0.0
11
0.005120
21
0.051831
31
0.0
0
LINE
8
0
6
CONTINUOUS
10
0.005135
20
0.053438
30
0.0
11
0.005132
21
0.053134
31
0.0
0
LINE
8
0
6
CONTINUOUS
10
0.004115
20
0.128689
30
0.0
11
0.003715
21
0.122349
31
0.0
0
LINE
8
0
6
CONTINUOUS
10
0.003550
20
0.054418
30
0.0
11
0.003549
21
0.053662
31
0.0
0
LINE
8
0
6
CONTINUOUS
10
0.004156
20
0.129342
30
0.0
11
0.004115
21
0.128689
31
0.0
0
LINE
8
0
6
CONTINUOUS
10
0.003672
20
0.121204
30
0.0
11
0.003551
21
0.054658
31
0.0
0
LINE
8
0
6
CONTINUOUS
10
-0.011175
20
0.041417
30
0.0
11
-0.012661
21
0.040197
31
0.0
0
LINE
8
0
6
CONTINUOUS
10
-0.002285
20
0.046011
30
0.0
11
-0.011175
21
0.041417
31
0.0
0
LINE
8
0
6
CONTINUOUS
10
0.007625
20
0.048873
30
0.0
11
-0.002285
21
0.046011
31
0.0
0
LINE
8
0
6
CONTINUOUS
10
0.018057
20
0.049859
30
0.0
11
0.007625
21
0.048873
31
0.0
0
LINE
8
0
6
CONTINUOUS
10
0.028489
20
0.048919
30
0.0
11
0.018057
21
0.049859
31
0.0
0
LINE
8
0
6
CONTINUOUS
10
0.038397
20
0.046102
30
0.0
11
0.028489
21
0.048919
31
0.0
0
LINE
8
0
6
CONTINUOUS
10
0.047285
20
0.041548
30
0.0
11
0.038397
21
0.046102
31
0.0
0
LINE
8
0
6
CONTINUOUS
10
0.054707
20
0.035485
30
0.0
11
0.047285
21
0.041548
31
0.0
0
LINE
8
0
6
CONTINUOUS
10
0.061939
20
0.025631
30
0.0
11
0.061174
21
0.027191
31
0.0
0
LINE
8
0
6
CONTINUOUS
10
0.065538
20
0.017212
30
0.0
11
0.061939
21
0.025631
31
0.0
0
LINE
8
0
6
CONTINUOUS
10
0.066617
20
0.013648
30
0.0
11
0.066167
21
0.015449
31
0.0
0
LINE
8
0
6
CONTINUOUS
10
0.067862
20
0.004582
30
0.0
11
0.066617
21
0.013648
31
0.0
0
LINE
8
0
6
CONTINUOUS
10
0.068146
20
0.000673
30
0.0
11
0.067862
21
0.004582
31
0.0
0
LINE
8
0
6
CONTINUOUS
10
0.066167
20
0.015449
30
0.0
11
0.065538
21
0.017212
31
0.0
0
LINE
8
0
6
CONTINUOUS
10
0.057228
20
-0.025031
30
0.0
11
0.063189
21
-0.017251
31
0.0
0
LINE
8
0
6
CONTINUOUS
10
0.018118
20
-0.040541
30
0.0
11
0.029249
21
-0.039489
31
0.0
0
LINE
8
0
6
CONTINUOUS
10
-0.012661
20
-0.031881
30
0.0
11
-0.003583
21
-0.036533
31
0.0
0
LINE
8
0
6
CONTINUOUS
10
0.063189
20
-0.017251
30
0.0
11
0.066891
21
-0.008585
31
0.0
0
LINE
8
0
6
CONTINUOUS
10
0.066891
20
-0.008585
30
0.0
11
0.068147
21
0.000533
31
0.0
0
LINE
8
0
6
CONTINUOUS
10
0.068147
20
0.000533
30
0.0
11
0.068146
21
0.000673
31
0.0
0
LINE
8
0
6
CONTINUOUS
10
0.029249
20
-0.039489
30
0.0
11
0.039822
21
-0.036436
31
0.0
0
LINE
8
0
6
CONTINUOUS
10
0.039822
20
-0.036436
30
0.0
11
0.049307
21
-0.031535
31
0.0
0
LINE
8
0
6
CONTINUOUS
10
-0.003583
20
-0.036533
30
0.0
11
0.006989
21
-0.039539
31
0.0
0
LINE
8
0
6
CONTINUOUS
10
0.006989
20
-0.039539
30
0.0
11
0.018118
21
-0.040541
31
0.0
0
LINE
8
0
6
CONTINUOUS
10
0.049307
20
-0.031535
30
0.0
11
0.057228
21
-0.025031
31
0.0
0
LINE
8
0
6
CONTINUOUS
10
0.066896
20
-0.009349
30
0.0
11
0.068152
21
-0.000232
31
0.0
0
LINE
8
0
6
CONTINUOUS
10
0.068152
20
-0.000232
30
0.0
11
0.068148
21
0.000335
31
0.0
0
LINE
8
0
6
CONTINUOUS
10
0.048355
20
-0.033784
30
0.0
11
0.056028
21
-0.027484
31
0.0
0
LINE
8
0
6
CONTINUOUS
10
0.056028
20
-0.027484
30
0.0
11
0.056878
21
-0.026737
31
0.0
0
LINE
8
0
6
CONTINUOUS
10
0.007361
20
-0.041538
30
0.0
11
0.018142
21
-0.042509
31
0.0
0
LINE
8
0
6
CONTINUOUS
10
-0.002880
20
-0.038626
30
0.0
11
0.007361
21
-0.041538
31
0.0
0
LINE
8
0
6
CONTINUOUS
10
0.039166
20
-0.038532
30
0.0
11
0.048355
21
-0.033784
31
0.0
0
LINE
8
0
6
CONTINUOUS
10
-0.012066
20
-0.033919
30
0.0
11
-0.002880
21
-0.038626
31
0.0
0
LINE
8
0
6
CONTINUOUS
10
0.028924
20
-0.041490
30
0.0
11
0.039166
21
-0.038532
31
0.0
0
LINE
8
0
6
CONTINUOUS
10
0.066450
20
-0.010444
30
0.0
11
0.066896
21
-0.009349
31
0.0
0
LINE
8
0
6
CONTINUOUS
10
0.062783
20
-0.019030
30
0.0
11
0.066450
21
-0.010444
31
0.0
0
LINE
8
0
6
CONTINUOUS
10
-0.012661
20
-0.033433
30
0.0
11
-0.012066
21
-0.033919
31
0.0
0
LINE
8
0
6
CONTINUOUS
10
0.018142
20
-0.042509
30
0.0
11
0.028924
21
-0.041490
31
0.0
0
LINE
8
0
6
CONTINUOUS
10
0.056878
20
-0.026737
30
0.0
11
0.062783
21
-0.019030
31
0.0
0
LINE
8
0
6
CONTINUOUS
10
0.068148
20
0.000407
30
0.0
11
0.068139
21
0.000473
31
0.0
0
LINE
8
0
6
CONTINUOUS
10
0.055090
20
0.035155
30
0.0
11
0.054707
21
0.035485
31
0.0
0
LINE
8
0
6
CONTINUOUS
10
0.060732
20
0.027813
30
0.0
11
0.055090
21
0.035155
31
0.0
0
LINE
8
0
6
CONTINUOUS
10
0.061174
20
0.027191
30
0.0
11
0.060732
21
0.027813
31
0.0
0
LINE
8
0
6
CONTINUOUS
10
-0.009516
20
-0.119909
30
0.0
11
-0.009516
21
-0.119769
31
0.0
0
LINE
8
0
6
CONTINUOUS
10
-0.018437
20
-0.135307
30
0.0
11
-0.012501
21
-0.131062
31
0.0
0
LINE
8
0
6
CONTINUOUS
10
-0.037507
20
-0.120090
30
0.0
11
-0.036742
21
-0.127275
31
0.0
0
LINE
8
0
6
CONTINUOUS
10
-0.037507
20
-0.119940
30
0.0
11
-0.037507
21
-0.120090
31
0.0
0
LINE
8
0
6
CONTINUOUS
10
-0.009516
20
-0.124464
30
0.0
11
-0.009516
21
-0.124314
31
0.0
0
LINE
8
0
6
CONTINUOUS
10
-0.012501
20
-0.131062
30
0.0
11
-0.009516
21
-0.124464
31
0.0
0
LINE
8
0
6
CONTINUOUS
10
-0.036742
20
-0.127275
30
0.0
11
-0.032432
21
-0.133120
31
0.0
0
LINE
8
0
6
CONTINUOUS
10
-0.032432
20
-0.133120
30
0.0
11
-0.025732
21
-0.136060
31
0.0
0
LINE
8
0
6
CONTINUOUS
10
-0.025732
20
-0.136060
30
0.0
11
-0.018437
21
-0.135307
31
0.0
0
LINE
8
0
6
CONTINUOUS
10
-0.010280
20
-0.112585
30
0.0
11
-0.014590
21
-0.106739
31
0.0
0
LINE
8
0
6
CONTINUOUS
10
-0.009516
20
-0.119769
30
0.0
11
-0.010280
21
-0.112585
31
0.0
0
LINE
8
0
6
CONTINUOUS
10
-0.034521
20
-0.108797
30
0.0
11
-0.037507
21
-0.115395
31
0.0
0
LINE
8
0
6
CONTINUOUS
10
-0.028586
20
-0.104553
30
0.0
11
-0.034521
21
-0.108797
31
0.0
0
LINE
8
0
6
CONTINUOUS
10
-0.021290
20
-0.103799
30
0.0
11
-0.028586
21
-0.104553
31
0.0
0
LINE
8
0
6
CONTINUOUS
10
-0.014590
20
-0.106739
30
0.0
11
-0.021290
21
-0.103799
31
0.0
0
LINE
8
0
6
CONTINUOUS
10
-0.037507
20
-0.115535
30
0.0
11
-0.037507
21
-0.119940
31
0.0
0
LINE
8
0
6
CONTINUOUS
10
-0.009516
20
-0.124314
30
0.0
11
-0.009516
21
-0.119909
31
0.0
0
LINE
8
0
6
CONTINUOUS
10
0.009952
20
0.176295
30
0.0
11
0.006666
21
0.175217
31
0.0
0
LINE
8
0
6
CONTINUOUS
10
0.021989
20
0.176613
30
0.0
11
0.017883
21
0.176616
31
0.0
0
LINE
8
0
6
CONTINUOUS
10
0.033206
20
0.170907
30
0.0
11
0.031622
21
0.173406
31
0.0
0
LINE
8
0
6
CONTINUOUS
10
0.031622
20
0.173406
30
0.0
11
0.029101
21
0.175217
31
0.0
0
LINE
8
0
6
CONTINUOUS
10
0.017883
20
0.176616
30
0.0
11
0.013778
21
0.176613
31
0.0
0
LINE
8
0
6
CONTINUOUS
10
0.013778
20
0.176613
30
0.0
11
0.009952
21
0.176295
31
0.0
0
LINE
8
0
6
CONTINUOUS
10
0.025815
20
0.176295
30
0.0
11
0.021989
21
0.176613
31
0.0
0
LINE
8
0
6
CONTINUOUS
10
-0.012661
20
0.156641
30
0.0
11
-0.012661
21
0.156868
31
0.0
0
LINE
8
0
6
CONTINUOUS
10
-0.012661
20
0.156868
30
0.0
11
-0.014115
21
0.162292
31
0.0
0
LINE
8
0
6
CONTINUOUS
10
-0.028936
20
0.166263
30
0.0
11
-0.032907
21
0.162292
31
0.0
0
LINE
8
0
6
CONTINUOUS
10
-0.018086
20
0.166263
30
0.0
11
-0.023511
21
0.167717
31
0.0
0
LINE
8
0
6
CONTINUOUS
10
-0.023511
20
0.167717
30
0.0
11
-0.028936
21
0.166263
31
0.0
0
LINE
8
0
6
CONTINUOUS
10
-0.014115
20
0.162292
30
0.0
11
-0.018086
21
0.166263
31
0.0
0
LINE
8
0
6
CONTINUOUS
10
-0.034360
20
0.156868
30
0.0
11
-0.034360
21
0.156641
31
0.0
0
LINE
8
0
6
CONTINUOUS
10
-0.032907
20
0.162292
30
0.0
11
-0.034360
21
0.156868
31
0.0
0
LINE
8
0
6
CONTINUOUS
10
-0.012661
20
0.156246
30
0.0
11
-0.012661
21
0.156641
31
0.0
0
LINE
8
0
6
CONTINUOUS
10
-0.034360
20
0.156641
30
0.0
11
-0.034360
21
0.156246
31
0.0
0
LINE
8
0
6
CONTINUOUS
10
-0.034360
20
0.149396
30
0.0
11
-0.034360
21
0.145380
31
0.0
0
LINE
8
0
6
CONTINUOUS
10
-0.012661
20
0.152640
30
0.0
11
-0.012661
21
0.154876
31
0.0
0
LINE
8
0
6
CONTINUOUS
10
-0.034360
20
0.154876
30
0.0
11
-0.034360
21
0.152640
31
0.0
0
LINE
8
0
6
CONTINUOUS
10
-0.012661
20
0.145380
30
0.0
11
-0.012661
21
0.149396
31
0.0
0
LINE
8
0
6
CONTINUOUS
10
-0.034360
20
0.140572
30
0.0
11
-0.034360
21
0.134911
31
0.0
0
LINE
8
0
6
CONTINUOUS
10
-0.012661
20
0.134911
30
0.0
11
-0.012661
21
0.140572
31
0.0
0
LINE
8
0
6
CONTINUOUS
10
-0.034360
20
0.126844
30
0.0
11
-0.034360
21
0.118776
31
0.0
0
LINE
8
0
6
CONTINUOUS
10
-0.012661
20
0.118776
30
0.0
11
-0.012661
21
0.126844
31
0.0
0
LINE
8
0
6
CONTINUOUS
10
-0.012661
20
0.099788
30
0.0
11
-0.012661
21
0.109282
31
0.0
0
LINE
8
0
6
CONTINUOUS
10
-0.034360
20
0.109282
30
0.0
11
-0.034360
21
0.099788
31
0.0
0
LINE
8
0
6
CONTINUOUS
10
-0.012661
20
-0.109355
30
0.0
11
-0.012661
21
0.099788
31
0.0
0
LINE
8
0
6
CONTINUOUS
10
-0.034360
20
0.099788
30
0.0
11
-0.034360
21
-0.108682
31
0.0
0
LINE
8
0
6
CONTINUOUS
10
-0.013030
20
0.158244
30
0.0
11
-0.013030
21
0.206372
31
0.0
0
LINE
8
0
6
CONTINUOUS
10
-0.033991
20
0.206372
30
0.0
11
-0.033991
21
0.158244
31
0.0
0
LINE
8
0
6
CONTINUOUS
10
-0.036593
20
0.218704
30
0.0
11
-0.042310
21
0.218704
31
0.0
0
LINE
8
0
6
CONTINUOUS
10
-0.023511
20
0.206372
30
0.0
11
-0.016888
21
0.206372
31
0.0
0
LINE
8
0
6
CONTINUOUS
10
-0.042310
20
0.218704
30
0.0
11
-0.047084
21
0.218704
31
0.0
0
LINE
8
0
6
CONTINUOUS
10
-0.016888
20
0.206372
30
0.0
11
-0.010597
21
0.206372
31
0.0
0
LINE
8
0
6
CONTINUOUS
10
-0.010597
20
0.206372
30
0.0
11
-0.004954
21
0.206372
31
0.0
0
LINE
8
0
6
CONTINUOUS
10
-0.004954
20
0.206372
30
0.0
11
-0.000241
21
0.206372
31
0.0
0
LINE
8
0
6
CONTINUOUS
10
-0.052906
20
0.218704
30
0.0
11
-0.053662
21
0.218704
31
0.0
0
LINE
8
0
6
CONTINUOUS
10
-0.053662
20
0.218704
30
0.0
11
-0.053648
21
0.212102
31
0.0
0
LINE
8
0
6
CONTINUOUS
10
-0.000241
20
0.206372
30
0.0
11
0.003305
21
0.206372
31
0.0
0
LINE
8
0
6
CONTINUOUS
10
0.003305
20
0.206372
30
0.0
11
0.005506
21
0.206372
31
0.0
0
LINE
8
0
6
CONTINUOUS
10
0.006253
20
0.206372
30
0.0
11
0.006284
21
0.206850
31
0.0
0
LINE
8
0
6
CONTINUOUS
10
0.005506
20
0.206372
30
0.0
11
0.006253
21
0.206372
31
0.0
0
LINE
8
0
6
CONTINUOUS
10
0.006641
20
0.218704
30
0.0
11
0.005885
21
0.218704
31
0.0
0
LINE
8
0
6
CONTINUOUS
10
0.006626
20
0.212102
30
0.0
11
0.006641
21
0.218704
31
0.0
0
LINE
8
0
6
CONTINUOUS
10
-0.053274
20
0.206372
30
0.0
11
-0.052528
21
0.206372
31
0.0
0
LINE
8
0
6
CONTINUOUS
10
-0.053305
20
0.206850
30
0.0
11
-0.053274
21
0.206372
31
0.0
0
LINE
8
0
6
CONTINUOUS
10
0.000063
20
0.218704
30
0.0
11
-0.004712
21
0.218704
31
0.0
0
LINE
8
0
6
CONTINUOUS
10
-0.052528
20
0.206372
30
0.0
11
-0.050327
21
0.206372
31
0.0
0
LINE
8
0
6
CONTINUOUS
10
-0.004712
20
0.218704
30
0.0
11
-0.010429
21
0.218704
31
0.0
0
LINE
8
0
6
CONTINUOUS
10
-0.050327
20
0.206372
30
0.0
11
-0.046781
21
0.206372
31
0.0
0
LINE
8
0
6
CONTINUOUS
10
-0.010429
20
0.218704
30
0.0
11
-0.016802
21
0.218704
31
0.0
0
LINE
8
0
6
CONTINUOUS
10
-0.046781
20
0.206372
30
0.0
11
-0.042068
21
0.206372
31
0.0
0
LINE
8
0
6
CONTINUOUS
10
-0.030220
20
0.218704
30
0.0
11
-0.036593
21
0.218704
31
0.0
0
LINE
8
0
6
CONTINUOUS
10
-0.042068
20
0.206372
30
0.0
11
-0.036425
21
0.206372
31
0.0
0
LINE
8
0
6
CONTINUOUS
10
-0.030134
20
0.206372
30
0.0
11
-0.023511
21
0.206372
31
0.0
0
LINE
8
0
6
CONTINUOUS
10
-0.036425
20
0.206372
30
0.0
11
-0.030134
21
0.206372
31
0.0
0
LINE
8
0
6
CONTINUOUS
10
0.006284
20
0.206850
30
0.0
11
0.006626
21
0.212102
31
0.0
0
LINE
8
0
6
CONTINUOUS
10
-0.053648
20
0.212102
30
0.0
11
-0.053305
21
0.206850
31
0.0
0
LINE
8
0
6
CONTINUOUS
10
-0.069480
20
0.176573
30
0.0
11
-0.069480
21
0.176067
31
0.0
0
LINE
8
0
6
CONTINUOUS
10
-0.068722
20
0.176750
30
0.0
11
-0.069480
21
0.176573
31
0.0
0
LINE
8
0
6
CONTINUOUS
10
-0.069480
20
0.166717
30
0.0
11
-0.069480
21
0.161878
31
0.0
0
LINE
8
0
6
CONTINUOUS
10
-0.069480
20
0.161878
30
0.0
11
-0.069480
21
0.160543
31
0.0
0
LINE
8
0
6
CONTINUOUS
10
-0.069480
20
0.152826
30
0.0
11
-0.069480
21
0.151491
31
0.0
0
LINE
8
0
6
CONTINUOUS
10
-0.069480
20
0.151491
30
0.0
11
-0.069480
21
0.146652
31
0.0
0
LINE
8
0
6
CONTINUOUS
10
-0.069480
20
0.142496
30
0.0
11
-0.069480
21
0.139307
31
0.0
0
LINE
8
0
6
CONTINUOUS
10
-0.069480
20
0.137302
30
0.0
11
-0.069480
21
0.136619
31
0.0
0
LINE
8
0
6
CONTINUOUS
10
-0.069480
20
0.136619
30
0.0
11
-0.068722
21
0.136619
31
0.0
0
LINE
8
0
6
CONTINUOUS
10
0.001502
20
0.136619
30
0.0
11
0.001780
21
0.136619
31
0.0
0
LINE
8
0
6
CONTINUOUS
10
0.001780
20
0.176750
30
0.0
11
0.001502
21
0.176750
31
0.0
0
LINE
8
0
6
CONTINUOUS
10
-0.071250
20
0.160543
30
0.0
11
-0.071303
21
0.160543
31
0.0
0
LINE
8
0
6
CONTINUOUS
10
-0.071250
20
0.152826
30
0.0
11
-0.069480
21
0.152826
31
0.0
0
LINE
8
0
6
CONTINUOUS
10
-0.071303
20
0.152826
30
0.0
11
-0.071250
21
0.152826
31
0.0
0
LINE
8
0
6
CONTINUOUS
10
-0.069480
20
0.160543
30
0.0
11
-0.071250
21
0.160543
31
0.0
0
LINE
8
0
6
CONTINUOUS
10
-0.073182
20
0.153343
30
0.0
11
-0.071303
21
0.152826
31
0.0
0
LINE
8
0
6
CONTINUOUS
10
-0.074557
20
0.154755
30
0.0
11
-0.073182
21
0.153343
31
0.0
0
LINE
8
0
6
CONTINUOUS
10
-0.075061
20
0.156685
30
0.0
11
-0.074557
21
0.154755
31
0.0
0
LINE
8
0
6
CONTINUOUS
10
-0.074557
20
0.158614
30
0.0
11
-0.075061
21
0.156685
31
0.0
0
LINE
8
0
6
CONTINUOUS
10
-0.073182
20
0.160026
30
0.0
11
-0.074557
21
0.158614
31
0.0
0
LINE
8
0
6
CONTINUOUS
10
-0.071303
20
0.160543
30
0.0
11
-0.073182
21
0.160026
31
0.0
0
LINE
8
0
6
CONTINUOUS
10
-0.068722
20
0.136619
30
0.0
11
-0.043254
21
0.136619
31
0.0
0
LINE
8
0
6
CONTINUOUS
10
-0.043254
20
0.176750
30
0.0
11
-0.068722
21
0.176750
31
0.0
0
LINE
8
0
6
CONTINUOUS
10
0.008779
20
0.174630
30
0.0
11
0.005743
21
0.175860
31
0.0
0
LINE
8
0
6
CONTINUOUS
10
0.021174
20
0.141037
30
0.0
11
0.024392
21
0.139884
31
0.0
0
LINE
8
0
6
CONTINUOUS
10
0.024392
20
0.139884
30
0.0
11
0.026508
21
0.138173
31
0.0
0
LINE
8
0
6
CONTINUOUS
10
0.026508
20
0.138173
30
0.0
11
0.027486
21
0.136134
31
0.0
0
LINE
8
0
6
CONTINUOUS
10
0.002019
20
0.130301
30
0.0
11
0.002560
21
0.126784
31
0.0
0
LINE
8
0
6
CONTINUOUS
10
0.002560
20
0.126784
30
0.0
11
0.003829
21
0.124160
31
0.0
0
LINE
8
0
6
CONTINUOUS
10
-0.047084
20
0.218704
30
0.0
11
-0.050676
21
0.218704
31
0.0
0
LINE
8
0
6
CONTINUOUS
10
-0.050676
20
0.218704
30
0.0
11
-0.052906
21
0.218704
31
0.0
0
LINE
8
0
6
CONTINUOUS
10
0.005885
20
0.218704
30
0.0
11
0.003655
21
0.218704
31
0.0
0
LINE
8
0
6
CONTINUOUS
10
0.003655
20
0.218704
30
0.0
11
0.000063
21
0.218704
31
0.0
0
LINE
8
0
6
CONTINUOUS
10
-0.016802
20
0.218704
30
0.0
11
-0.023511
21
0.218704
31
0.0
0
LINE
8
0
6
CONTINUOUS
10
-0.023511
20
0.218704
30
0.0
11
-0.030220
21
0.218704
31
0.0
0
LINE
8
0
6
CONTINUOUS
10
0.033747
20
0.130301
30
0.0
11
0.033747
21
0.130573
31
0.0
0
LINE
8
0
6
CONTINUOUS
10
0.002019
20
0.130573
30
0.0
11
0.002019
21
0.130301
31
0.0
0
LINE
8
0
6
CONTINUOUS
10
0.033206
20
0.126784
30
0.0
11
0.033747
21
0.130301
31
0.0
0
LINE
8
0
6
CONTINUOUS
10
0.032655
20
0.125644
30
0.0
11
0.033206
21
0.126784
31
0.0
0
LINE
8
0
6
CONTINUOUS
10
0.017886
20
0.141472
30
0.0
11
0.021174
21
0.141037
31
0.0
0
LINE
8
0
6
CONTINUOUS
10
0.014582
20
0.141037
30
0.0
11
0.017886
21
0.141472
31
0.0
0
LINE
8
0
6
CONTINUOUS
10
0.011347
20
0.139884
30
0.0
11
0.014582
21
0.141037
31
0.0
0
LINE
8
0
6
CONTINUOUS
10
0.009201
20
0.138173
30
0.0
11
0.011347
21
0.139884
31
0.0
0
LINE
8
0
6
CONTINUOUS
10
0.008203
20
0.136092
30
0.0
11
0.009201
21
0.138173
31
0.0
0
LINE
8
0
6
CONTINUOUS
10
0.008203
20
0.134838
30
0.0
11
0.008203
21
0.136092
31
0.0
0
LINE
8
0
6
CONTINUOUS
10
0.029101
20
0.175217
30
0.0
11
0.025815
21
0.176295
31
0.0
0
LINE
8
0
6
CONTINUOUS
10
0.033747
20
0.167605
30
0.0
11
0.033206
21
0.170907
31
0.0
0
LINE
8
0
6
CONTINUOUS
10
0.033747
20
0.167414
30
0.0
11
0.033747
21
0.167605
31
0.0
0
LINE
8
0
6
CONTINUOUS
10
0.002020
20
0.151416
30
0.0
11
0.002019
21
0.130573
31
0.0
0
LINE
8
0
6
CONTINUOUS
10
0.033747
20
0.130573
30
0.0
11
0.033747
21
0.167414
31
0.0
0
LINE
8
0
6
CONTINUOUS
10
0.001780
20
0.136619
30
0.0
11
0.002020
21
0.136676
31
0.0
0
LINE
8
0
6
CONTINUOUS
10
0.002421
20
0.176596
30
0.0
11
0.001780
21
0.176750
31
0.0
0
LINE
8
0
6
CONTINUOUS
10
0.005743
20
0.175860
30
0.0
11
0.002421
21
0.176596
31
0.0
0
LINE
8
0
6
CONTINUOUS
10
-0.042018
20
0.136619
30
0.0
11
-0.034360
21
0.136619
31
0.0
0
LINE
8
0
6
CONTINUOUS
10
-0.012661
20
0.136619
30
0.0
11
0.001502
21
0.136619
31
0.0
0
LINE
8
0
6
CONTINUOUS
10
0.001502
20
0.176750
30
0.0
11
-0.013030
21
0.176750
31
0.0
0
LINE
8
0
6
CONTINUOUS
10
-0.033991
20
0.176750
30
0.0
11
-0.042018
21
0.176750
31
0.0
0
LINE
8
0
6
CONTINUOUS
10
-0.042327
20
0.136619
30
0.0
11
-0.042018
21
0.136619
31
0.0
0
LINE
8
0
6
CONTINUOUS
10
-0.042636
20
0.137539
30
0.0
11
-0.042327
21
0.136619
31
0.0
0
LINE
8
0
6
CONTINUOUS
10
-0.042945
20
0.136619
30
0.0
11
-0.042636
21
0.137539
31
0.0
0
LINE
8
0
6
CONTINUOUS
10
-0.043254
20
0.136619
30
0.0
11
-0.042945
21
0.136619
31
0.0
0
LINE
8
0
6
CONTINUOUS
10
-0.042018
20
0.176750
30
0.0
11
-0.042327
21
0.176750
31
0.0
0
LINE
8
0
6
CONTINUOUS
10
-0.042327
20
0.176750
30
0.0
11
-0.042636
21
0.175830
31
0.0
0
LINE
8
0
6
CONTINUOUS
10
-0.042636
20
0.175830
30
0.0
11
-0.042945
21
0.176750
31
0.0
0
LINE
8
0
6
CONTINUOUS
10
-0.042945
20
0.176750
30
0.0
11
-0.043254
21
0.176750
31
0.0
0
LINE
8
0
6
CONTINUOUS
10
0.009952
20
0.176295
30
0.0
11
0.006666
21
0.175217
31
0.0
0
LINE
8
0
6
CONTINUOUS
10
0.021989
20
0.176613
30
0.0
11
0.017883
21
0.176616
31
0.0
0
LINE
8
0
6
CONTINUOUS
10
0.033206
20
0.170907
30
0.0
11
0.031622
21
0.173406
31
0.0
0
LINE
8
0
6
CONTINUOUS
10
0.031622
20
0.173406
30
0.0
11
0.029101
21
0.175217
31
0.0
0
LINE
8
0
6
CONTINUOUS
10
0.017883
20
0.176616
30
0.0
11
0.013778
21
0.176613
31
0.0
0
LINE
8
0
6
CONTINUOUS
10
0.013778
20
0.176613
30
0.0
11
0.009952
21
0.176295
31
0.0
0
LINE
8
0
6
CONTINUOUS
10
0.025815
20
0.176295
30
0.0
11
0.021989
21
0.176613
31
0.0
0
LINE
8
0
6
CONTINUOUS
10
0.021174
20
0.141037
30
0.0
11
0.024392
21
0.139884
31
0.0
0
LINE
8
0
6
CONTINUOUS
10
0.024392
20
0.139884
30
0.0
11
0.026508
21
0.138173
31
0.0
0
LINE
8
0
6
CONTINUOUS
10
0.026508
20
0.138173
30
0.0
11
0.027486
21
0.136134
31
0.0
0
LINE
8
0
6
CONTINUOUS
10
0.002019
20
0.130301
30
0.0
11
0.002560
21
0.126784
31
0.0
0
LINE
8
0
6
CONTINUOUS
10
0.002560
20
0.126784
30
0.0
11
0.003829
21
0.124160
31
0.0
0
LINE
8
0
6
CONTINUOUS
10
0.033747
20
0.130301
30
0.0
11
0.033747
21
0.130573
31
0.0
0
LINE
8
0
6
CONTINUOUS
10
0.002019
20
0.130573
30
0.0
11
0.002019
21
0.130301
31
0.0
0
LINE
8
0
6
CONTINUOUS
10
0.033206
20
0.126784
30
0.0
11
0.033747
21
0.130301
31
0.0
0
LINE
8
0
6
CONTINUOUS
10
0.032655
20
0.125644
30
0.0
11
0.033206
21
0.126784
31
0.0
0
LINE
8
0
6
CONTINUOUS
10
0.017886
20
0.141472
30
0.0
11
0.021174
21
0.141037
31
0.0
0
LINE
8
0
6
CONTINUOUS
10
0.014582
20
0.141037
30
0.0
11
0.017886
21
0.141472
31
0.0
0
LINE
8
0
6
CONTINUOUS
10
0.011347
20
0.139884
30
0.0
11
0.014582
21
0.141037
31
0.0
0
LINE
8
0
6
CONTINUOUS
10
0.009201
20
0.138173
30
0.0
11
0.011347
21
0.139884
31
0.0
0
LINE
8
0
6
CONTINUOUS
10
0.008203
20
0.136092
30
0.0
11
0.009201
21
0.138173
31
0.0
0
LINE
8
0
6
CONTINUOUS
10
0.029101
20
0.175217
30
0.0
11
0.025815
21
0.176295
31
0.0
0
LINE
8
0
6
CONTINUOUS
10
0.033747
20
0.167605
30
0.0
11
0.033206
21
0.170907
31
0.0
0
LINE
8
0
6
CONTINUOUS
10
0.033747
20
0.167414
30
0.0
11
0.033747
21
0.167605
31
0.0
0
LINE
8
0
6
CONTINUOUS
10
0.002020
20
0.151416
30
0.0
11
0.002019
21
0.130573
31
0.0
0
LINE
8
0
6
CONTINUOUS
10
0.033747
20
0.130573
30
0.0
11
0.033747
21
0.167414
31
0.0
0
LINE
8
0
6
CONTINUOUS
10
-0.012661
20
0.109282
30
0.0
11
-0.012661
21
0.118776
31
0.0
0
LINE
8
0
6
CONTINUOUS
10
-0.034360
20
0.118776
30
0.0
11
-0.034360
21
0.109282
31
0.0
0
LINE
8
0
6
CONTINUOUS
10
-0.034360
20
0.134911
30
0.0
11
-0.034360
21
0.126844
31
0.0
0
LINE
8
0
6
CONTINUOUS
10
-0.012661
20
0.126844
30
0.0
11
-0.012661
21
0.134911
31
0.0
0
LINE
8
0
6
CONTINUOUS
10
-0.034360
20
0.145380
30
0.0
11
-0.034360
21
0.140572
31
0.0
0
LINE
8
0
6
CONTINUOUS
10
-0.012661
20
0.140572
30
0.0
11
-0.012661
21
0.145380
31
0.0
0
LINE
8
0
6
CONTINUOUS
10
-0.034360
20
0.152640
30
0.0
11
-0.034360
21
0.149396
31
0.0
0
LINE
8
0
6
CONTINUOUS
10
-0.012661
20
0.149396
30
0.0
11
-0.012661
21
0.152640
31
0.0
0
LINE
8
0
6
CONTINUOUS
10
-0.012661
20
0.154876
30
0.0
11
-0.012661
21
0.156246
31
0.0
0
LINE
8
0
6
CONTINUOUS
10
-0.034360
20
0.156246
30
0.0
11
-0.034360
21
0.154876
31
0.0
0
LINE
8
0
6
CONTINUOUS
10
0.063460
20
-0.111206
30
0.0
11
0.056862
21
-0.092638
31
0.0
0
LINE
8
0
6
CONTINUOUS
10
0.056862
20
-0.092638
30
0.0
11
0.056452
21
-0.091689
31
0.0
0
LINE
8
0
6
CONTINUOUS
10
0.065697
20
-0.130755
30
0.0
11
0.063460
21
-0.111206
31
0.0
0
LINE
8
0
6
CONTINUOUS
10
-0.110483
20
-0.111208
30
0.0
11
-0.112719
21
-0.130757
31
0.0
0
LINE
8
0
6
CONTINUOUS
10
-0.103885
20
-0.092639
30
0.0
11
-0.110483
21
-0.111208
31
0.0
0
LINE
8
0
6
CONTINUOUS
10
-0.103475
20
-0.091691
30
0.0
11
-0.103885
21
-0.092639
31
0.0
0
LINE
8
0
6
CONTINUOUS
10
-0.003940
20
-0.044329
30
0.0
11
-0.012661
21
-0.043362
31
0.0
0
LINE
8
0
6
CONTINUOUS
10
0.014996
20
-0.050864
30
0.0
11
0.014651
21
-0.050735
31
0.0
0
LINE
8
0
6
CONTINUOUS
10
0.031825
20
-0.061277
30
0.0
11
0.014996
21
-0.050864
31
0.0
0
LINE
8
0
6
CONTINUOUS
10
0.045878
20
-0.075116
30
0.0
11
0.031825
21
-0.061277
31
0.0
0
LINE
8
0
6
CONTINUOUS
10
0.056452
20
-0.091689
30
0.0
11
0.045878
21
-0.075116
31
0.0
0
LINE
8
0
6
CONTINUOUS
10
-0.092902
20
-0.075118
30
0.0
11
-0.103475
21
-0.091691
31
0.0
0
LINE
8
0
6
CONTINUOUS
10
-0.078849
20
-0.061278
30
0.0
11
-0.092902
21
-0.075118
31
0.0
0
LINE
8
0
6
CONTINUOUS
10
-0.061675
20
-0.050736
30
0.0
11
-0.062021
21
-0.050865
31
0.0
0
LINE
8
0
6
CONTINUOUS
10
-0.062021
20
-0.050865
30
0.0
11
-0.078849
21
-0.061278
31
0.0
0
LINE
8
0
6
CONTINUOUS
10
0.014651
20
-0.050735
30
0.0
11
-0.003940
21
-0.044329
31
0.0
0
LINE
8
0
6
CONTINUOUS
10
-0.043084
20
-0.044330
30
0.0
11
-0.061675
21
-0.050736
31
0.0
0
LINE
8
0
6
CONTINUOUS
10
-0.034360
20
-0.043362
30
0.0
11
-0.043084
21
-0.044330
31
0.0
0
LINE
8
0
6
CONTINUOUS
10
-0.103885
20
-0.168951
30
0.0
11
-0.093256
21
-0.185608
31
0.0
0
LINE
8
0
6
CONTINUOUS
10
-0.043361
20
-0.216483
30
0.0
11
-0.023510
21
-0.218685
31
0.0
0
LINE
8
0
6
CONTINUOUS
10
0.032110
20
-0.199518
30
0.0
11
0.046235
21
-0.185607
31
0.0
0
LINE
8
0
6
CONTINUOUS
10
-0.093256
20
-0.185608
30
0.0
11
-0.079131
21
-0.199519
31
0.0
0
LINE
8
0
6
CONTINUOUS
10
0.046235
20
-0.185607
30
0.0
11
0.056863
21
-0.168949
31
0.0
0
LINE
8
0
6
CONTINUOUS
10
-0.023510
20
-0.218685
30
0.0
11
-0.003660
21
-0.216482
31
0.0
0
LINE
8
0
6
CONTINUOUS
10
-0.112719
20
-0.130833
30
0.0
11
-0.110483
21
-0.150382
31
0.0
0
LINE
8
0
6
CONTINUOUS
10
-0.112719
20
-0.130757
30
0.0
11
-0.112719
21
-0.130833
31
0.0
0
LINE
8
0
6
CONTINUOUS
10
-0.079131
20
-0.199519
30
0.0
11
-0.062216
21
-0.209985
31
0.0
0
LINE
8
0
6
CONTINUOUS
10
-0.003660
20
-0.216482
30
0.0
11
0.015196
21
-0.209985
31
0.0
0
LINE
8
0
6
CONTINUOUS
10
0.056863
20
-0.168949
30
0.0
11
0.063461
21
-0.150380
31
0.0
0
LINE
8
0
6
CONTINUOUS
10
-0.110483
20
-0.150382
30
0.0
11
-0.103885
21
-0.168951
31
0.0
0
LINE
8
0
6
CONTINUOUS
10
0.065697
20
-0.130831
30
0.0
11
0.065697
21
-0.130755
31
0.0
0
LINE
8
0
6
CONTINUOUS
10
0.063461
20
-0.150380
30
0.0
11
0.065693
21
-0.130865
31
0.0
0
LINE
8
0
6
CONTINUOUS
10
0.015196
20
-0.209985
30
0.0
11
0.032110
21
-0.199518
31
0.0
0
LINE
8
0
6
CONTINUOUS
10
-0.062216
20
-0.209985
30
0.0
11
-0.043361
21
-0.216483
31
0.0
0
LINE
8
0
6
CONTINUOUS
10
-0.110483
20
-0.150531
30
0.0
11
-0.103885
21
-0.169099
31
0.0
0
LINE
8
0
6
CONTINUOUS
10
0.015196
20
-0.210133
30
0.0
11
0.032110
21
-0.199666
31
0.0
0
LINE
8
0
6
CONTINUOUS
10
-0.062216
20
-0.210134
30
0.0
11
-0.043361
21
-0.216631
31
0.0
0
LINE
8
0
6
CONTINUOUS
10
-0.079131
20
-0.199667
30
0.0
11
-0.062216
21
-0.210134
31
0.0
0
LINE
8
0
6
CONTINUOUS
10
-0.003660
20
-0.216631
30
0.0
11
0.015196
21
-0.210133
31
0.0
0
LINE
8
0
6
CONTINUOUS
10
0.056863
20
-0.169098
30
0.0
11
0.063461
21
-0.150529
31
0.0
0
LINE
8
0
6
CONTINUOUS
10
-0.093256
20
-0.185757
30
0.0
11
-0.079131
21
-0.199667
31
0.0
0
LINE
8
0
6
CONTINUOUS
10
0.046235
20
-0.185755
30
0.0
11
0.056863
21
-0.169098
31
0.0
0
LINE
8
0
6
CONTINUOUS
10
-0.103885
20
-0.169099
30
0.0
11
-0.093256
21
-0.185757
31
0.0
0
LINE
8
0
6
CONTINUOUS
10
0.032110
20
-0.199666
30
0.0
11
0.046235
21
-0.185755
31
0.0
0
LINE
8
0
6
CONTINUOUS
10
-0.003723
20
-0.216642
30
0.0
11
-0.003660
21
-0.216631
31
0.0
0
LINE
8
0
6
CONTINUOUS
10
-0.023510
20
-0.218838
30
0.0
11
-0.003723
21
-0.216642
31
0.0
0
LINE
8
0
6
CONTINUOUS
10
-0.043297
20
-0.216642
30
0.0
11
-0.023510
21
-0.218838
31
0.0
0
LINE
8
0
6
CONTINUOUS
10
-0.043361
20
-0.216631
30
0.0
11
-0.043297
21
-0.216642
31
0.0
0
LINE
8
0
6
CONTINUOUS
10
-0.023511
20
-0.136015
30
0.0
11
-0.020961
21
-0.135732
31
0.0
0
LINE
8
0
6
CONTINUOUS
10
0.033590
20
0.172028
30
0.0
11
0.032633
21
0.171810
31
0.0
0
LINE
8
0
6
CONTINUOUS
10
0.037489
20
0.172827
30
0.0
11
0.033590
21
0.172028
31
0.0
0
LINE
8
0
6
CONTINUOUS
10
0.069489
20
0.165718
30
0.0
11
0.071811
21
0.166118
31
0.0
0
LINE
8
0
6
CONTINUOUS
10
0.071811
20
0.166118
30
0.0
11
0.092694
21
0.168131
31
0.0
0
LINE
8
0
6
CONTINUOUS
10
0.092694
20
0.168131
30
0.0
11
0.110816
21
0.169310
31
0.0
0
LINE
8
0
6
CONTINUOUS
10
0.110816
20
0.169310
30
0.0
11
0.124765
21
0.169877
31
0.0
0
LINE
8
0
6
CONTINUOUS
10
0.124765
20
0.169877
30
0.0
11
0.128411
21
0.170109
31
0.0
0
LINE
8
0
6
CONTINUOUS
10
0.120204
20
0.174203
30
0.0
11
0.123591
21
0.170338
31
0.0
0
LINE
8
0
6
CONTINUOUS
10
0.120337
20
0.177329
30
0.0
11
0.120204
21
0.174203
31
0.0
0
LINE
8
0
6
CONTINUOUS
10
0.128519
20
0.170250
30
0.0
11
0.129046
21
0.170503
31
0.0
0
LINE
8
0
6
CONTINUOUS
10
0.120491
20
0.174961
30
0.0
11
0.120625
21
0.174449
31
0.0
0
LINE
8
0
6
CONTINUOUS
10
0.129046
20
0.170503
30
0.0
11
0.132748
21
0.173915
31
0.0
0
LINE
8
0
6
CONTINUOUS
10
0.132748
20
0.173915
30
0.0
11
0.132771
21
0.174449
31
0.0
0
LINE
8
0
6
CONTINUOUS
10
0.120588
20
0.177252
30
0.0
11
0.120491
21
0.174961
31
0.0
0
LINE
8
0
6
CONTINUOUS
10
0.128948
20
0.171022
30
0.0
11
0.129990
21
0.171893
31
0.0
0
LINE
8
0
6
CONTINUOUS
10
0.120756
20
0.177038
30
0.0
11
0.121525
21
0.175826
31
0.0
0
LINE
8
0
6
CONTINUOUS
10
0.129990
20
0.171893
30
0.0
11
0.133708
21
0.175310
31
0.0
0
LINE
8
0
6
CONTINUOUS
10
0.133708
20
0.175310
30
0.0
11
0.133921
21
0.180356
31
0.0
0
LINE
8
0
6
CONTINUOUS
10
0.133921
20
0.180356
30
0.0
11
0.133152
21
0.181574
31
0.0
0
LINE
8
0
6
CONTINUOUS
10
0.133152
20
0.181574
30
0.0
11
0.133028
21
0.183040
31
0.0
0
LINE
8
0
6
CONTINUOUS
10
0.133028
20
0.183040
30
0.0
11
0.132657
21
0.184564
31
0.0
0
LINE
8
0
6
CONTINUOUS
10
0.119303
20
0.177647
30
0.0
11
0.123701
21
0.176296
31
0.0
0
LINE
8
0
6
CONTINUOUS
10
0.132657
20
0.184564
30
0.0
11
0.129247
21
0.188274
31
0.0
0
LINE
8
0
6
CONTINUOUS
10
0.129247
20
0.188274
30
0.0
11
0.124816
21
0.189634
31
0.0
0
LINE
8
0
6
CONTINUOUS
10
0.112627
20
0.178648
30
0.0
11
0.119303
21
0.177647
31
0.0
0
LINE
8
0
6
CONTINUOUS
10
0.124816
20
0.189634
30
0.0
11
0.118059
21
0.190646
31
0.0
0
LINE
8
0
6
CONTINUOUS
10
0.103315
20
0.179152
30
0.0
11
0.112627
21
0.178648
31
0.0
0
LINE
8
0
6
CONTINUOUS
10
0.118059
20
0.190646
30
0.0
11
0.108593
21
0.191158
31
0.0
0
LINE
8
0
6
CONTINUOUS
10
0.095781
20
0.178869
30
0.0
11
0.108156
21
0.178971
31
0.0
0
LINE
8
0
6
CONTINUOUS
10
0.108593
20
0.191158
30
0.0
11
0.103753
21
0.191339
31
0.0
0
LINE
8
0
6
CONTINUOUS
10
0.103753
20
0.191339
30
0.0
11
0.091423
21
0.191238
31
0.0
0
LINE
8
0
6
CONTINUOUS
10
0.080631
20
0.178122
30
0.0
11
0.095781
21
0.178869
31
0.0
0
LINE
8
0
6
CONTINUOUS
10
0.091423
20
0.191238
30
0.0
11
0.076275
21
0.190491
31
0.0
0
LINE
8
0
6
CONTINUOUS
10
0.063718
20
0.176807
30
0.0
11
0.080631
21
0.178122
31
0.0
0
LINE
8
0
6
CONTINUOUS
10
0.076275
20
0.190491
30
0.0
11
0.059316
21
0.189172
31
0.0
0
LINE
8
0
6
CONTINUOUS
10
0.046927
20
0.175108
30
0.0
11
0.063718
21
0.176807
31
0.0
0
LINE
8
0
6
CONTINUOUS
10
0.059316
20
0.189172
30
0.0
11
0.042428
21
0.187464
31
0.0
0
LINE
8
0
6
CONTINUOUS
10
0.032949
20
0.173169
30
0.0
11
0.046927
21
0.175108
31
0.0
0
LINE
8
0
6
CONTINUOUS
10
0.042428
20
0.187464
30
0.0
11
0.028209
21
0.185480
31
0.0
0
LINE
8
0
6
CONTINUOUS
10
0.032026
20
0.172768
30
0.0
11
0.032949
21
0.173169
31
0.0
0
LINE
8
0
6
CONTINUOUS
10
0.028209
20
0.185480
30
0.0
11
0.018792
21
0.181326
31
0.0
0
LINE
8
0
6
CONTINUOUS
10
0.018792
20
0.181326
30
0.0
11
0.015321
21
0.177869
31
0.0
0
LINE
8
0
6
CONTINUOUS
10
0.015321
20
0.177869
30
0.0
11
0.014904
21
0.176614
31
0.0
0
LINE
8
0
6
CONTINUOUS
10
-0.107087
20
0.127228
30
0.0
11
-0.102958
21
0.127228
31
0.0
0
LINE
8
0
6
CONTINUOUS
10
0.060065
20
0.127228
30
0.0
11
0.063665
21
0.127228
31
0.0
0
LINE
8
0
6
CONTINUOUS
10
-0.114076
20
0.170704
30
0.0
11
-0.115876
21
0.170704
31
0.0
0
LINE
8
0
6
CONTINUOUS
10
0.063665
20
0.127228
30
0.0
11
0.066365
21
0.127228
31
0.0
0
LINE
8
0
6
CONTINUOUS
10
0.066365
20
0.127228
30
0.0
11
0.068060
21
0.127228
31
0.0
0
LINE
8
0
6
CONTINUOUS
10
0.068060
20
0.127228
30
0.0
11
0.068695
21
0.127228
31
0.0
0
LINE
8
0
6
CONTINUOUS
10
0.068695
20
0.127228
30
0.0
11
0.069224
21
0.127613
31
0.0
0
LINE
8
0
6
CONTINUOUS
10
0.067054
20
0.170704
30
0.0
11
0.064195
21
0.170704
31
0.0
0
LINE
8
0
6
CONTINUOUS
10
0.068854
20
0.170704
30
0.0
11
0.067054
21
0.170704
31
0.0
0
LINE
8
0
6
CONTINUOUS
10
0.069224
20
0.127613
30
0.0
11
0.069489
21
0.128382
31
0.0
0
LINE
8
0
6
CONTINUOUS
10
0.055936
20
0.127228
30
0.0
11
0.060065
21
0.127228
31
0.0
0
LINE
8
0
6
CONTINUOUS
10
0.051489
20
0.127228
30
0.0
11
0.055936
21
0.127228
31
0.0
0
LINE
8
0
6
CONTINUOUS
10
0.069489
20
0.170704
30
0.0
11
0.068854
21
0.170704
31
0.0
0
LINE
8
0
6
CONTINUOUS
10
0.069489
20
0.169665
30
0.0
11
0.069489
21
0.170704
31
0.0
0
LINE
8
0
6
CONTINUOUS
10
-0.012661
20
0.127228
30
0.0
11
0.002492
21
0.127228
31
0.0
0
LINE
8
0
6
CONTINUOUS
10
0.033274
20
0.127228
30
0.0
11
0.051489
21
0.127228
31
0.0
0
LINE
8
0
6
CONTINUOUS
10
-0.098511
20
0.127228
30
0.0
11
-0.034360
21
0.127228
31
0.0
0
LINE
8
0
6
CONTINUOUS
10
-0.113387
20
0.127228
30
0.0
11
-0.110687
21
0.127228
31
0.0
0
LINE
8
0
6
CONTINUOUS
10
-0.115081
20
0.127228
30
0.0
11
-0.113387
21
0.127228
31
0.0
0
LINE
8
0
6
CONTINUOUS
10
-0.116246
20
0.127613
30
0.0
11
-0.115717
21
0.127228
31
0.0
0
LINE
8
0
6
CONTINUOUS
10
-0.115717
20
0.127228
30
0.0
11
-0.115081
21
0.127228
31
0.0
0
LINE
8
0
6
CONTINUOUS
10
-0.116511
20
0.128382
30
0.0
11
-0.116246
21
0.127613
31
0.0
0
LINE
8
0
6
CONTINUOUS
10
-0.110687
20
0.127228
30
0.0
11
-0.107087
21
0.127228
31
0.0
0
LINE
8
0
6
CONTINUOUS
10
-0.102958
20
0.127228
30
0.0
11
-0.098511
21
0.127228
31
0.0
0
LINE
8
0
6
CONTINUOUS
10
-0.116511
20
0.169665
30
0.0
11
-0.116511
21
0.128382
31
0.0
0
LINE
8
0
6
CONTINUOUS
10
-0.107458
20
0.170704
30
0.0
11
-0.111217
21
0.170704
31
0.0
0
LINE
8
0
6
CONTINUOUS
10
-0.103117
20
0.170704
30
0.0
11
-0.107458
21
0.170704
31
0.0
0
LINE
8
0
6
CONTINUOUS
10
-0.098511
20
0.170704
30
0.0
11
-0.103117
21
0.170704
31
0.0
0
LINE
8
0
6
CONTINUOUS
10
-0.098511
20
0.169665
30
0.0
11
-0.098511
21
0.170704
31
0.0
0
LINE
8
0
6
CONTINUOUS
10
-0.115876
20
0.170704
30
0.0
11
-0.116511
21
0.170704
31
0.0
0
LINE
8
0
6
CONTINUOUS
10
-0.116511
20
0.170704
30
0.0
11
-0.116511
21
0.169665
31
0.0
0
LINE
8
0
6
CONTINUOUS
10
-0.111217
20
0.170704
30
0.0
11
-0.114076
21
0.170704
31
0.0
0
LINE
8
0
6
CONTINUOUS
10
0.056095
20
0.170704
30
0.0
11
0.051489
21
0.170704
31
0.0
0
LINE
8
0
6
CONTINUOUS
10
0.060436
20
0.170704
30
0.0
11
0.056095
21
0.170704
31
0.0
0
LINE
8
0
6
CONTINUOUS
10
0.064195
20
0.170704
30
0.0
11
0.060436
21
0.170704
31
0.0
0
LINE
8
0
6
CONTINUOUS
10
0.069489
20
0.128382
30
0.0
11
0.069489
21
0.169665
31
0.0
0
LINE
8
0
6
CONTINUOUS
10
-0.073724
20
0.136516
30
0.0
11
-0.071494
21
0.136230
31
0.0
0
LINE
8
0
6
CONTINUOUS
10
-0.133400
20
0.213331
30
0.0
11
-0.133098
21
0.213028
31
0.0
0
LINE
8
0
6
CONTINUOUS
10
-0.094516
20
0.193760
30
0.0
11
-0.090806
21
0.193760
31
0.0
0
LINE
8
0
6
CONTINUOUS
10
-0.113967
20
0.193760
30
0.0
11
-0.113397
21
0.193760
31
0.0
0
LINE
8
0
6
CONTINUOUS
10
-0.114366
20
0.194161
30
0.0
11
-0.113967
21
0.193760
31
0.0
0
LINE
8
0
6
CONTINUOUS
10
-0.113397
20
0.193760
30
0.0
11
-0.111875
21
0.193760
31
0.0
0
LINE
8
0
6
CONTINUOUS
10
-0.063622
20
0.213331
30
0.0
11
-0.063101
21
0.214373
31
0.0
0
LINE
8
0
6
CONTINUOUS
10
-0.084511
20
0.170704
30
0.0
11
-0.084511
21
0.174158
31
0.0
0
LINE
8
0
6
CONTINUOUS
10
-0.084511
20
0.188796
30
0.0
11
-0.084511
21
0.193760
31
0.0
0
LINE
8
0
6
CONTINUOUS
10
-0.112511
20
0.193760
30
0.0
11
-0.112511
21
0.189016
31
0.0
0
LINE
8
0
6
CONTINUOUS
10
-0.112511
20
0.173937
30
0.0
11
-0.112511
21
0.170704
31
0.0
0
LINE
8
0
6
CONTINUOUS
10
0.016079
20
0.214800
30
0.0
11
0.016079
21
0.214373
31
0.0
0
LINE
8
0
6
CONTINUOUS
10
0.066946
20
0.193759
30
0.0
11
0.067395
21
0.194211
31
0.0
0
LINE
8
0
6
CONTINUOUS
10
0.066375
20
0.193759
30
0.0
11
0.066946
21
0.193759
31
0.0
0
LINE
8
0
6
CONTINUOUS
10
0.016079
20
0.214373
30
0.0
11
0.016600
21
0.213331
31
0.0
0
LINE
8
0
6
CONTINUOUS
10
0.037489
20
0.193759
30
0.0
11
0.037489
21
0.188795
31
0.0
0
LINE
8
0
6
CONTINUOUS
10
0.037489
20
0.173799
30
0.0
11
0.037489
21
0.170704
31
0.0
0
LINE
8
0
6
CONTINUOUS
10
0.065489
20
0.170704
30
0.0
11
0.065489
21
0.173937
31
0.0
0
LINE
8
0
6
CONTINUOUS
10
0.065489
20
0.189652
30
0.0
11
0.065489
21
0.193759
31
0.0
0
LINE
8
0
6
CONTINUOUS
10
-0.003105
20
0.102907
30
0.0
11
-0.003105
21
0.127228
31
0.0
0
LINE
8
0
6
CONTINUOUS
10
-0.039159
20
0.101908
30
0.0
11
-0.034857
21
0.101908
31
0.0
0
LINE
8
0
6
CONTINUOUS
10
-0.046116
20
0.102907
30
0.0
11
-0.046116
21
0.102652
31
0.0
0
LINE
8
0
6
CONTINUOUS
10
-0.044826
20
0.100446
30
0.0
11
-0.044826
21
0.099586
31
0.0
0
LINE
8
0
6
CONTINUOUS
10
-0.063923
20
0.213028
30
0.0
11
-0.063622
21
0.213331
31
0.0
0
LINE
8
0
6
CONTINUOUS
10
-0.004395
20
0.099586
30
0.0
11
-0.004395
21
0.100446
31
0.0
0
LINE
8
0
6
CONTINUOUS
10
-0.075783
20
0.137374
30
0.0
11
-0.073724
21
0.136516
31
0.0
0
LINE
8
0
6
CONTINUOUS
10
-0.077555
20
0.138746
30
0.0
11
-0.075783
21
0.137374
31
0.0
0
LINE
8
0
6
CONTINUOUS
10
-0.078928
20
0.140519
30
0.0
11
-0.077555
21
0.138746
31
0.0
0
LINE
8
0
6
CONTINUOUS
10
-0.079786
20
0.142578
30
0.0
11
-0.078928
21
0.140519
31
0.0
0
LINE
8
0
6
CONTINUOUS
10
-0.080071
20
0.144808
30
0.0
11
-0.079786
21
0.142578
31
0.0
0
LINE
8
0
6
CONTINUOUS
10
-0.075783
20
0.152242
30
0.0
11
-0.077555
21
0.150870
31
0.0
0
LINE
8
0
6
CONTINUOUS
10
-0.079786
20
0.147038
30
0.0
11
-0.080071
21
0.144808
31
0.0
0
LINE
8
0
6
CONTINUOUS
10
0.026494
20
0.218837
30
0.0
11
0.020870
21
0.218837
31
0.0
0
LINE
8
0
6
CONTINUOUS
10
0.085649
20
0.218837
30
0.0
11
0.082108
21
0.218837
31
0.0
0
LINE
8
0
6
CONTINUOUS
10
0.060550
20
0.218837
30
0.0
11
0.051489
21
0.218837
31
0.0
0
LINE
8
0
6
CONTINUOUS
10
0.042428
20
0.218837
30
0.0
11
0.033888
21
0.218837
31
0.0
0
LINE
8
0
6
CONTINUOUS
10
0.069090
20
0.218837
30
0.0
11
0.060550
21
0.218837
31
0.0
0
LINE
8
0
6
CONTINUOUS
10
0.033888
20
0.218837
30
0.0
11
0.026494
21
0.218837
31
0.0
0
LINE
8
0
6
CONTINUOUS
10
0.020870
20
0.218837
30
0.0
11
0.017329
21
0.218837
31
0.0
0
LINE
8
0
6
CONTINUOUS
10
0.082108
20
0.218837
30
0.0
11
0.076484
21
0.218837
31
0.0
0
LINE
8
0
6
CONTINUOUS
10
0.076484
20
0.218837
30
0.0
11
0.069090
21
0.218837
31
0.0
0
LINE
8
0
6
CONTINUOUS
10
0.051489
20
0.218837
30
0.0
11
0.042428
21
0.218837
31
0.0
0
LINE
8
0
6
CONTINUOUS
10
-0.132671
20
0.218838
30
0.0
11
-0.133921
21
0.218838
31
0.0
0
LINE
8
0
6
CONTINUOUS
10
-0.133921
20
0.218838
30
0.0
11
-0.133921
21
0.218076
31
0.0
0
LINE
8
0
6
CONTINUOUS
10
-0.073516
20
0.218838
30
0.0
11
-0.080910
21
0.218838
31
0.0
0
LINE
8
0
6
CONTINUOUS
10
-0.064351
20
0.218838
30
0.0
11
-0.067892
21
0.218838
31
0.0
0
LINE
8
0
6
CONTINUOUS
10
-0.080910
20
0.218838
30
0.0
11
-0.089450
21
0.218838
31
0.0
0
LINE
8
0
6
CONTINUOUS
10
-0.089450
20
0.218838
30
0.0
11
-0.098511
21
0.218838
31
0.0
0
LINE
8
0
6
CONTINUOUS
10
-0.107572
20
0.218838
30
0.0
11
-0.116112
21
0.218838
31
0.0
0
LINE
8
0
6
CONTINUOUS
10
-0.098511
20
0.218838
30
0.0
11
-0.107572
21
0.218838
31
0.0
0
LINE
8
0
6
CONTINUOUS
10
-0.067892
20
0.218838
30
0.0
11
-0.073516
21
0.218838
31
0.0
0
LINE
8
0
6
CONTINUOUS
10
-0.063101
20
0.218838
30
0.0
11
-0.064351
21
0.218838
31
0.0
0
LINE
8
0
6
CONTINUOUS
10
-0.063101
20
0.218076
30
0.0
11
-0.063101
21
0.218838
31
0.0
0
LINE
8
0
6
CONTINUOUS
10
0.086899
20
0.218076
30
0.0
11
0.086899
21
0.218837
31
0.0
0
LINE
8
0
6
CONTINUOUS
10
0.086899
20
0.218837
30
0.0
11
0.085649
21
0.218837
31
0.0
0
LINE
8
0
6
CONTINUOUS
10
-0.071494
20
0.136230
30
0.0
11
-0.069263
21
0.136516
31
0.0
0
LINE
8
0
6
CONTINUOUS
10
-0.078928
20
0.149097
30
0.0
11
-0.079786
21
0.147038
31
0.0
0
LINE
8
0
6
CONTINUOUS
10
-0.077555
20
0.150870
30
0.0
11
-0.078928
21
0.149097
31
0.0
0
LINE
8
0
6
CONTINUOUS
10
-0.073724
20
0.153100
30
0.0
11
-0.075783
21
0.152242
31
0.0
0
LINE
8
0
6
CONTINUOUS
10
-0.010062
20
0.101908
30
0.0
11
-0.006836
21
0.101908
31
0.0
0
LINE
8
0
6
CONTINUOUS
10
-0.006836
20
0.101908
30
0.0
11
-0.004812
21
0.101908
31
0.0
0
LINE
8
0
6
CONTINUOUS
10
-0.004812
20
0.101908
30
0.0
11
-0.004054
21
0.101908
31
0.0
0
LINE
8
0
6
CONTINUOUS
10
-0.004054
20
0.101908
30
0.0
11
-0.003421
21
0.102156
31
0.0
0
LINE
8
0
6
CONTINUOUS
10
-0.003421
20
0.102156
30
0.0
11
-0.003105
21
0.102652
31
0.0
0
LINE
8
0
6
CONTINUOUS
10
-0.042384
20
0.101908
30
0.0
11
-0.039159
21
0.101908
31
0.0
0
LINE
8
0
6
CONTINUOUS
10
-0.044409
20
0.101908
30
0.0
11
-0.042384
21
0.101908
31
0.0
0
LINE
8
0
6
CONTINUOUS
10
-0.045800
20
0.102156
30
0.0
11
-0.045167
21
0.101908
31
0.0
0
LINE
8
0
6
CONTINUOUS
10
-0.045167
20
0.101908
30
0.0
11
-0.044409
21
0.101908
31
0.0
0
LINE
8
0
6
CONTINUOUS
10
-0.046116
20
0.102652
30
0.0
11
-0.045800
21
0.102156
31
0.0
0
LINE
8
0
6
CONTINUOUS
10
-0.034857
20
0.101908
30
0.0
11
-0.034360
21
0.101908
31
0.0
0
LINE
8
0
6
CONTINUOUS
10
-0.012661
20
0.101908
30
0.0
11
-0.010062
21
0.101908
31
0.0
0
LINE
8
0
6
CONTINUOUS
10
0.038125
20
0.193759
30
0.0
11
0.040551
21
0.193759
31
0.0
0
LINE
8
0
6
CONTINUOUS
10
0.036603
20
0.193759
30
0.0
11
0.038125
21
0.193759
31
0.0
0
LINE
8
0
6
CONTINUOUS
10
0.036033
20
0.193759
30
0.0
11
0.036603
21
0.193759
31
0.0
0
LINE
8
0
6
CONTINUOUS
10
0.035584
20
0.194211
30
0.0
11
0.036033
21
0.193759
31
0.0
0
LINE
8
0
6
CONTINUOUS
10
0.062428
20
0.193759
30
0.0
11
0.064853
21
0.193759
31
0.0
0
LINE
8
0
6
CONTINUOUS
10
0.064853
20
0.193759
30
0.0
11
0.066375
21
0.193759
31
0.0
0
LINE
8
0
6
CONTINUOUS
10
0.086378
20
0.213331
30
0.0
11
0.086899
21
0.214373
31
0.0
0
LINE
8
0
6
CONTINUOUS
10
0.059194
20
0.193759
30
0.0
11
0.062428
21
0.193759
31
0.0
0
LINE
8
0
6
CONTINUOUS
10
0.055484
20
0.193759
30
0.0
11
0.059194
21
0.193759
31
0.0
0
LINE
8
0
6
CONTINUOUS
10
0.086899
20
0.214373
30
0.0
11
0.086899
21
0.214800
31
0.0
0
LINE
8
0
6
CONTINUOUS
10
-0.123506
20
0.218838
30
0.0
11
-0.129130
21
0.218838
31
0.0
0
LINE
8
0
6
CONTINUOUS
10
-0.129130
20
0.218838
30
0.0
11
-0.132671
21
0.218838
31
0.0
0
LINE
8
0
6
CONTINUOUS
10
-0.116112
20
0.218838
30
0.0
11
-0.123506
21
0.218838
31
0.0
0
LINE
8
0
6
CONTINUOUS
10
0.051489
20
0.193759
30
0.0
11
0.055484
21
0.193759
31
0.0
0
LINE
8
0
6
CONTINUOUS
10
0.040551
20
0.193759
30
0.0
11
0.043785
21
0.193759
31
0.0
0
LINE
8
0
6
CONTINUOUS
10
0.043785
20
0.193759
30
0.0
11
0.047494
21
0.193759
31
0.0
0
LINE
8
0
6
CONTINUOUS
10
0.047494
20
0.193759
30
0.0
11
0.051489
21
0.193759
31
0.0
0
LINE
8
0
6
CONTINUOUS
10
-0.087572
20
0.193760
30
0.0
11
-0.085147
21
0.193760
31
0.0
0
LINE
8
0
6
CONTINUOUS
10
-0.085147
20
0.193760
30
0.0
11
-0.083625
21
0.193760
31
0.0
0
LINE
8
0
6
CONTINUOUS
10
-0.083054
20
0.193760
30
0.0
11
-0.082655
21
0.194161
31
0.0
0
LINE
8
0
6
CONTINUOUS
10
-0.083625
20
0.193760
30
0.0
11
-0.083054
21
0.193760
31
0.0
0
LINE
8
0
6
CONTINUOUS
10
-0.111875
20
0.193760
30
0.0
11
-0.109449
21
0.193760
31
0.0
0
LINE
8
0
6
CONTINUOUS
10
-0.063101
20
0.214373
30
0.0
11
-0.063101
21
0.214724
31
0.0
0
LINE
8
0
6
CONTINUOUS
10
-0.133921
20
0.214373
30
0.0
11
-0.133400
21
0.213331
31
0.0
0
LINE
8
0
6
CONTINUOUS
10
-0.109449
20
0.193760
30
0.0
11
-0.106215
21
0.193760
31
0.0
0
LINE
8
0
6
CONTINUOUS
10
-0.106215
20
0.193760
30
0.0
11
-0.102506
21
0.193760
31
0.0
0
LINE
8
0
6
CONTINUOUS
10
-0.102506
20
0.193760
30
0.0
11
-0.098511
21
0.193760
31
0.0
0
LINE
8
0
6
CONTINUOUS
10
-0.133921
20
0.214724
30
0.0
11
-0.133921
21
0.214373
31
0.0
0
LINE
8
0
6
CONTINUOUS
10
-0.090806
20
0.193760
30
0.0
11
-0.087572
21
0.193760
31
0.0
0
LINE
8
0
6
CONTINUOUS
10
-0.098511
20
0.193760
30
0.0
11
-0.094516
21
0.193760
31
0.0
0
LINE
8
0
6
CONTINUOUS
10
0.016079
20
0.218837
30
0.0
11
0.016079
21
0.218076
31
0.0
0
LINE
8
0
6
CONTINUOUS
10
0.017329
20
0.218837
30
0.0
11
0.016079
21
0.218837
31
0.0
0
LINE
8
0
6
CONTINUOUS
10
-0.046116
20
0.127228
30
0.0
11
-0.046116
21
0.102907
31
0.0
0
LINE
8
0
6
CONTINUOUS
10
-0.003105
20
0.102652
30
0.0
11
-0.003105
21
0.102907
31
0.0
0
LINE
8
0
6
CONTINUOUS
10
-0.112714
20
0.173937
30
0.0
11
-0.111330
21
0.173937
31
0.0
0
LINE
8
0
6
CONTINUOUS
10
-0.111330
20
0.173937
30
0.0
11
-0.100303
21
0.173937
31
0.0
0
LINE
8
0
6
CONTINUOUS
10
-0.083077
20
0.174682
30
0.0
11
-0.082979
21
0.174759
31
0.0
0
LINE
8
0
6
CONTINUOUS
10
-0.083274
20
0.174610
30
0.0
11
-0.083077
21
0.174682
31
0.0
0
LINE
8
0
6
CONTINUOUS
10
-0.082979
20
0.174759
30
0.0
11
-0.082979
21
0.175113
31
0.0
0
LINE
8
0
6
CONTINUOUS
10
-0.082979
20
0.175113
30
0.0
11
-0.082979
21
0.181477
31
0.0
0
LINE
8
0
6
CONTINUOUS
10
-0.084511
20
0.174158
30
0.0
11
-0.083274
21
0.174610
31
0.0
0
LINE
8
0
6
CONTINUOUS
10
-0.114849
20
0.174759
30
0.0
11
-0.114751
21
0.174682
31
0.0
0
LINE
8
0
6
CONTINUOUS
10
-0.114849
20
0.175113
30
0.0
11
-0.114849
21
0.174759
31
0.0
0
LINE
8
0
6
CONTINUOUS
10
-0.114751
20
0.174682
30
0.0
11
-0.114554
21
0.174610
31
0.0
0
LINE
8
0
6
CONTINUOUS
10
-0.114849
20
0.181477
30
0.0
11
-0.114849
21
0.175113
31
0.0
0
LINE
8
0
6
CONTINUOUS
10
-0.100303
20
0.173937
30
0.0
11
-0.097530
21
0.173937
31
0.0
0
LINE
8
0
6
CONTINUOUS
10
-0.086504
20
0.173937
30
0.0
11
-0.085115
21
0.173937
31
0.0
0
LINE
8
0
6
CONTINUOUS
10
-0.114554
20
0.174610
30
0.0
11
-0.112714
21
0.173937
31
0.0
0
LINE
8
0
6
CONTINUOUS
10
-0.111330
20
0.189016
30
0.0
11
-0.112714
21
0.189016
31
0.0
0
LINE
8
0
6
CONTINUOUS
10
-0.100303
20
0.189016
30
0.0
11
-0.111330
21
0.189016
31
0.0
0
LINE
8
0
6
CONTINUOUS
10
-0.083077
20
0.188271
30
0.0
11
-0.083274
21
0.188343
31
0.0
0
LINE
8
0
6
CONTINUOUS
10
-0.082979
20
0.188194
30
0.0
11
-0.083077
21
0.188271
31
0.0
0
LINE
8
0
6
CONTINUOUS
10
-0.082979
20
0.187840
30
0.0
11
-0.082979
21
0.188194
31
0.0
0
LINE
8
0
6
CONTINUOUS
10
-0.082979
20
0.181477
30
0.0
11
-0.082979
21
0.187840
31
0.0
0
LINE
8
0
6
CONTINUOUS
10
-0.083274
20
0.188343
30
0.0
11
-0.084511
21
0.188796
31
0.0
0
LINE
8
0
6
CONTINUOUS
10
-0.114849
20
0.188194
30
0.0
11
-0.114849
21
0.187840
31
0.0
0
LINE
8
0
6
CONTINUOUS
10
-0.114751
20
0.188271
30
0.0
11
-0.114849
21
0.188194
31
0.0
0
LINE
8
0
6
CONTINUOUS
10
-0.114554
20
0.188343
30
0.0
11
-0.114751
21
0.188271
31
0.0
0
LINE
8
0
6
CONTINUOUS
10
-0.114849
20
0.187840
30
0.0
11
-0.114849
21
0.181477
31
0.0
0
LINE
8
0
6
CONTINUOUS
10
-0.097530
20
0.189016
30
0.0
11
-0.100303
21
0.189016
31
0.0
0
LINE
8
0
6
CONTINUOUS
10
-0.085115
20
0.189016
30
0.0
11
-0.086504
21
0.189016
31
0.0
0
LINE
8
0
6
CONTINUOUS
10
-0.112714
20
0.189016
30
0.0
11
-0.114554
21
0.188343
31
0.0
0
LINE
8
0
6
CONTINUOUS
10
0.064308
20
0.173937
30
0.0
11
0.065692
21
0.173937
31
0.0
0
LINE
8
0
6
CONTINUOUS
10
0.053281
20
0.173937
30
0.0
11
0.064308
21
0.173937
31
0.0
0
LINE
8
0
6
CONTINUOUS
10
0.039482
20
0.173937
30
0.0
11
0.042901
21
0.173937
31
0.0
0
LINE
8
0
6
CONTINUOUS
10
0.067827
20
0.174759
30
0.0
11
0.067827
21
0.175113
31
0.0
0
LINE
8
0
6
CONTINUOUS
10
0.067729
20
0.174682
30
0.0
11
0.067827
21
0.174759
31
0.0
0
LINE
8
0
6
CONTINUOUS
10
0.067532
20
0.174610
30
0.0
11
0.067729
21
0.174682
31
0.0
0
LINE
8
0
6
CONTINUOUS
10
0.067827
20
0.175113
30
0.0
11
0.067827
21
0.177126
31
0.0
0
LINE
8
0
6
CONTINUOUS
10
0.050508
20
0.173937
30
0.0
11
0.053281
21
0.173937
31
0.0
0
LINE
8
0
6
CONTINUOUS
10
0.038093
20
0.173937
30
0.0
11
0.039482
21
0.173937
31
0.0
0
LINE
8
0
6
CONTINUOUS
10
0.065692
20
0.173937
30
0.0
11
0.067532
21
0.174610
31
0.0
0
LINE
8
0
6
CONTINUOUS
10
0.057777
20
0.189016
30
0.0
11
0.053281
21
0.189016
31
0.0
0
LINE
8
0
6
CONTINUOUS
10
0.036056
20
0.188271
30
0.0
11
0.035957
21
0.188194
31
0.0
0
LINE
8
0
6
CONTINUOUS
10
0.036253
20
0.188343
30
0.0
11
0.036056
21
0.188271
31
0.0
0
LINE
8
0
6
CONTINUOUS
10
0.035957
20
0.188194
30
0.0
11
0.035957
21
0.187840
31
0.0
0
LINE
8
0
6
CONTINUOUS
10
0.035957
20
0.187840
30
0.0
11
0.035957
21
0.186561
31
0.0
0
LINE
8
0
6
CONTINUOUS
10
0.037489
20
0.188795
30
0.0
11
0.036253
21
0.188343
31
0.0
0
LINE
8
0
6
CONTINUOUS
10
0.053281
20
0.189016
30
0.0
11
0.050508
21
0.189016
31
0.0
0
LINE
8
0
6
CONTINUOUS
10
0.039482
20
0.189016
30
0.0
11
0.038093
21
0.189016
31
0.0
0
LINE
8
0
6
CONTINUOUS
10
-0.063101
20
0.214724
30
0.0
11
-0.063101
21
0.218076
31
0.0
0
LINE
8
0
6
CONTINUOUS
10
-0.133921
20
0.218076
30
0.0
11
-0.133921
21
0.214724
31
0.0
0
LINE
8
0
6
CONTINUOUS
10
0.016079
20
0.218076
30
0.0
11
0.016079
21
0.214800
31
0.0
0
LINE
8
0
6
CONTINUOUS
10
0.086899
20
0.214800
30
0.0
11
0.086899
21
0.218076
31
0.0
0
LINE
8
0
6
CONTINUOUS
10
-0.082655
20
0.194161
30
0.0
11
-0.063923
21
0.213028
31
0.0
0
LINE
8
0
6
CONTINUOUS
10
-0.133098
20
0.213028
30
0.0
11
-0.114366
21
0.194161
31
0.0
0
LINE
8
0
6
CONTINUOUS
10
-0.045686
20
0.100446
30
0.0
11
-0.046546
21
0.099586
31
0.0
0
LINE
8
0
6
CONTINUOUS
10
-0.046546
20
0.099586
30
0.0
11
-0.046546
21
0.099272
31
0.0
0
LINE
8
0
6
CONTINUOUS
10
-0.046546
20
0.099272
30
0.0
11
-0.046546
21
0.072868
31
0.0
0
LINE
8
0
6
CONTINUOUS
10
-0.044826
20
0.100446
30
0.0
11
-0.044912
21
0.100446
31
0.0
0
LINE
8
0
6
CONTINUOUS
10
-0.034360
20
0.095409
30
0.0
11
-0.034673
21
0.095443
31
0.0
0
LINE
8
0
6
CONTINUOUS
10
-0.042592
20
0.097508
30
0.0
11
-0.044661
21
0.098890
31
0.0
0
LINE
8
0
6
CONTINUOUS
10
-0.039204
20
0.096303
30
0.0
11
-0.042592
21
0.097508
31
0.0
0
LINE
8
0
6
CONTINUOUS
10
-0.034673
20
0.095443
30
0.0
11
-0.039204
21
0.096303
31
0.0
0
LINE
8
0
6
CONTINUOUS
10
-0.044661
20
0.098890
30
0.0
11
-0.045331
21
0.100230
31
0.0
0
LINE
8
0
6
CONTINUOUS
10
-0.044912
20
0.100446
30
0.0
11
-0.045686
21
0.100446
31
0.0
0
LINE
8
0
6
CONTINUOUS
10
-0.045331
20
0.100230
30
0.0
11
-0.044659
21
0.100230
31
0.0
0
LINE
8
0
6
CONTINUOUS
10
-0.046546
20
0.064269
30
0.0
11
-0.046546
21
0.063816
31
0.0
0
LINE
8
0
6
CONTINUOUS
10
-0.046546
20
0.072868
30
0.0
11
-0.046546
21
0.064269
31
0.0
0
LINE
8
0
6
CONTINUOUS
10
-0.002675
20
0.099586
30
0.0
11
-0.003535
21
0.100446
31
0.0
0
LINE
8
0
6
CONTINUOUS
10
-0.002675
20
0.099272
30
0.0
11
-0.002675
21
0.099586
31
0.0
0
LINE
8
0
6
CONTINUOUS
10
-0.002675
20
0.072868
30
0.0
11
-0.002675
21
0.099272
31
0.0
0
LINE
8
0
6
CONTINUOUS
10
-0.004309
20
0.100446
30
0.0
11
-0.004395
21
0.100446
31
0.0
0
LINE
8
0
6
CONTINUOUS
10
-0.004560
20
0.098890
30
0.0
11
-0.006629
21
0.097508
31
0.0
0
LINE
8
0
6
CONTINUOUS
10
-0.006629
20
0.097508
30
0.0
11
-0.010017
21
0.096303
31
0.0
0
LINE
8
0
6
CONTINUOUS
10
-0.010017
20
0.096303
30
0.0
11
-0.012661
21
0.095801
31
0.0
0
LINE
8
0
6
CONTINUOUS
10
-0.003890
20
0.100230
30
0.0
11
-0.004560
21
0.098890
31
0.0
0
LINE
8
0
6
CONTINUOUS
10
-0.004562
20
0.100230
30
0.0
11
-0.003890
21
0.100230
31
0.0
0
LINE
8
0
6
CONTINUOUS
10
-0.003535
20
0.100446
30
0.0
11
-0.004309
21
0.100446
31
0.0
0
LINE
8
0
6
CONTINUOUS
10
-0.002675
20
0.063816
30
0.0
11
-0.002675
21
0.064269
31
0.0
0
LINE
8
0
6
CONTINUOUS
10
-0.002675
20
0.064269
30
0.0
11
-0.002675
21
0.072868
31
0.0
0
LINE
8
0
6
CONTINUOUS
10
-0.042747
20
0.052678
30
0.0
11
-0.041799
21
0.049900
31
0.0
0
LINE
8
0
6
CONTINUOUS
10
-0.041318
20
0.048489
30
0.0
11
-0.039875
21
0.047185
31
0.0
0
LINE
8
0
6
CONTINUOUS
10
-0.041799
20
0.049900
30
0.0
11
-0.041318
21
0.048489
31
0.0
0
LINE
8
0
6
CONTINUOUS
10
-0.039875
20
0.047185
30
0.0
11
-0.037203
21
0.046051
31
0.0
0
LINE
8
0
6
CONTINUOUS
10
-0.037203
20
0.046051
30
0.0
11
-0.034360
21
0.045389
31
0.0
0
LINE
8
0
6
CONTINUOUS
10
-0.046546
20
0.063816
30
0.0
11
-0.046067
21
0.062410
31
0.0
0
LINE
8
0
6
CONTINUOUS
10
-0.045587
20
0.061004
30
0.0
11
-0.044641
21
0.058230
31
0.0
0
LINE
8
0
6
CONTINUOUS
10
-0.044641
20
0.058230
30
0.0
11
-0.043694
21
0.055453
31
0.0
0
LINE
8
0
6
CONTINUOUS
10
-0.043694
20
0.055453
30
0.0
11
-0.042747
21
0.052678
31
0.0
0
LINE
8
0
6
CONTINUOUS
10
-0.007421
20
0.049900
30
0.0
11
-0.006474
21
0.052678
31
0.0
0
LINE
8
0
6
CONTINUOUS
10
-0.009346
20
0.047185
30
0.0
11
-0.007903
21
0.048489
31
0.0
0
LINE
8
0
6
CONTINUOUS
10
-0.007903
20
0.048489
30
0.0
11
-0.007421
21
0.049900
31
0.0
0
LINE
8
0
6
CONTINUOUS
10
-0.012018
20
0.046051
30
0.0
11
-0.009346
21
0.047185
31
0.0
0
LINE
8
0
6
CONTINUOUS
10
-0.012661
20
0.045902
30
0.0
11
-0.012018
21
0.046051
31
0.0
0
LINE
8
0
6
CONTINUOUS
10
-0.003634
20
0.061004
30
0.0
11
-0.003154
21
0.062410
31
0.0
0
LINE
8
0
6
CONTINUOUS
10
-0.004580
20
0.058230
30
0.0
11
-0.003634
21
0.061004
31
0.0
0
LINE
8
0
6
CONTINUOUS
10
-0.005527
20
0.055453
30
0.0
11
-0.004580
21
0.058230
31
0.0
0
LINE
8
0
6
CONTINUOUS
10
-0.006474
20
0.052678
30
0.0
11
-0.005527
21
0.055453
31
0.0
0
LINE
8
0
6
CONTINUOUS
10
-0.046067
20
0.062410
30
0.0
11
-0.045587
21
0.061004
31
0.0
0
LINE
8
0
6
CONTINUOUS
10
-0.003154
20
0.062410
30
0.0
11
-0.002675
21
0.063816
31
0.0
0
LINE
8
0
6
CONTINUOUS
10
0.051489
20
0.170704
30
0.0
11
0.033240
21
0.170704
31
0.0
0
LINE
8
0
6
CONTINUOUS
10
-0.069480
20
0.170704
30
0.0
11
-0.098511
21
0.170704
31
0.0
0
LINE
8
0
6
CONTINUOUS
10
-0.098511
20
0.170704
30
0.0
11
-0.098511
21
0.169665
31
0.0
0
LINE
8
0
6
CONTINUOUS
10
0.086090
20
0.213041
30
0.0
11
0.086378
21
0.213331
31
0.0
0
LINE
8
0
6
CONTINUOUS
10
0.016600
20
0.213331
30
0.0
11
0.016888
21
0.213041
31
0.0
0
LINE
8
0
6
CONTINUOUS
10
0.067395
20
0.194211
30
0.0
11
0.086090
21
0.213041
31
0.0
0
LINE
8
0
6
CONTINUOUS
10
0.016888
20
0.213041
30
0.0
11
0.035584
21
0.194211
31
0.0
0
ENDSEC
0
EOF
