  0
SECTION
  2
HEADER
  9
$ACADVER
  1
AC1015
  9
$ACADMAINTVER
 70
    13
  9
$DWGCODEPAGE
  3
ANSI_1252
  9
$INSBASE
 10
0.0
 20
0.0
 30
0.0
  9
$EXTMIN
 10
-0.0000000000000121
 20
0.0000000000000001
 30
0.0
  9
$EXTMAX
 10
218.0
 20
136.0
 30
0.0
  9
$LIMMIN
 10
0.0
 20
0.0
  9
$LIMMAX
 10
12.0
 20
9.0
  9
$ORTHOMODE
 70
     0
  9
$REGENMODE
 70
     1
  9
$FILLMODE
 70
     1
  9
$QTEXTMODE
 70
     0
  9
$MIRRTEXT
 70
     1
  9
$LTSCALE
 40
1.0
  9
$ATTMODE
 70
     1
  9
$TEXTSIZE
 40
0.2
  9
$TRACEWID
 40
0.05
  9
$TEXTSTYLE
  7
Standard
  9
$CLAYER
  8
0
  9
$CELTYPE
  6
Continuous
  9
$CECOLOR
 62
   256
  9
$CELTSCALE
 40
1.0
  9
$DISPSILH
 70
     0
  9
$DIMSCALE
 40
1.0
  9
$DIMASZ
 40
0.18
  9
$DIMEXO
 40
0.0625
  9
$DIMDLI
 40
0.38
  9
$DIMRND
 40
0.0
  9
$DIMDLE
 40
0.0
  9
$DIMEXE
 40
0.18
  9
$DIMTP
 40
0.0
  9
$DIMTM
 40
0.0
  9
$DIMTXT
 40
0.18
  9
$DIMCEN
 40
0.09
  9
$DIMTSZ
 40
0.0
  9
$DIMTOL
 70
     0
  9
$DIMLIM
 70
     0
  9
$DIMTIH
 70
     1
  9
$DIMTOH
 70
     1
  9
$DIMSE1
 70
     0
  9
$DIMSE2
 70
     0
  9
$DIMTAD
 70
     0
  9
$DIMZIN
 70
     0
  9
$DIMBLK
  1

  9
$DIMASO
 70
     1
  9
$DIMSHO
 70
     1
  9
$DIMPOST
  1

  9
$DIMAPOST
  1

  9
$DIMALT
 70
     0
  9
$DIMALTD
 70
     2
  9
$DIMALTF
 40
25.4
  9
$DIMLFAC
 40
1.0
  9
$DIMTOFL
 70
     0
  9
$DIMTVP
 40
0.0
  9
$DIMTIX
 70
     0
  9
$DIMSOXD
 70
     0
  9
$DIMSAH
 70
     0
  9
$DIMBLK1
  1

  9
$DIMBLK2
  1

  9
$DIMSTYLE
  2
Standard
  9
$DIMCLRD
 70
     0
  9
$DIMCLRE
 70
     0
  9
$DIMCLRT
 70
     0
  9
$DIMTFAC
 40
1.0
  9
$DIMGAP
 40
0.09
  9
$DIMJUST
 70
     0
  9
$DIMSD1
 70
     0
  9
$DIMSD2
 70
     0
  9
$DIMTOLJ
 70
     1
  9
$DIMTZIN
 70
     0
  9
$DIMALTZ
 70
     0
  9
$DIMALTTZ
 70
     0
  9
$DIMUPT
 70
     0
  9
$DIMDEC
 70
     4
  9
$DIMTDEC
 70
     4
  9
$DIMALTU
 70
     2
  9
$DIMALTTD
 70
     2
  9
$DIMTXSTY
  7
Standard
  9
$DIMAUNIT
 70
     0
  9
$DIMADEC
 70
     0
  9
$DIMALTRND
 40
0.0
  9
$DIMAZIN
 70
     0
  9
$DIMDSEP
 70
    46
  9
$DIMATFIT
 70
     3
  9
$DIMFRAC
 70
     0
  9
$DIMLDRBLK
  1

  9
$DIMLUNIT
 70
     2
  9
$DIMLWD
 70
    -2
  9
$DIMLWE
 70
    -2
  9
$DIMTMOVE
 70
     0
  9
$LUNITS
 70
     2
  9
$LUPREC
 70
     4
  9
$SKETCHINC
 40
0.1
  9
$FILLETRAD
 40
0.0
  9
$AUNITS
 70
     0
  9
$AUPREC
 70
     0
  9
$MENU
  1
.
  9
$ELEVATION
 40
0.0
  9
$PELEVATION
 40
0.0
  9
$THICKNESS
 40
0.0
  9
$LIMCHECK
 70
     0
  9
$CHAMFERA
 40
0.0
  9
$CHAMFERB
 40
0.0
  9
$CHAMFERC
 40
0.0
  9
$CHAMFERD
 40
0.0
  9
$SKPOLY
 70
     0
  9
$TDCREATE
 40
2455655.560407801
  9
$TDUCREATE
 40
2455655.477074467
  9
$TDUPDATE
 40
2455655.582014965
  9
$TDUUPDATE
 40
2455655.498681632
  9
$TDINDWG
 40
0.0216071644
  9
$TDUSRTIMER
 40
0.0216071644
  9
$USRTIMER
 70
     1
  9
$ANGBASE
 50
0.0
  9
$ANGDIR
 70
     0
  9
$PDMODE
 70
     0
  9
$PDSIZE
 40
0.0
  9
$PLINEWID
 40
0.0
  9
$SPLFRAME
 70
     0
  9
$SPLINETYPE
 70
     6
  9
$SPLINESEGS
 70
     8
  9
$HANDSEED
  5
339
  9
$SURFTAB1
 70
     6
  9
$SURFTAB2
 70
     6
  9
$SURFTYPE
 70
     6
  9
$SURFU
 70
     6
  9
$SURFV
 70
     6
  9
$UCSBASE
  2

  9
$UCSNAME
  2

  9
$UCSORG
 10
0.0
 20
0.0
 30
0.0
  9
$UCSXDIR
 10
1.0
 20
0.0
 30
0.0
  9
$UCSYDIR
 10
0.0
 20
1.0
 30
0.0
  9
$UCSORTHOREF
  2

  9
$UCSORTHOVIEW
 70
     1
  9
$UCSORGTOP
 10
0.0
 20
0.0
 30
0.0
  9
$UCSORGBOTTOM
 10
0.0
 20
0.0
 30
0.0
  9
$UCSORGLEFT
 10
0.0
 20
0.0
 30
0.0
  9
$UCSORGRIGHT
 10
0.0
 20
0.0
 30
0.0
  9
$UCSORGFRONT
 10
0.0
 20
0.0
 30
0.0
  9
$UCSORGBACK
 10
0.0
 20
0.0
 30
0.0
  9
$PUCSBASE
  2

  9
$PUCSNAME
  2

  9
$PUCSORG
 10
0.0
 20
0.0
 30
0.0
  9
$PUCSXDIR
 10
1.0
 20
0.0
 30
0.0
  9
$PUCSYDIR
 10
0.0
 20
1.0
 30
0.0
  9
$PUCSORTHOREF
  2

  9
$PUCSORTHOVIEW
 70
     0
  9
$PUCSORGTOP
 10
0.0
 20
0.0
 30
0.0
  9
$PUCSORGBOTTOM
 10
0.0
 20
0.0
 30
0.0
  9
$PUCSORGLEFT
 10
0.0
 20
0.0
 30
0.0
  9
$PUCSORGRIGHT
 10
0.0
 20
0.0
 30
0.0
  9
$PUCSORGFRONT
 10
0.0
 20
0.0
 30
0.0
  9
$PUCSORGBACK
 10
0.0
 20
0.0
 30
0.0
  9
$USERI1
 70
     0
  9
$USERI2
 70
     0
  9
$USERI3
 70
     0
  9
$USERI4
 70
     0
  9
$USERI5
 70
     0
  9
$USERR1
 40
0.0
  9
$USERR2
 40
0.0
  9
$USERR3
 40
0.0
  9
$USERR4
 40
0.0
  9
$USERR5
 40
0.0
  9
$WORLDVIEW
 70
     1
  9
$SHADEDGE
 70
     3
  9
$SHADEDIF
 70
    70
  9
$TILEMODE
 70
     1
  9
$MAXACTVP
 70
    64
  9
$PINSBASE
 10
0.0
 20
0.0
 30
0.0
  9
$PLIMCHECK
 70
     0
  9
$PEXTMIN
 10
1.000000000000000E+20
 20
1.000000000000000E+20
 30
1.000000000000000E+20
  9
$PEXTMAX
 10
-1.000000000000000E+20
 20
-1.000000000000000E+20
 30
-1.000000000000000E+20
  9
$PLIMMIN
 10
0.0
 20
0.0
  9
$PLIMMAX
 10
12.0
 20
9.0
  9
$UNITMODE
 70
     0
  9
$VISRETAIN
 70
     1
  9
$PLINEGEN
 70
     0
  9
$PSLTSCALE
 70
     1
  9
$TREEDEPTH
 70
  3020
  9
$CMLSTYLE
  2
Standard
  9
$CMLJUST
 70
     0
  9
$CMLSCALE
 40
1.0
  9
$PROXYGRAPHICS
 70
     1
  9
$MEASUREMENT
 70
     0
  9
$CELWEIGHT
370
    -1
  9
$ENDCAPS
280
     0
  9
$JOINSTYLE
280
     0
  9
$LWDISPLAY
290
     0
  9
$INSUNITS
 70
     0
  9
$HYPERLINKBASE
  1

  9
$STYLESHEET
  1

  9
$XEDIT
290
     1
  9
$CEPSNTYPE
380
     0
  9
$PSTYLEMODE
290
     1
  9
$FINGERPRINTGUID
  2
{A9093D8D-E3BD-41D5-8AD5-8937C14CD3BC}
  9
$VERSIONGUID
  2
{F04A93BA-6BF3-486E-8F93-6364F3A79538}
  9
$EXTNAMES
290
     1
  9
$PSVPSCALE
 40
0.0
  9
$OLESTARTUP
290
     0
  0
ENDSEC
  0
SECTION
  2
CLASSES
  0
CLASS
  1
ACDBDICTIONARYWDFLT
  2
AcDbDictionaryWithDefault
  3
AutoCAD 2000
 90
        0
280
     0
281
     0
  0
CLASS
  1
ACDBPLACEHOLDER
  2
AcDbPlaceHolder
  3
AutoCAD 2000
 90
        0
280
     0
281
     0
  0
CLASS
  1
LAYOUT
  2
AcDbLayout
  3
AutoCAD 2000
 90
        0
280
     0
281
     0
  0
CLASS
  1
DICTIONARYVAR
  2
AcDbDictionaryVar
  3
AutoCAD 2000
 90
        0
280
     0
281
     0
  0
ENDSEC
  0
SECTION
  2
TABLES
  0
TABLE
  2
VPORT
  5
8
330
0
100
AcDbSymbolTable
 70
     3
  0
VPORT
  5
338
330
8
100
AcDbSymbolTableRecord
100
AcDbViewportTableRecord
  2
*Active
 70
     0
 10
0.0
 20
0.0
 11
1.0
 21
1.0
 12
108.9999999999999
 22
68.0
 13
0.0
 23
0.0
 14
1.0
 24
1.0
 15
0.0
 25
0.0
 16
0.0
 26
0.0
 36
1.0
 17
0.0
 27
0.0
 37
0.0
 40
136.9199549041713
 41
2.073363431151241
 42
50.0
 43
0.0
 44
0.0
 50
0.0
 51
0.0
 71
     0
 72
   100
 73
     1
 74
     3
 75
     0
 76
     0
 77
     0
 78
     0
281
     0
 65
     1
110
0.0
120
0.0
130
0.0
111
1.0
121
0.0
131
0.0
112
0.0
122
1.0
132
0.0
 79
     1
146
0.0
  0
ENDTAB
  0
TABLE
  2
LTYPE
  5
5
330
0
100
AcDbSymbolTable
 70
     1
  0
LTYPE
  5
13
330
5
100
AcDbSymbolTableRecord
100
AcDbLinetypeTableRecord
  2
ByBlock
 70
     0
  3

 72
    65
 73
     0
 40
0.0
  0
LTYPE
  5
14
330
5
100
AcDbSymbolTableRecord
100
AcDbLinetypeTableRecord
  2
ByLayer
 70
     0
  3

 72
    65
 73
     0
 40
0.0
  0
LTYPE
  5
15
330
5
100
AcDbSymbolTableRecord
100
AcDbLinetypeTableRecord
  2
Continuous
 70
     0
  3
Solid line
 72
    65
 73
     0
 40
0.0
  0
ENDTAB
  0
TABLE
  2
LAYER
  5
2
330
0
100
AcDbSymbolTable
 70
     1
  0
LAYER
  5
10
330
2
100
AcDbSymbolTableRecord
100
AcDbLayerTableRecord
  2
0
 70
     0
 62
     7
  6
Continuous
370
    -3
390
F
  0
ENDTAB
  0
TABLE
  2
STYLE
  5
3
330
0
100
AcDbSymbolTable
 70
     1
  0
STYLE
  5
11
330
3
100
AcDbSymbolTableRecord
100
AcDbTextStyleTableRecord
  2
Standard
 70
     0
 40
0.0
 41
1.0
 50
0.0
 71
     0
 42
0.2
  3
txt
  4

  0
ENDTAB
  0
TABLE
  2
VIEW
  5
6
330
0
100
AcDbSymbolTable
 70
     0
  0
ENDTAB
  0
TABLE
  2
UCS
  5
7
330
0
100
AcDbSymbolTable
 70
     0
  0
ENDTAB
  0
TABLE
  2
APPID
  5
9
330
0
100
AcDbSymbolTable
 70
     1
  0
APPID
  5
12
330
9
100
AcDbSymbolTableRecord
100
AcDbRegAppTableRecord
  2
ACAD
 70
     0
  0
ENDTAB
  0
TABLE
  2
DIMSTYLE
  5
A
330
0
100
AcDbSymbolTable
 70
     1
100
AcDbDimStyleTable
 71
     0
  0
DIMSTYLE
105
25C
330
A
100
AcDbSymbolTableRecord
100
AcDbDimStyleTableRecord
  2
Standard
 70
     0
340
11
  0
ENDTAB
  0
TABLE
  2
BLOCK_RECORD
  5
1
330
0
100
AcDbSymbolTable
 70
     0
  0
BLOCK_RECORD
  5
1E
330
1
100
AcDbSymbolTableRecord
100
AcDbBlockTableRecord
  2
*Model_Space
340
21
  0
BLOCK_RECORD
  5
1A
330
1
100
AcDbSymbolTableRecord
100
AcDbBlockTableRecord
  2
*Paper_Space
340
1D
  0
ENDTAB
  0
ENDSEC
  0
SECTION
  2
BLOCKS
  0
BLOCK
  5
1F
330
1E
100
AcDbEntity
  8
0
100
AcDbBlockBegin
  2
*Model_Space
 70
     0
 10
0.0
 20
0.0
 30
0.0
  3
*Model_Space
  1

  0
ENDBLK
  5
20
330
1E
100
AcDbEntity
  8
0
100
AcDbBlockEnd
  0
BLOCK
  5
1B
330
1A
100
AcDbEntity
 67
     1
  8
0
100
AcDbBlockBegin
  2
*Paper_Space
 70
     0
 10
0.0
 20
0.0
 30
0.0
  3
*Paper_Space
  1

  0
ENDBLK
  5
1C
330
1A
100
AcDbEntity
 67
     1
  8
0
100
AcDbBlockEnd
  0
ENDSEC
  0
SECTION
  2
ENTITIES
  0
LINE
  5
22
330
1E
100
AcDbEntity
  8
0
100
AcDbLine
 10
87.002
 20
18.779
 30
0.0
 11
87.00499999999999
 21
19.7987
 31
0.0
  0
LINE
  5
23
330
1E
100
AcDbEntity
  8
0
100
AcDbLine
 10
87.002
 20
18.779
 30
0.0
 11
87.00299999999998
 21
17.64199999999999
 31
0.0
  0
LINE
  5
24
330
1E
100
AcDbEntity
  8
0
100
AcDbLine
 10
87.039
 20
4.756600000000009
 30
0.0
 11
87.09799999999999
 21
4.534000000000009
 31
0.0
  0
LINE
  5
25
330
1E
100
AcDbEntity
  8
0
100
AcDbLine
 10
87.09799999999999
 20
4.534000000000009
 30
0.0
 11
87.2639
 21
4.2746
 31
0.0
  0
LINE
  5
26
330
1E
100
AcDbEntity
  8
0
100
AcDbLine
 10
87.2639
 20
4.2746
 30
0.0
 11
87.52489999999999
 21
4.105600000000009
 31
0.0
  0
LINE
  5
27
330
1E
100
AcDbEntity
  8
0
100
AcDbLine
 10
87.00299999999998
 20
20.51429999999999
 30
0.0
 11
87.00799999999999
 21
20.8383
 31
0.0
  0
LINE
  5
28
330
1E
100
AcDbEntity
  8
0
100
AcDbLine
 10
87.00299999999998
 20
20.51429999999999
 30
0.0
 11
87.004
 21
19.2799
 31
0.0
  0
LINE
  5
29
330
1E
100
AcDbEntity
  8
0
100
AcDbLine
 10
87.00299999999998
 20
24.5006
 30
0.0
 11
87.00299999999998
 21
23.0357
 31
0.0
  0
LINE
  5
2A
330
1E
100
AcDbEntity
  8
0
100
AcDbLine
 10
87.00299999999998
 20
23.0357
 30
0.0
 11
87.00499999999999
 21
22.8647
 31
0.0
  0
LINE
  5
2B
330
1E
100
AcDbEntity
  8
0
100
AcDbLine
 10
87.00299999999998
 20
23.0357
 30
0.0
 11
87.00299999999998
 21
24.5006
 31
0.0
  0
LINE
  5
2C
330
1E
100
AcDbEntity
  8
0
100
AcDbLine
 10
87.004
 20
15.535
 30
0.0
 11
87.01399999999999
 21
5.314199999999999
 31
0.0
  0
LINE
  5
2D
330
1E
100
AcDbEntity
  8
0
100
AcDbLine
 10
87.004
 20
15.535
 30
0.0
 11
87.00700000000001
 21
16.509
 31
0.0
  0
LINE
  5
2E
330
1E
100
AcDbEntity
  8
0
100
AcDbLine
 10
87.004
 20
15.535
 30
0.0
 11
87.01399999999999
 21
5.314200000000009
 31
0.0
  0
LINE
  5
2F
330
1E
100
AcDbEntity
  8
0
100
AcDbLine
 10
87.004
 20
19.2799
 30
0.0
 11
87.00499999999999
 21
19.7987
 31
0.0
  0
LINE
  5
30
330
1E
100
AcDbEntity
  8
0
100
AcDbLine
 10
87.00299999999998
 20
21.76849999999999
 30
0.0
 11
87.00499999999999
 21
22.8647
 31
0.0
  0
LINE
  5
31
330
1E
100
AcDbEntity
  8
0
100
AcDbLine
 10
87.00299999999998
 20
21.76849999999999
 30
0.0
 11
87.00799999999999
 21
20.8383
 31
0.0
  0
LINE
  5
32
330
1E
100
AcDbEntity
  8
0
100
AcDbLine
 10
87.01100000000002
 20
5.3181
 30
0.0
 11
87.039
 21
4.756600000000009
 31
0.0
  0
LINE
  5
33
330
1E
100
AcDbEntity
  8
0
100
AcDbLine
 10
87.002
 20
17.2117
 30
0.0
 11
87.00700000000001
 21
16.509
 31
0.0
  0
LINE
  5
34
330
1E
100
AcDbEntity
  8
0
100
AcDbLine
 10
87.002
 20
17.2117
 30
0.0
 11
87.00299999999998
 21
17.64199999999999
 31
0.0
  0
LINE
  5
35
330
1E
100
AcDbEntity
  8
0
100
AcDbLine
 10
87.004
 20
29.4322
 30
0.0
 11
87.004
 21
26.0163
 31
0.0
  0
LINE
  5
36
330
1E
100
AcDbEntity
  8
0
100
AcDbLine
 10
87.002
 20
26.1425
 30
0.0
 11
87.004
 21
26.0163
 31
0.0
  0
LINE
  5
37
330
1E
100
AcDbEntity
  8
0
100
AcDbLine
 10
87.002
 20
26.1425
 30
0.0
 11
87.00299999999998
 21
24.5006
 31
0.0
  0
LINE
  5
38
330
1E
100
AcDbEntity
  8
0
100
AcDbLine
 10
87.004
 20
26.0163
 30
0.0
 11
87.004
 21
29.4322
 31
0.0
  0
LINE
  5
39
330
1E
100
AcDbEntity
  8
0
100
AcDbLine
 10
87.5319
 20
4.101700000000009
 30
0.0
 11
87.7538
 21
4.040000000000009
 31
0.0
  0
LINE
  5
3A
330
1E
100
AcDbEntity
  8
0
100
AcDbLine
 10
87.7538
 20
4.040000000000009
 30
0.0
 11
87.82580000000001
 21
4.033100000000009
 31
0.0
  0
LINE
  5
3B
330
1E
100
AcDbEntity
  8
0
100
AcDbLine
 10
87.82580000000001
 20
4.033100000000009
 30
0.0
 11
88.4026
 21
3.993300000000009
 31
0.0
  0
LINE
  5
3C
330
1E
100
AcDbEntity
  8
0
100
AcDbLine
 10
88.7025
 20
3.981400000000009
 30
0.0
 11
89.2384
 21
3.966500000000009
 31
0.0
  0
LINE
  5
3D
330
1E
100
AcDbEntity
  8
0
100
AcDbLine
 10
88.4026
 20
3.993300000000009
 30
0.0
 11
88.7025
 21
3.981400000000009
 31
0.0
  0
LINE
  5
3E
330
1E
100
AcDbEntity
  8
0
100
AcDbLine
 10
88.92211434763728
 20
3.975293909722349
 30
0.0
 11
88.95149999999999
 21
3.8433
 31
0.0
  0
LINE
  5
3F
330
1E
100
AcDbEntity
  8
0
100
AcDbLine
 10
89.02549999999999
 20
3.4388
 30
0.0
 11
89.0754
 21
3.1267
 31
0.0
  0
LINE
  5
40
330
1E
100
AcDbEntity
  8
0
100
AcDbLine
 10
88.95149999999999
 20
3.8433
 30
0.0
 11
89.02549999999999
 21
3.4388
 31
0.0
  0
LINE
  5
41
330
1E
100
AcDbEntity
  8
0
100
AcDbLine
 10
89.0754
 20
3.1267
 30
0.0
 11
89.1764
 21
2.391199999999999
 31
0.0
  0
LINE
  5
42
330
1E
100
AcDbEntity
  8
0
100
AcDbLine
 10
89.1764
 20
2.391199999999999
 30
0.0
 11
89.2374
 21
2.1815
 31
0.0
  0
LINE
  5
43
330
1E
100
AcDbEntity
  8
0
100
AcDbLine
 10
89.2374
 20
2.1815
 30
0.0
 11
89.33339999999999
 21
1.875399999999999
 31
0.0
  0
LINE
  5
44
330
1E
100
AcDbEntity
  8
0
100
AcDbLine
 10
90.15210000000001
 20
1.129999999999999
 30
0.0
 11
90.58699999999999
 21
0.9272999999999999
 31
0.0
  0
LINE
  5
45
330
1E
100
AcDbEntity
  8
0
100
AcDbLine
 10
89.50029999999999
 20
1.6349
 30
0.0
 11
89.62529999999999
 21
1.479899999999999
 31
0.0
  0
LINE
  5
46
330
1E
100
AcDbEntity
  8
0
100
AcDbLine
 10
89.33339999999999
 20
1.875399999999999
 30
0.0
 11
89.50029999999999
 21
1.6349
 31
0.0
  0
LINE
  5
47
330
1E
100
AcDbEntity
  8
0
100
AcDbLine
 10
90.0102
 20
3.948600000000009
 30
0.0
 11
91.00190000000001
 21
3.928700000000009
 31
0.0
  0
LINE
  5
48
330
1E
100
AcDbEntity
  8
0
100
AcDbLine
 10
89.62529999999999
 20
1.479899999999999
 30
0.0
 11
89.9412
 21
1.2433
 31
0.0
  0
LINE
  5
49
330
1E
100
AcDbEntity
  8
0
100
AcDbLine
 10
89.9412
 20
1.2433
 30
0.0
 11
90.15210000000001
 21
1.129999999999999
 31
0.0
  0
LINE
  5
4A
330
1E
100
AcDbEntity
  8
0
100
AcDbLine
 10
89.2384
 20
3.966500000000009
 30
0.0
 11
90.0102
 21
3.948600000000009
 31
0.0
  0
LINE
  5
4B
330
1E
100
AcDbEntity
  8
0
100
AcDbLine
 10
89.18427100667152
 20
39.36197936088727
 30
0.0
 11
90.1871
 21
38.6691
 31
0.0
  0
LINE
  5
4C
330
1E
100
AcDbEntity
  8
0
100
AcDbLine
 10
90.1871
 20
38.6691
 30
0.0
 11
91.5108
 21
37.9923
 31
0.0
  0
LINE
  5
4D
330
1E
100
AcDbEntity
  8
0
100
AcDbLine
 10
91.00190000000001
 20
3.928700000000009
 30
0.0
 11
91.71469999999999
 21
3.915800000000009
 31
0.0
  0
LINE
  5
4E
330
1E
100
AcDbEntity
  8
0
100
AcDbLine
 10
90.58699999999999
 20
0.9272999999999999
 30
0.0
 11
91.14690000000001
 21
0.7524
 31
0.0
  0
LINE
  5
4F
330
1E
100
AcDbEntity
  8
0
100
AcDbLine
 10
91.14690000000001
 20
0.7524
 30
0.0
 11
91.8067
 21
0.6162
 31
0.0
  0
LINE
  5
50
330
1E
100
AcDbEntity
  8
0
100
AcDbLine
 10
88.24644883573451
 20
40.49987835382642
 30
0.0
 11
88.6416
 21
39.90149999999999
 31
0.0
  0
LINE
  5
51
330
1E
100
AcDbEntity
  8
0
100
AcDbLine
 10
88.6416
 20
39.90149999999999
 30
0.0
 11
89.18427100667159
 21
39.3619793608872
 31
0.0
  0
LINE
  5
54
330
1E
100
AcDbEntity
  8
0
100
AcDbLine
 10
87.0
 20
41.0285
 30
0.0
 11
87.069
 21
41.275
 31
0.0
  0
LINE
  5
55
330
1E
100
AcDbEntity
  8
0
100
AcDbLine
 10
87.002
 20
41.0275
 30
0.0
 11
87.004
 21
29.4322
 31
0.0
  0
LINE
  5
56
330
1E
100
AcDbEntity
  8
0
100
AcDbLine
 10
87.069
 20
41.275
 30
0.0
 11
87.25190000000001
 21
41.4579
 31
0.0
  0
LINE
  5
57
330
1E
100
AcDbEntity
  8
0
100
AcDbLine
 10
88.0967
 20
41.0703
 30
0.0
 11
88.2986
 21
41.0703
 31
0.0
  0
LINE
  5
58
330
1E
100
AcDbEntity
  8
0
100
AcDbLine
 10
88.0967
 20
41.0703
 30
0.0
 11
88.2464488357345
 21
40.49987835382649
 31
0.0
  0
LINE
  5
5B
330
1E
100
AcDbEntity
  8
0
100
AcDbLine
 10
87.5988
 20
41.5235
 30
0.0
 11
87.7838
 21
41.5235
 31
0.0
  0
LINE
  5
5C
330
1E
100
AcDbEntity
  8
0
100
AcDbLine
 10
87.7838
 20
41.5235
 30
0.0
 11
88.33159999999999
 21
41.5235
 31
0.0
  0
LINE
  5
5D
330
1E
100
AcDbEntity
  8
0
100
AcDbLine
 10
88.2986
 20
41.0703
 30
0.0
 11
88.8925
 21
41.0703
 31
0.0
  0
LINE
  5
5E
330
1E
100
AcDbEntity
  8
0
100
AcDbLine
 10
88.33159999999999
 20
41.5235
 30
0.0
 11
88.9355557548871
 21
41.5235
 31
0.0
  0
LINE
  5
61
330
1E
100
AcDbEntity
  8
0
100
AcDbLine
 10
87.52799999999998
 20
43.0
 30
0.0
 11
88.31999999999998
 21
43.0
 31
0.0
  0
LINE
  5
62
330
1E
100
AcDbEntity
  8
0
100
AcDbLine
 10
88.31999999999998
 20
43.0
 30
0.0
 11
88.71484306372272
 21
43.0
 31
0.0
  0
LINE
  5
63
330
1E
100
AcDbEntity
  8
0
100
AcDbLine
 10
87.50190000000001
 20
41.5235
 30
0.0
 11
87.5988
 21
41.5235
 31
0.0
  0
LINE
  5
64
330
1E
100
AcDbEntity
  8
0
100
AcDbLine
 10
87.25190000000001
 20
41.4579
 30
0.0
 11
87.50190000000001
 21
41.5235
 31
0.0
  0
LINE
  5
65
330
1E
100
AcDbEntity
  8
0
100
AcDbLine
 10
15.627
 20
54.2243
 30
0.0
 11
15.868
 21
54.1565
 31
0.0
  0
LINE
  5
66
330
1E
100
AcDbEntity
  8
0
100
AcDbLine
 10
15.868
 20
54.1565
 30
0.0
 11
22.273
 21
54.0459
 31
0.0
  0
LINE
  5
69
330
1E
100
AcDbEntity
  8
0
100
AcDbLine
 10
22.273
 20
54.0459
 30
0.0
 11
35.082
 21
54.0
 31
0.0
  0
LINE
  5
6A
330
1E
100
AcDbEntity
  8
0
100
AcDbLine
 10
15.378
 20
54.6351
 30
0.0
 11
15.449
 21
54.39779999999999
 31
0.0
  0
LINE
  5
6C
330
1E
100
AcDbEntity
  8
0
100
AcDbLine
 10
15.449
 20
54.39779999999999
 30
0.0
 11
15.627
 21
54.2243
 31
0.0
  0
LINE
  5
6D
330
1E
100
AcDbEntity
  8
0
100
AcDbLine
 10
15.089
 20
64.7615
 30
0.0
 11
15.378
 21
54.6351
 31
0.0
  0
LINE
  5
72
330
1E
100
AcDbEntity
  8
0
100
AcDbLine
 10
15.379
 20
95.52150000000001
 30
0.0
 11
15.452
 21
95.76269999999999
 31
0.0
  0
LINE
  5
76
330
1E
100
AcDbEntity
  8
0
100
AcDbLine
 10
15.452
 20
95.76269999999999
 30
0.0
 11
15.635
 21
95.93619999999999
 31
0.0
  0
LINE
  5
77
330
1E
100
AcDbEntity
  8
0
100
AcDbLine
 10
15.09
 20
85.39810000000001
 30
0.0
 11
15.379
 21
95.52150000000001
 31
0.0
  0
LINE
  5
78
330
1E
100
AcDbEntity
  8
0
100
AcDbLine
 10
15.0
 20
75.08029999999999
 30
0.0
 11
15.09
 21
85.39810000000001
 31
0.0
  0
LINE
  5
79
330
1E
100
AcDbEntity
  8
0
100
AcDbLine
 10
15.0
 20
75.08029999999999
 30
0.0
 11
15.089
 21
64.7615
 31
0.0
  0
LINE
  5
7A
330
1E
100
AcDbEntity
  8
0
100
AcDbLine
 10
15.635
 20
95.93619999999999
 30
0.0
 11
15.88099999999999
 21
96.0
 31
0.0
  0
LINE
  5
7B
330
1E
100
AcDbEntity
  8
0
100
AcDbLine
 10
15.88099999999999
 20
96.0
 30
0.0
 11
16.18
 21
96.0
 31
0.0
  0
LINE
  5
7C
330
1E
100
AcDbEntity
  8
0
100
AcDbLine
 10
16.18
 20
96.0
 30
0.0
 11
17.06599999999999
 21
96.0
 31
0.0
  0
LINE
  5
7D
330
1E
100
AcDbEntity
  8
0
100
AcDbLine
 10
20.188
 20
96.0
 30
0.0
 11
22.20899999999999
 21
96.0
 31
0.0
  0
LINE
  5
7E
330
1E
100
AcDbEntity
  8
0
100
AcDbLine
 10
18.507
 20
96.0
 30
0.0
 11
20.188
 21
96.0
 31
0.0
  0
LINE
  5
7F
330
1E
100
AcDbEntity
  8
0
100
AcDbLine
 10
2.66669999999999
 20
113.0
 30
0.0
 11
3.86669999999999
 21
113.0
 31
0.0
  0
LINE
  5
80
330
1E
100
AcDbEntity
  8
0
100
AcDbLine
 10
2.66669999999999
 20
113.0
 30
0.0
 11
21.3077
 21
113.0
 31
0.0
  0
LINE
  5
81
330
1E
100
AcDbEntity
  8
0
100
AcDbLine
 10
3.86669999999999
 20
113.0
 30
0.0
 11
6.79999999999999
 21
113.0
 31
0.0
  0
LINE
  5
82
330
1E
100
AcDbEntity
  8
0
100
AcDbLine
 10
6.79999999999999
 20
113.0
 30
0.0
 11
11.8667
 21
113.0
 31
0.0
  0
LINE
  5
83
330
1E
100
AcDbEntity
  8
0
100
AcDbLine
 10
-0.0000000000000121
 20
136.0
 30
0.0
 11
1.199999999999989
 21
136.0
 31
0.0
  0
LINE
  5
84
330
1E
100
AcDbEntity
  8
0
100
AcDbLine
 10
-0.0000000000000121
 20
136.0
 30
0.0
 11
-0.0000000000000121
 21
115.0
 31
0.0
  0
LINE
  5
85
330
1E
100
AcDbEntity
  8
0
100
AcDbLine
 10
-0.0000000000000121
 20
115.0
 30
0.0
 11
0.6666999999999871
 21
113.5
 31
0.0
  0
LINE
  5
86
330
1E
100
AcDbEntity
  8
0
100
AcDbLine
 10
-0.0000000000000121
 20
115.0
 30
0.0
 11
-0.0000000000000121
 21
136.0
 31
0.0
  0
LINE
  5
87
330
1E
100
AcDbEntity
  8
0
100
AcDbLine
 10
1.86669999999998
 20
113.5
 30
0.0
 11
5.19999999999999
 21
113.5
 31
0.0
  0
LINE
  5
88
330
1E
100
AcDbEntity
  8
0
100
AcDbLine
 10
5.19999999999999
 20
113.5
 30
0.0
 11
10.4
 21
113.5
 31
0.0
  0
LINE
  5
89
330
1E
100
AcDbEntity
  8
0
100
AcDbLine
 10
4.53329999999999
 20
136.0
 30
0.0
 11
9.999999999999991
 21
136.0
 31
0.0
  0
LINE
  5
8A
330
1E
100
AcDbEntity
  8
0
100
AcDbLine
 10
1.199999999999989
 20
136.0
 30
0.0
 11
4.53329999999999
 21
136.0
 31
0.0
  0
LINE
  5
8B
330
1E
100
AcDbEntity
  8
0
100
AcDbLine
 10
10.4
 20
113.5
 30
0.0
 11
17.46669999999999
 21
113.5
 31
0.0
  0
LINE
  5
8C
330
1E
100
AcDbEntity
  8
0
100
AcDbLine
 10
17.46669999999999
 20
113.5
 30
0.0
 11
25.4667
 21
113.5
 31
0.0
  0
LINE
  5
8D
330
1E
100
AcDbEntity
  8
0
100
AcDbLine
 10
9.999999999999991
 20
136.0
 30
0.0
 11
17.0667
 21
136.0
 31
0.0
  0
LINE
  5
8E
330
1E
100
AcDbEntity
  8
0
100
AcDbLine
 10
17.0667
 20
136.0
 30
0.0
 11
25.2
 21
136.0
 31
0.0
  0
LINE
  5
8F
330
1E
100
AcDbEntity
  8
0
100
AcDbLine
 10
0.6666999999999871
 20
113.5
 30
0.0
 11
2.66669999999999
 21
113.0
 31
0.0
  0
LINE
  5
90
330
1E
100
AcDbEntity
  8
0
100
AcDbLine
 10
0.6666999999999871
 20
113.5
 30
0.0
 11
1.86669999999998
 21
113.5
 31
0.0
  0
LINE
  5
91
330
1E
100
AcDbEntity
  8
0
100
AcDbLine
 10
11.8667
 20
113.0
 30
0.0
 11
18.39999999999999
 21
113.0
 31
0.0
  0
LINE
  5
92
330
1E
100
AcDbEntity
  8
0
100
AcDbLine
 10
19.0
 20
99.0
 30
0.0
 11
19.0
 21
102.0
 31
0.0
  0
LINE
  5
93
330
1E
100
AcDbEntity
  8
0
100
AcDbLine
 10
19.0
 20
99.0
 30
0.0
 11
19.0
 21
97.0
 31
0.0
  0
LINE
  5
94
330
1E
100
AcDbEntity
  8
0
100
AcDbLine
 10
19.0
 20
102.0
 30
0.0
 11
19.0
 21
99.0
 31
0.0
  0
LINE
  5
95
330
1E
100
AcDbEntity
  8
0
100
AcDbLine
 10
19.0
 20
102.0
 30
0.0
 11
19.0
 21
108.0
 31
0.0
  0
LINE
  5
96
330
1E
100
AcDbEntity
  8
0
100
AcDbLine
 10
19.0
 20
108.0
 30
0.0
 11
19.0
 21
110.0
 31
0.0
  0
LINE
  5
97
330
1E
100
AcDbEntity
  8
0
100
AcDbLine
 10
19.0
 20
108.0
 30
0.0
 11
19.0
 21
102.0
 31
0.0
  0
LINE
  5
98
330
1E
100
AcDbEntity
  8
0
100
AcDbLine
 10
21.7692
 20
112.0
 30
0.0
 11
23.0385
 21
112.0
 31
0.0
  0
LINE
  5
99
330
1E
100
AcDbEntity
  8
0
100
AcDbLine
 10
21.3077
 20
113.0
 30
0.0
 11
21.3077
 21
112.0
 31
0.0
  0
LINE
  5
9A
330
1E
100
AcDbEntity
  8
0
100
AcDbLine
 10
21.3077
 20
112.0
 30
0.0
 11
21.3077
 21
113.0
 31
0.0
  0
LINE
  5
9B
330
1E
100
AcDbEntity
  8
0
100
AcDbLine
 10
21.3077
 20
112.0
 30
0.0
 11
21.7692
 21
112.0
 31
0.0
  0
LINE
  5
9C
330
1E
100
AcDbEntity
  8
0
100
AcDbLine
 10
19.0
 20
110.0
 30
0.0
 11
21.3077
 21
112.0
 31
0.0
  0
LINE
  5
9E
330
1E
100
AcDbEntity
  8
0
100
AcDbLine
 10
19.0
 20
110.0
 30
0.0
 11
19.0
 21
108.0
 31
0.0
  0
LINE
  5
9F
330
1E
100
AcDbEntity
  8
0
100
AcDbLine
 10
19.0
 20
97.0
 30
0.0
 11
20.15384999999999
 21
96.0
 31
0.0
  0
LINE
  5
A0
330
1E
100
AcDbEntity
  8
0
100
AcDbLine
 10
19.0
 20
97.0
 30
0.0
 11
19.0
 21
99.0
 31
0.0
  0
LINE
  5
A2
330
1E
100
AcDbEntity
  8
0
100
AcDbLine
 10
18.39999999999999
 20
113.0
 30
0.0
 11
21.3077
 21
113.0
 31
0.0
  0
LINE
  5
A3
330
1E
100
AcDbEntity
  8
0
100
AcDbLine
 10
17.06599999999999
 20
96.0
 30
0.0
 11
18.507
 21
96.0
 31
0.0
  0
LINE
  5
A6
330
1E
100
AcDbEntity
  8
0
100
AcDbLine
 10
25.0
 20
112.0
 30
0.0
 11
27.6538
 21
112.0
 31
0.0
  0
LINE
  5
A7
330
1E
100
AcDbEntity
  8
0
100
AcDbLine
 10
23.0385
 20
112.0
 30
0.0
 11
25.0
 21
112.0
 31
0.0
  0
LINE
  5
AA
330
1E
100
AcDbEntity
  8
0
100
AcDbLine
 10
25.4667
 20
113.5
 30
0.0
 11
34.0
 21
113.5
 31
0.0
  0
LINE
  5
AB
330
1E
100
AcDbEntity
  8
0
100
AcDbLine
 10
25.2
 20
136.0
 30
0.0
 11
34.0
 21
136.0
 31
0.0
  0
LINE
  5
AC
330
1E
100
AcDbEntity
  8
0
100
AcDbLine
 10
24.515
 20
96.0
 30
0.0
 11
27.039
 21
96.0
 31
0.0
  0
LINE
  5
AD
330
1E
100
AcDbEntity
  8
0
100
AcDbLine
 10
22.20899999999999
 20
96.0
 30
0.0
 11
24.515
 21
96.0
 31
0.0
  0
LINE
  5
AF
330
1E
100
AcDbEntity
  8
0
100
AcDbLine
 10
29.773
 20
96.0
 30
0.0
 11
30.999
 21
96.0
 31
0.0
  0
LINE
  5
B0
330
1E
100
AcDbEntity
  8
0
100
AcDbLine
 10
30.999
 20
96.0
 30
0.0
 11
33.47699999999999
 21
96.0
 31
0.0
  0
LINE
  5
B1
330
1E
100
AcDbEntity
  8
0
100
AcDbLine
 10
27.6538
 20
112.0
 30
0.0
 11
30.7692
 21
112.0
 31
0.0
  0
LINE
  5
B2
330
1E
100
AcDbEntity
  8
0
100
AcDbLine
 10
30.7692
 20
112.0
 30
0.0
 11
34.0
 21
112.0
 31
0.0
  0
LINE
  5
B3
330
1E
100
AcDbEntity
  8
0
100
AcDbLine
 10
34.0
 20
112.0
 30
0.0
 11
37.2308
 21
112.0
 31
0.0
  0
LINE
  5
B4
330
1E
100
AcDbEntity
  8
0
100
AcDbLine
 10
34.0
 20
113.5
 30
0.0
 11
42.5333
 21
113.5
 31
0.0
  0
LINE
  5
B5
330
1E
100
AcDbEntity
  8
0
100
AcDbLine
 10
34.0
 20
136.0
 30
0.0
 11
42.8
 21
136.0
 31
0.0
  0
LINE
  5
B6
330
1E
100
AcDbEntity
  8
0
100
AcDbLine
 10
33.47699999999999
 20
96.0
 30
0.0
 11
35.082
 21
96.0
 31
0.0
  0
LINE
  5
B7
330
1E
100
AcDbEntity
  8
0
100
AcDbLine
 10
27.039
 20
96.0
 30
0.0
 11
29.773
 21
96.0
 31
0.0
  0
LINE
  5
BB
330
1E
100
AcDbEntity
  8
0
100
AcDbLine
 10
37.2308
 20
112.0
 30
0.0
 11
40.3462
 21
112.0
 31
0.0
  0
LINE
  5
BE
330
1E
100
AcDbEntity
  8
0
100
AcDbLine
 10
43.0
 20
112.0
 30
0.0
 11
44.9615
 21
112.0
 31
0.0
  0
LINE
  5
BF
330
1E
100
AcDbEntity
  8
0
100
AcDbLine
 10
46.2308
 20
112.0
 30
0.0
 11
46.6923
 21
112.0
 31
0.0
  0
LINE
  5
C0
330
1E
100
AcDbEntity
  8
0
100
AcDbLine
 10
44.9615
 20
112.0
 30
0.0
 11
46.2308
 21
112.0
 31
0.0
  0
LINE
  5
C1
330
1E
100
AcDbEntity
  8
0
100
AcDbLine
 10
40.3462
 20
112.0
 30
0.0
 11
43.0
 21
112.0
 31
0.0
  0
LINE
  5
C2
330
1E
100
AcDbEntity
  8
0
100
AcDbLine
 10
46.6923
 20
112.0
 30
0.0
 11
49.0
 21
110.0
 31
0.0
  0
LINE
  5
C3
330
1E
100
AcDbEntity
  8
0
100
AcDbLine
 10
46.6923
 20
112.0
 30
0.0
 11
46.6923
 21
113.0
 31
0.0
  0
LINE
  5
C4
330
1E
100
AcDbEntity
  8
0
100
AcDbLine
 10
49.0
 20
97.0
 30
0.0
 11
49.0
 21
99.0
 31
0.0
  0
LINE
  5
C6
330
1E
100
AcDbEntity
  8
0
100
AcDbLine
 10
49.0
 20
110.0
 30
0.0
 11
49.0
 21
102.0
 31
0.0
  0
LINE
  5
C8
330
1E
100
AcDbEntity
  8
0
100
AcDbLine
 10
49.0
 20
102.0
 30
0.0
 11
49.0
 21
99.0
 31
0.0
  0
LINE
  5
C9
330
1E
100
AcDbEntity
  8
0
100
AcDbLine
 10
49.0
 20
102.0
 30
0.0
 11
49.0
 21
110.0
 31
0.0
  0
LINE
  5
CA
330
1E
100
AcDbEntity
  8
0
100
AcDbLine
 10
49.0
 20
99.0
 30
0.0
 11
49.0
 21
97.0
 31
0.0
  0
LINE
  5
CB
330
1E
100
AcDbEntity
  8
0
100
AcDbLine
 10
49.0
 20
99.0
 30
0.0
 11
49.0
 21
102.0
 31
0.0
  0
LINE
  5
CC
330
1E
100
AcDbEntity
  8
0
100
AcDbLine
 10
47.84615
 20
96.0
 30
0.0
 11
49.0
 21
97.0
 31
0.0
  0
LINE
  5
CD
330
1E
100
AcDbEntity
  8
0
100
AcDbLine
 10
46.6923
 20
113.0
 30
0.0
 11
65.33329999999999
 21
113.0
 31
0.0
  0
LINE
  5
CE
330
1E
100
AcDbEntity
  8
0
100
AcDbLine
 10
46.6923
 20
113.0
 30
0.0
 11
49.6
 21
113.0
 31
0.0
  0
LINE
  5
CF
330
1E
100
AcDbEntity
  8
0
100
AcDbLine
 10
46.6923
 20
113.0
 30
0.0
 11
65.33329999999999
 21
113.0
 31
0.0
  0
LINE
  5
D0
330
1E
100
AcDbEntity
  8
0
100
AcDbLine
 10
46.6923
 20
113.0
 30
0.0
 11
46.6923
 21
112.0
 31
0.0
  0
LINE
  5
D1
330
1E
100
AcDbEntity
  8
0
100
AcDbLine
 10
49.6
 20
113.0
 30
0.0
 11
56.1333
 21
113.0
 31
0.0
  0
LINE
  5
D2
330
1E
100
AcDbEntity
  8
0
100
AcDbLine
 10
42.5333
 20
113.5
 30
0.0
 11
50.53329999999999
 21
113.5
 31
0.0
  0
LINE
  5
D3
330
1E
100
AcDbEntity
  8
0
100
AcDbLine
 10
42.8
 20
136.0
 30
0.0
 11
50.9333
 21
136.0
 31
0.0
  0
LINE
  5
D4
330
1E
100
AcDbEntity
  8
0
100
AcDbLine
 10
57.6
 20
113.5
 30
0.0
 11
62.8
 21
113.5
 31
0.0
  0
LINE
  5
D5
330
1E
100
AcDbEntity
  8
0
100
AcDbLine
 10
58.0
 20
136.0
 30
0.0
 11
63.4667
 21
136.0
 31
0.0
  0
LINE
  5
D6
330
1E
100
AcDbEntity
  8
0
100
AcDbLine
 10
50.9333
 20
136.0
 30
0.0
 11
58.0
 21
136.0
 31
0.0
  0
LINE
  5
D7
330
1E
100
AcDbEntity
  8
0
100
AcDbLine
 10
50.53329999999999
 20
113.5
 30
0.0
 11
57.6
 21
113.5
 31
0.0
  0
LINE
  5
D8
330
1E
100
AcDbEntity
  8
0
100
AcDbLine
 10
56.1333
 20
113.0
 30
0.0
 11
61.2
 21
113.0
 31
0.0
  0
LINE
  5
D9
330
1E
100
AcDbEntity
  8
0
100
AcDbLine
 10
35.082
 20
96.0
 30
0.0
 11
59.157
 21
96.0
 31
0.0
  0
LINE
  5
DA
330
1E
100
AcDbEntity
  8
0
100
AcDbLine
 10
35.082
 20
54.0
 30
0.0
 11
128.7679999999999
 21
54.00199999999999
 31
0.0
  0
LINE
  5
DB
330
1E
100
AcDbEntity
  8
0
100
AcDbLine
 10
87.0
 20
54.0
 30
0.0
 11
87.0
 21
43.3
 31
0.0
  0
LINE
  5
DC
330
1E
100
AcDbEntity
  8
0
100
AcDbLine
 10
87.0
 20
43.3
 30
0.0
 11
87.79200000000001
 21
43.3
 31
0.0
  0
LINE
  5
DD
330
1E
100
AcDbEntity
  8
0
100
AcDbLine
 10
87.0
 20
43.3
 30
0.0
 11
87.52799999999998
 21
43.0
 31
0.0
  0
LINE
  5
DE
330
1E
100
AcDbEntity
  8
0
100
AcDbLine
 10
87.0
 20
43.3
 30
0.0
 11
87.0
 21
54.0
 31
0.0
  0
LINE
  5
DF
330
1E
100
AcDbEntity
  8
0
100
AcDbLine
 10
87.79200000000001
 20
43.3
 30
0.0
 11
89.90399999999999
 21
43.3
 31
0.0
  0
LINE
  5
E0
330
1E
100
AcDbEntity
  8
0
100
AcDbLine
 10
65.33329999999999
 20
113.0
 30
0.0
 11
67.33329999999999
 21
113.5
 31
0.0
  0
LINE
  5
E1
330
1E
100
AcDbEntity
  8
0
100
AcDbLine
 10
61.2
 20
113.0
 30
0.0
 11
64.13330000000001
 21
113.0
 31
0.0
  0
LINE
  5
E2
330
1E
100
AcDbEntity
  8
0
100
AcDbLine
 10
62.8
 20
113.5
 30
0.0
 11
66.13330000000001
 21
113.5
 31
0.0
  0
LINE
  5
E3
330
1E
100
AcDbEntity
  8
0
100
AcDbLine
 10
66.13330000000001
 20
113.5
 30
0.0
 11
67.33329999999999
 21
113.5
 31
0.0
  0
LINE
  5
E4
330
1E
100
AcDbEntity
  8
0
100
AcDbLine
 10
63.4667
 20
136.0
 30
0.0
 11
66.79999999999999
 21
136.0
 31
0.0
  0
LINE
  5
E5
330
1E
100
AcDbEntity
  8
0
100
AcDbLine
 10
66.79999999999999
 20
136.0
 30
0.0
 11
68.0
 21
136.0
 31
0.0
  0
LINE
  5
E6
330
1E
100
AcDbEntity
  8
0
100
AcDbLine
 10
68.0
 20
115.0
 30
0.0
 11
68.0
 21
136.0
 31
0.0
  0
LINE
  5
E7
330
1E
100
AcDbEntity
  8
0
100
AcDbLine
 10
67.33329999999999
 20
113.5
 30
0.0
 11
68.0
 21
115.0
 31
0.0
  0
LINE
  5
E8
330
1E
100
AcDbEntity
  8
0
100
AcDbLine
 10
64.13330000000001
 20
113.0
 30
0.0
 11
65.33329999999999
 21
113.0
 31
0.0
  0
LINE
  5
E9
330
1E
100
AcDbEntity
  8
0
100
AcDbLine
 10
68.0
 20
136.0
 30
0.0
 11
68.0
 21
115.0
 31
0.0
  0
LINE
  5
EA
330
1E
100
AcDbEntity
  8
0
100
AcDbLine
 10
67.62399999999999
 20
96.0
 30
0.0
 11
109.0
 21
96.0
 31
0.0
  0
LINE
  5
EB
330
1E
100
AcDbEntity
  8
0
100
AcDbLine
 10
59.157
 20
96.0
 30
0.0
 11
67.62399999999999
 21
96.0
 31
0.0
  0
LINE
  5
EC
330
1E
100
AcDbEntity
  8
0
100
AcDbLine
 10
88.71484306372272
 20
43.0
 30
0.0
 11
88.7155
 21
42.9258
 31
0.0
  0
LINE
  5
ED
330
1E
100
AcDbEntity
  8
0
100
AcDbLine
 10
89.90399999999999
 20
43.3
 30
0.0
 11
93.42399999999999
 21
43.3
 31
0.0
  0
LINE
  5
EE
330
1E
100
AcDbEntity
  8
0
100
AcDbLine
 10
88.8925
 20
41.0703
 30
0.0
 11
89.0066741091015
 21
41.0703
 31
0.0
  0
LINE
  5
EF
330
1E
100
AcDbEntity
  8
0
100
AcDbLine
 10
88.7155
 20
42.9258
 30
0.0
 11
89.0374
 21
40.87449999999999
 31
0.0
  0
LINE
  5
F0
330
1E
100
AcDbEntity
  8
0
100
AcDbLine
 10
89.0374
 20
40.87449999999999
 30
0.0
 11
89.4934071916408
 21
39.1483895228455
 31
0.0
  0
LINE
  5
F1
330
1E
100
AcDbEntity
  8
0
100
AcDbLine
 10
91.71469999999999
 20
3.915800000000009
 30
0.0
 11
92.50249999999999
 21
3.902900000000009
 31
0.0
  0
LINE
  5
F2
330
1E
100
AcDbEntity
  8
0
100
AcDbLine
 10
92.50249999999999
 20
3.902900000000009
 30
0.0
 11
93.3613
 21
3.890000000000009
 31
0.0
  0
LINE
  5
F3
330
1E
100
AcDbEntity
  8
0
100
AcDbLine
 10
93.3613
 20
3.890000000000009
 30
0.0
 11
94.289
 21
3.877100000000009
 31
0.0
  0
LINE
  5
F4
330
1E
100
AcDbEntity
  8
0
100
AcDbLine
 10
94.289
 20
3.877100000000009
 30
0.0
 11
95.27979999999999
 21
3.863100000000009
 31
0.0
  0
LINE
  5
F5
330
1E
100
AcDbEntity
  8
0
100
AcDbLine
 10
92.2846
 20
0.5486
 30
0.0
 11
93.2853
 21
0.4641
 31
0.0
  0
LINE
  5
F6
330
1E
100
AcDbEntity
  8
0
100
AcDbLine
 10
91.8067
 20
0.6162
 30
0.0
 11
92.2846
 21
0.5486
 31
0.0
  0
LINE
  5
F7
330
1E
100
AcDbEntity
  8
0
100
AcDbLine
 10
93.2853
 20
0.4641
 30
0.0
 11
97.19920000000001
 21
0.2485
 31
0.0
  0
LINE
  5
F9
330
1E
100
AcDbEntity
  8
0
100
AcDbLine
 10
97.19920000000001
 20
0.2485
 30
0.0
 11
101.1251
 21
0.1024
 31
0.0
  0
LINE
  5
FA
330
1E
100
AcDbEntity
  8
0
100
AcDbLine
 10
96.32940000000001
 20
3.851200000000009
 30
0.0
 11
97.4352
 21
3.838300000000009
 31
0.0
  0
LINE
  5
FB
330
1E
100
AcDbEntity
  8
0
100
AcDbLine
 10
95.27979999999999
 20
3.863100000000009
 30
0.0
 11
96.32940000000001
 21
3.851200000000009
 31
0.0
  0
LINE
  5
FC
330
1E
100
AcDbEntity
  8
0
100
AcDbLine
 10
99.7905
 20
3.814400000000009
 30
0.0
 11
101.0310999999999
 21
3.803500000000009
 31
0.0
  0
LINE
  5
FD
330
1E
100
AcDbEntity
  8
0
100
AcDbLine
 10
98.5898
 20
3.826400000000009
 30
0.0
 11
99.7905
 21
3.814400000000009
 31
0.0
  0
LINE
  5
FE
330
1E
100
AcDbEntity
  8
0
100
AcDbLine
 10
97.4352
 20
3.838300000000009
 30
0.0
 11
98.5898
 21
3.826400000000009
 31
0.0
  0
LINE
  5
FF
330
1E
100
AcDbEntity
  8
0
100
AcDbLine
 10
99.1087
 20
35.9241
 30
0.0
 11
101.3641
 21
35.60999999999999
 31
0.0
  0
LINE
  5
101
330
1E
100
AcDbEntity
  8
0
100
AcDbLine
 10
101.1251
 20
0.1024
 30
0.0
 11
105.0601
 21
0.0169000000000001
 31
0.0
  0
LINE
  5
102
330
1E
100
AcDbEntity
  8
0
100
AcDbLine
 10
101.1251
 20
0.1024
 30
0.0
 11
105.0601
 21
0.0169000000000001
 31
0.0
  0
LINE
  5
112
330
1E
100
AcDbEntity
  8
0
100
AcDbLine
 10
105.0601
 20
0.0169000000000001
 30
0.0
 11
109.0
 21
0.0000000000000001
 31
0.0
  0
LINE
  5
113
330
1E
100
AcDbEntity
  8
0
100
AcDbLine
 10
105.0601
 20
0.0169000000000001
 30
0.0
 11
109.0
 21
0.0000000000000001
 31
0.0
  0
LINE
  5
11A
330
1E
100
AcDbEntity
  8
0
100
AcDbLine
 10
103.6094999999999
 20
3.785600000000009
 30
0.0
 11
104.9360999999999
 21
3.777700000000009
 31
0.0
  0
LINE
  5
11B
330
1E
100
AcDbEntity
  8
0
100
AcDbLine
 10
101.0310999999999
 20
3.803500000000009
 30
0.0
 11
102.3058999999999
 21
3.793600000000009
 31
0.0
  0
LINE
  5
11C
330
1E
100
AcDbEntity
  8
0
100
AcDbLine
 10
102.3058999999999
 20
3.793600000000009
 30
0.0
 11
103.6094999999999
 21
3.785600000000009
 31
0.0
  0
LINE
  5
11E
330
1E
100
AcDbEntity
  8
0
100
AcDbLine
 10
106.2807999999999
 20
3.772700000000009
 30
0.0
 11
107.6373
 21
3.769700000000009
 31
0.0
  0
LINE
  5
11F
330
1E
100
AcDbEntity
  8
0
100
AcDbLine
 10
104.9360999999999
 20
3.777700000000009
 30
0.0
 11
106.2807999999999
 21
3.772700000000009
 31
0.0
  0
LINE
  5
120
330
1E
100
AcDbEntity
  8
0
100
AcDbLine
 10
107.6373
 20
3.769700000000009
 30
0.0
 11
109.0
 21
3.768700000000009
 31
0.0
  0
LINE
  5
173
330
1E
100
AcDbEntity
  8
0
100
AcDbLine
 10
107.0123345103449
 20
35.21417901399029
 30
0.0
 11
108.6153218221209
 21
35.17674152902969
 31
0.0
  0
LINE
  5
1A0
330
1E
100
AcDbEntity
  8
0
100
AcDbLine
 10
108.6121
 20
35.17669999999999
 30
0.0
 11
109.0
 21
35.1817
 31
0.0
  0
LINE
  5
1A1
330
1E
100
AcDbEntity
  8
0
100
AcDbLine
 10
106.1490676306479
 20
35.2344034729317
 30
0.0
 11
108.6153218221209
 21
35.17674152902969
 31
0.0
  0
LINE
  5
1A6
330
1E
100
AcDbEntity
  8
0
100
AcDbLine
 10
103.7214999999999
 20
35.37939999999999
 30
0.0
 11
106.1490676306479
 21
35.2344034729317
 31
0.0
  0
LINE
  5
1A7
330
1E
100
AcDbEntity
  8
0
100
AcDbLine
 10
101.3641
 20
35.60999999999999
 30
0.0
 11
103.7214999999999
 21
35.37939999999999
 31
0.0
  0
LINE
  5
1AD
330
1E
100
AcDbEntity
  8
0
100
AcDbLine
 10
96.91830000000001
 20
36.33059999999999
 30
0.0
 11
99.1087
 21
35.9241
 31
0.0
  0
LINE
  5
1B0
330
1E
100
AcDbEntity
  8
0
100
AcDbLine
 10
91.5108
 20
37.9923
 30
0.0
 11
93.09029999999999
 21
37.3721
 31
0.0
  0
LINE
  5
1C4
330
1E
100
AcDbEntity
  8
0
100
AcDbLine
 10
93.42399999999999
 20
43.3
 30
0.0
 11
98.08799999999999
 21
43.3
 31
0.0
  0
LINE
  5
1C5
330
1E
100
AcDbEntity
  8
0
100
AcDbLine
 10
98.08799999999999
 20
43.3
 30
0.0
 11
103.3679999999999
 21
43.3
 31
0.0
  0
LINE
  5
1C6
330
1E
100
AcDbEntity
  8
0
100
AcDbLine
 10
103.3679999999999
 20
43.3
 30
0.0
 11
109.0
 21
43.3
 31
0.0
  0
LINE
  5
258
330
1E
100
AcDbEntity
  8
0
100
AcDbLine
 10
93.09029999999999
 20
37.3721
 30
0.0
 11
94.9028
 21
36.8156
 31
0.0
  0
LINE
  5
259
330
1E
100
AcDbEntity
  8
0
100
AcDbLine
 10
94.9028
 20
36.8156
 30
0.0
 11
96.91830000000001
 21
36.33059999999999
 31
0.0
  0
LINE
  5
260
330
1E
100
AcDbEntity
  8
0
100
AcDbLine
 10
167.0666999999999
 20
136.0
 30
0.0
 11
160.0
 21
136.0
 31
0.0
  0
LINE
  5
261
330
1E
100
AcDbEntity
  8
0
100
AcDbLine
 10
167.4667
 20
113.5
 30
0.0
 11
160.4
 21
113.5
 31
0.0
  0
LINE
  5
262
330
1E
100
AcDbEntity
  8
0
100
AcDbLine
 10
168.4
 20
113.0
 30
0.0
 11
161.8667
 21
113.0
 31
0.0
  0
LINE
  5
263
330
1E
100
AcDbEntity
  8
0
100
AcDbLine
 10
171.3077
 20
113.0
 30
0.0
 11
152.6666999999999
 21
113.0
 31
0.0
  0
LINE
  5
264
330
1E
100
AcDbEntity
  8
0
100
AcDbLine
 10
171.3077
 20
113.0
 30
0.0
 11
152.6666999999999
 21
113.0
 31
0.0
  0
LINE
  5
265
330
1E
100
AcDbEntity
  8
0
100
AcDbLine
 10
182.918
 20
96.0
 30
0.0
 11
158.843
 21
96.0
 31
0.0
  0
LINE
  5
266
330
1E
100
AcDbEntity
  8
0
100
AcDbLine
 10
182.918
 20
54.0
 30
0.0
 11
128.7679999999999
 21
54.00199999999999
 31
0.0
  0
LINE
  5
267
330
1E
100
AcDbEntity
  8
0
100
AcDbLine
 10
203.0
 20
75.08029999999999
 30
0.0
 11
202.911
 21
64.7615
 31
0.0
  0
LINE
  5
268
330
1E
100
AcDbEntity
  8
0
100
AcDbLine
 10
202.132
 20
54.1565
 30
0.0
 11
195.727
 21
54.0459
 31
0.0
  0
LINE
  5
269
330
1E
100
AcDbEntity
  8
0
100
AcDbLine
 10
202.911
 20
64.7615
 30
0.0
 11
202.622
 21
54.6351
 31
0.0
  0
LINE
  5
26A
330
1E
100
AcDbEntity
  8
0
100
AcDbLine
 10
202.5509999999999
 20
54.39779999999999
 30
0.0
 11
202.373
 21
54.2243
 31
0.0
  0
LINE
  5
26B
330
1E
100
AcDbEntity
  8
0
100
AcDbLine
 10
202.622
 20
54.6351
 30
0.0
 11
202.5509999999999
 21
54.39779999999999
 31
0.0
  0
LINE
  5
26C
330
1E
100
AcDbEntity
  8
0
100
AcDbLine
 10
202.373
 20
54.2243
 30
0.0
 11
202.132
 21
54.1565
 31
0.0
  0
LINE
  5
26D
330
1E
100
AcDbEntity
  8
0
100
AcDbLine
 10
195.727
 20
54.0459
 30
0.0
 11
182.918
 21
54.0
 31
0.0
  0
LINE
  5
26E
330
1E
100
AcDbEntity
  8
0
100
AcDbLine
 10
200.9333
 20
136.0
 30
0.0
 11
192.8
 21
136.0
 31
0.0
  0
LINE
  5
26F
330
1E
100
AcDbEntity
  8
0
100
AcDbLine
 10
199.6
 20
113.0
 30
0.0
 11
196.6922999999999
 21
113.0
 31
0.0
  0
LINE
  5
270
330
1E
100
AcDbEntity
  8
0
100
AcDbLine
 10
200.5332999999999
 20
113.5
 30
0.0
 11
192.5333
 21
113.5
 31
0.0
  0
LINE
  5
271
330
1E
100
AcDbEntity
  8
0
100
AcDbLine
 10
215.3332999999999
 20
113.0
 30
0.0
 11
196.6922999999999
 21
113.0
 31
0.0
  0
LINE
  5
272
330
1E
100
AcDbEntity
  8
0
100
AcDbLine
 10
197.812
 20
96.0
 30
0.0
 11
195.791
 21
96.0
 31
0.0
  0
LINE
  5
273
330
1E
100
AcDbEntity
  8
0
100
AcDbLine
 10
199.0
 20
110.0
 30
0.0
 11
196.6922999999999
 21
112.0
 31
0.0
  0
LINE
  5
274
330
1E
100
AcDbEntity
  8
0
100
AcDbLine
 10
202.91
 20
85.39810000000001
 30
0.0
 11
202.621
 21
95.52150000000001
 31
0.0
  0
LINE
  5
275
330
1E
100
AcDbEntity
  8
0
100
AcDbLine
 10
203.0
 20
75.08029999999999
 30
0.0
 11
202.91
 21
85.39810000000001
 31
0.0
  0
LINE
  5
276
330
1E
100
AcDbEntity
  8
0
100
AcDbLine
 10
199.0
 20
102.0
 30
0.0
 11
199.0
 21
99.0
 31
0.0
  0
LINE
  5
277
330
1E
100
AcDbEntity
  8
0
100
AcDbLine
 10
199.0
 20
99.0
 30
0.0
 11
199.0
 21
102.0
 31
0.0
  0
LINE
  5
278
330
1E
100
AcDbEntity
  8
0
100
AcDbLine
 10
202.1189999999999
 20
96.0
 30
0.0
 11
201.8199999999999
 21
96.0
 31
0.0
  0
LINE
  5
279
330
1E
100
AcDbEntity
  8
0
100
AcDbLine
 10
202.3649999999999
 20
95.93619999999999
 30
0.0
 11
202.1189999999999
 21
96.0
 31
0.0
  0
LINE
  5
27A
330
1E
100
AcDbEntity
  8
0
100
AcDbLine
 10
202.5479999999999
 20
95.76269999999999
 30
0.0
 11
202.3649999999999
 21
95.93619999999999
 31
0.0
  0
LINE
  5
27B
330
1E
100
AcDbEntity
  8
0
100
AcDbLine
 10
202.621
 20
95.52150000000001
 30
0.0
 11
202.5479999999999
 21
95.76269999999999
 31
0.0
  0
LINE
  5
27C
330
1E
100
AcDbEntity
  8
0
100
AcDbLine
 10
200.9339999999999
 20
96.0
 30
0.0
 11
199.493
 21
96.0
 31
0.0
  0
LINE
  5
27D
330
1E
100
AcDbEntity
  8
0
100
AcDbLine
 10
201.8199999999999
 20
96.0
 30
0.0
 11
200.9339999999999
 21
96.0
 31
0.0
  0
LINE
  5
27E
330
1E
100
AcDbEntity
  8
0
100
AcDbLine
 10
199.0
 20
97.0
 30
0.0
 11
199.0
 21
99.0
 31
0.0
  0
LINE
  5
27F
330
1E
100
AcDbEntity
  8
0
100
AcDbLine
 10
199.0
 20
99.0
 30
0.0
 11
199.0
 21
97.0
 31
0.0
  0
LINE
  5
280
330
1E
100
AcDbEntity
  8
0
100
AcDbLine
 10
199.0
 20
97.0
 30
0.0
 11
197.84615
 21
96.0
 31
0.0
  0
LINE
  5
281
330
1E
100
AcDbEntity
  8
0
100
AcDbLine
 10
199.493
 20
96.0
 30
0.0
 11
197.812
 21
96.0
 31
0.0
  0
LINE
  5
282
330
1E
100
AcDbEntity
  8
0
100
AcDbLine
 10
199.0
 20
108.0
 30
0.0
 11
199.0
 21
102.0
 31
0.0
  0
LINE
  5
283
330
1E
100
AcDbEntity
  8
0
100
AcDbLine
 10
199.0
 20
102.0
 30
0.0
 11
199.0
 21
108.0
 31
0.0
  0
LINE
  5
284
330
1E
100
AcDbEntity
  8
0
100
AcDbLine
 10
199.0
 20
110.0
 30
0.0
 11
199.0
 21
108.0
 31
0.0
  0
LINE
  5
285
330
1E
100
AcDbEntity
  8
0
100
AcDbLine
 10
199.0
 20
108.0
 30
0.0
 11
199.0
 21
110.0
 31
0.0
  0
LINE
  5
286
330
1E
100
AcDbEntity
  8
0
100
AcDbLine
 10
216.8
 20
136.0
 30
0.0
 11
213.4666999999999
 21
136.0
 31
0.0
  0
LINE
  5
287
330
1E
100
AcDbEntity
  8
0
100
AcDbLine
 10
215.3332999999999
 20
113.0
 30
0.0
 11
214.1333
 21
113.0
 31
0.0
  0
LINE
  5
288
330
1E
100
AcDbEntity
  8
0
100
AcDbLine
 10
216.1333
 20
113.5
 30
0.0
 11
212.8
 21
113.5
 31
0.0
  0
LINE
  5
289
330
1E
100
AcDbEntity
  8
0
100
AcDbLine
 10
218.0
 20
115.0
 30
0.0
 11
218.0
 21
136.0
 31
0.0
  0
LINE
  5
28A
330
1E
100
AcDbEntity
  8
0
100
AcDbLine
 10
218.0
 20
136.0
 30
0.0
 11
218.0
 21
115.0
 31
0.0
  0
LINE
  5
28B
330
1E
100
AcDbEntity
  8
0
100
AcDbLine
 10
217.3332999999999
 20
113.5
 30
0.0
 11
216.1333
 21
113.5
 31
0.0
  0
LINE
  5
28C
330
1E
100
AcDbEntity
  8
0
100
AcDbLine
 10
217.3332999999999
 20
113.5
 30
0.0
 11
215.3332999999999
 21
113.0
 31
0.0
  0
LINE
  5
28D
330
1E
100
AcDbEntity
  8
0
100
AcDbLine
 10
218.0
 20
115.0
 30
0.0
 11
217.3332999999999
 21
113.5
 31
0.0
  0
LINE
  5
28E
330
1E
100
AcDbEntity
  8
0
100
AcDbLine
 10
218.0
 20
136.0
 30
0.0
 11
216.8
 21
136.0
 31
0.0
  0
LINE
  5
28F
330
1E
100
AcDbEntity
  8
0
100
AcDbLine
 10
206.1332999999999
 20
113.0
 30
0.0
 11
199.6
 21
113.0
 31
0.0
  0
LINE
  5
290
330
1E
100
AcDbEntity
  8
0
100
AcDbLine
 10
207.6
 20
113.5
 30
0.0
 11
200.5332999999999
 21
113.5
 31
0.0
  0
LINE
  5
291
330
1E
100
AcDbEntity
  8
0
100
AcDbLine
 10
212.8
 20
113.5
 30
0.0
 11
207.6
 21
113.5
 31
0.0
  0
LINE
  5
292
330
1E
100
AcDbEntity
  8
0
100
AcDbLine
 10
211.2
 20
113.0
 30
0.0
 11
206.1332999999999
 21
113.0
 31
0.0
  0
LINE
  5
293
330
1E
100
AcDbEntity
  8
0
100
AcDbLine
 10
214.1333
 20
113.0
 30
0.0
 11
211.2
 21
113.0
 31
0.0
  0
LINE
  5
294
330
1E
100
AcDbEntity
  8
0
100
AcDbLine
 10
208.0
 20
136.0
 30
0.0
 11
200.9333
 21
136.0
 31
0.0
  0
LINE
  5
295
330
1E
100
AcDbEntity
  8
0
100
AcDbLine
 10
213.4666999999999
 20
136.0
 30
0.0
 11
208.0
 21
136.0
 31
0.0
  0
LINE
  5
296
330
1E
100
AcDbEntity
  8
0
100
AcDbLine
 10
171.3077
 20
112.0
 30
0.0
 11
169.0
 21
110.0
 31
0.0
  0
LINE
  5
297
330
1E
100
AcDbEntity
  8
0
100
AcDbLine
 10
190.961
 20
96.0
 30
0.0
 11
188.227
 21
96.0
 31
0.0
  0
LINE
  5
298
330
1E
100
AcDbEntity
  8
0
100
AcDbLine
 10
193.485
 20
96.0
 30
0.0
 11
190.961
 21
96.0
 31
0.0
  0
LINE
  5
299
330
1E
100
AcDbEntity
  8
0
100
AcDbLine
 10
195.791
 20
96.0
 30
0.0
 11
193.485
 21
96.0
 31
0.0
  0
LINE
  5
29A
330
1E
100
AcDbEntity
  8
0
100
AcDbLine
 10
187.001
 20
96.0
 30
0.0
 11
184.5229999999999
 21
96.0
 31
0.0
  0
LINE
  5
29B
330
1E
100
AcDbEntity
  8
0
100
AcDbLine
 10
188.227
 20
96.0
 30
0.0
 11
187.001
 21
96.0
 31
0.0
  0
LINE
  5
29C
330
1E
100
AcDbEntity
  8
0
100
AcDbLine
 10
184.5229999999999
 20
96.0
 30
0.0
 11
182.918
 21
96.0
 31
0.0
  0
LINE
  5
29D
330
1E
100
AcDbEntity
  8
0
100
AcDbLine
 10
169.0
 20
99.0
 30
0.0
 11
169.0
 21
102.0
 31
0.0
  0
LINE
  5
29E
330
1E
100
AcDbEntity
  8
0
100
AcDbLine
 10
169.0
 20
102.0
 30
0.0
 11
169.0
 21
99.0
 31
0.0
  0
LINE
  5
29F
330
1E
100
AcDbEntity
  8
0
100
AcDbLine
 10
170.15385
 20
96.0
 30
0.0
 11
169.0
 21
97.0
 31
0.0
  0
LINE
  5
2A0
330
1E
100
AcDbEntity
  8
0
100
AcDbLine
 10
169.0
 20
99.0
 30
0.0
 11
169.0
 21
97.0
 31
0.0
  0
LINE
  5
2A1
330
1E
100
AcDbEntity
  8
0
100
AcDbLine
 10
169.0
 20
97.0
 30
0.0
 11
169.0
 21
99.0
 31
0.0
  0
LINE
  5
2A2
330
1E
100
AcDbEntity
  8
0
100
AcDbLine
 10
169.0
 20
102.0
 30
0.0
 11
169.0
 21
110.0
 31
0.0
  0
LINE
  5
2A3
330
1E
100
AcDbEntity
  8
0
100
AcDbLine
 10
169.0
 20
110.0
 30
0.0
 11
169.0
 21
102.0
 31
0.0
  0
LINE
  5
2A4
330
1E
100
AcDbEntity
  8
0
100
AcDbLine
 10
180.7692
 20
112.0
 30
0.0
 11
177.6537999999999
 21
112.0
 31
0.0
  0
LINE
  5
2A5
330
1E
100
AcDbEntity
  8
0
100
AcDbLine
 10
184.0
 20
136.0
 30
0.0
 11
175.1999999999999
 21
136.0
 31
0.0
  0
LINE
  5
2A6
330
1E
100
AcDbEntity
  8
0
100
AcDbLine
 10
184.0
 20
113.5
 30
0.0
 11
175.4666999999999
 21
113.5
 31
0.0
  0
LINE
  5
2A7
330
1E
100
AcDbEntity
  8
0
100
AcDbLine
 10
190.3462
 20
112.0
 30
0.0
 11
187.2307999999999
 21
112.0
 31
0.0
  0
LINE
  5
2A8
330
1E
100
AcDbEntity
  8
0
100
AcDbLine
 10
192.5333
 20
113.5
 30
0.0
 11
184.0
 21
113.5
 31
0.0
  0
LINE
  5
2A9
330
1E
100
AcDbEntity
  8
0
100
AcDbLine
 10
194.9615
 20
112.0
 30
0.0
 11
193.0
 21
112.0
 31
0.0
  0
LINE
  5
2AA
330
1E
100
AcDbEntity
  8
0
100
AcDbLine
 10
196.2307999999999
 20
112.0
 30
0.0
 11
194.9615
 21
112.0
 31
0.0
  0
LINE
  5
2AB
330
1E
100
AcDbEntity
  8
0
100
AcDbLine
 10
196.6922999999999
 20
112.0
 30
0.0
 11
196.2307999999999
 21
112.0
 31
0.0
  0
LINE
  5
2AC
330
1E
100
AcDbEntity
  8
0
100
AcDbLine
 10
196.6922999999999
 20
112.0
 30
0.0
 11
196.6922999999999
 21
113.0
 31
0.0
  0
LINE
  5
2AD
330
1E
100
AcDbEntity
  8
0
100
AcDbLine
 10
196.6922999999999
 20
113.0
 30
0.0
 11
196.6922999999999
 21
112.0
 31
0.0
  0
LINE
  5
2AE
330
1E
100
AcDbEntity
  8
0
100
AcDbLine
 10
193.0
 20
112.0
 30
0.0
 11
190.3462
 21
112.0
 31
0.0
  0
LINE
  5
2AF
330
1E
100
AcDbEntity
  8
0
100
AcDbLine
 10
187.2307999999999
 20
112.0
 30
0.0
 11
184.0
 21
112.0
 31
0.0
  0
LINE
  5
2B0
330
1E
100
AcDbEntity
  8
0
100
AcDbLine
 10
184.0
 20
112.0
 30
0.0
 11
180.7692
 21
112.0
 31
0.0
  0
LINE
  5
2B1
330
1E
100
AcDbEntity
  8
0
100
AcDbLine
 10
192.8
 20
136.0
 30
0.0
 11
184.0
 21
136.0
 31
0.0
  0
LINE
  5
2B2
330
1E
100
AcDbEntity
  8
0
100
AcDbLine
 10
173.0385
 20
112.0
 30
0.0
 11
171.7692
 21
112.0
 31
0.0
  0
LINE
  5
2B3
330
1E
100
AcDbEntity
  8
0
100
AcDbLine
 10
175.4666999999999
 20
113.5
 30
0.0
 11
167.4667
 21
113.5
 31
0.0
  0
LINE
  5
2B4
330
1E
100
AcDbEntity
  8
0
100
AcDbLine
 10
177.6537999999999
 20
112.0
 30
0.0
 11
175.0
 21
112.0
 31
0.0
  0
LINE
  5
2B5
330
1E
100
AcDbEntity
  8
0
100
AcDbLine
 10
175.0
 20
112.0
 30
0.0
 11
173.0385
 21
112.0
 31
0.0
  0
LINE
  5
2B6
330
1E
100
AcDbEntity
  8
0
100
AcDbLine
 10
171.3077
 20
113.0
 30
0.0
 11
168.4
 21
113.0
 31
0.0
  0
LINE
  5
2B7
330
1E
100
AcDbEntity
  8
0
100
AcDbLine
 10
171.3077
 20
113.0
 30
0.0
 11
171.3077
 21
112.0
 31
0.0
  0
LINE
  5
2B8
330
1E
100
AcDbEntity
  8
0
100
AcDbLine
 10
171.3077
 20
112.0
 30
0.0
 11
171.3077
 21
113.0
 31
0.0
  0
LINE
  5
2B9
330
1E
100
AcDbEntity
  8
0
100
AcDbLine
 10
171.7692
 20
112.0
 30
0.0
 11
171.3077
 21
112.0
 31
0.0
  0
LINE
  5
2BA
330
1E
100
AcDbEntity
  8
0
100
AcDbLine
 10
175.1999999999999
 20
136.0
 30
0.0
 11
167.0666999999999
 21
136.0
 31
0.0
  0
LINE
  5
2BB
330
1E
100
AcDbEntity
  8
0
100
AcDbLine
 10
129.68
 20
43.0
 30
0.0
 11
129.2851569362773
 21
43.0
 31
0.0
  0
LINE
  5
2BC
330
1E
100
AcDbEntity
  8
0
100
AcDbLine
 10
129.6684
 20
41.5235
 30
0.0
 11
129.0644442451128
 21
41.5235
 31
0.0
  0
LINE
  5
2BD
330
1E
100
AcDbEntity
  8
0
100
AcDbLine
 10
130.2079999999999
 20
43.3
 30
0.0
 11
128.096
 21
43.3
 31
0.0
  0
LINE
  5
2BE
330
1E
100
AcDbEntity
  8
0
100
AcDbLine
 10
129.7535511642655
 20
40.49987835382642
 30
0.0
 11
129.3584
 21
39.90149999999999
 31
0.0
  0
LINE
  5
2BF
330
1E
100
AcDbEntity
  8
0
100
AcDbLine
 10
129.7014
 20
41.0703
 30
0.0
 11
129.1075
 21
41.0703
 31
0.0
  0
LINE
  5
2C0
330
1E
100
AcDbEntity
  8
0
100
AcDbLine
 10
129.5973999999999
 20
3.993300000000009
 30
0.0
 11
129.2975
 21
3.981400000000009
 31
0.0
  0
LINE
  5
2C1
330
1E
100
AcDbEntity
  8
0
100
AcDbLine
 10
130.9979999999999
 20
26.1425
 30
0.0
 11
130.997
 21
24.5006
 31
0.0
  0
LINE
  5
2C2
330
1E
100
AcDbEntity
  8
0
100
AcDbLine
 10
130.7360999999999
 20
4.2746
 30
0.0
 11
130.4750999999999
 21
4.105600000000009
 31
0.0
  0
LINE
  5
2C3
330
1E
100
AcDbEntity
  8
0
100
AcDbLine
 10
130.1741999999999
 20
4.033100000000009
 30
0.0
 11
129.5973999999999
 21
3.993300000000009
 31
0.0
  0
LINE
  5
2C4
330
1E
100
AcDbEntity
  8
0
100
AcDbLine
 10
130.2462
 20
4.040000000000009
 30
0.0
 11
130.1741999999999
 21
4.033100000000009
 31
0.0
  0
LINE
  5
2C5
330
1E
100
AcDbEntity
  8
0
100
AcDbLine
 10
130.4680999999999
 20
4.101700000000009
 30
0.0
 11
130.2462
 21
4.040000000000009
 31
0.0
  0
LINE
  5
2C6
330
1E
100
AcDbEntity
  8
0
100
AcDbLine
 10
130.996
 20
15.535
 30
0.0
 11
130.986
 21
5.314200000000009
 31
0.0
  0
LINE
  5
2C7
330
1E
100
AcDbEntity
  8
0
100
AcDbLine
 10
130.996
 20
15.535
 30
0.0
 11
130.986
 21
5.314199999999999
 31
0.0
  0
LINE
  5
2C8
330
1E
100
AcDbEntity
  8
0
100
AcDbLine
 10
130.9889999999999
 20
5.3181
 30
0.0
 11
130.961
 21
4.756600000000009
 31
0.0
  0
LINE
  5
2C9
330
1E
100
AcDbEntity
  8
0
100
AcDbLine
 10
130.9019999999999
 20
4.534000000000009
 30
0.0
 11
130.7360999999999
 21
4.2746
 31
0.0
  0
LINE
  5
2CA
330
1E
100
AcDbEntity
  8
0
100
AcDbLine
 10
130.961
 20
4.756600000000009
 30
0.0
 11
130.9019999999999
 21
4.534000000000009
 31
0.0
  0
LINE
  5
2CB
330
1E
100
AcDbEntity
  8
0
100
AcDbLine
 10
130.997
 20
20.51429999999999
 30
0.0
 11
130.996
 21
19.2799
 31
0.0
  0
LINE
  5
2CC
330
1E
100
AcDbEntity
  8
0
100
AcDbLine
 10
130.9979999999999
 20
17.2117
 30
0.0
 11
130.997
 21
17.64199999999999
 31
0.0
  0
LINE
  5
2CD
330
1E
100
AcDbEntity
  8
0
100
AcDbLine
 10
130.9979999999999
 20
17.2117
 30
0.0
 11
130.993
 21
16.509
 31
0.0
  0
LINE
  5
2CE
330
1E
100
AcDbEntity
  8
0
100
AcDbLine
 10
130.996
 20
15.535
 30
0.0
 11
130.993
 21
16.509
 31
0.0
  0
LINE
  5
2CF
330
1E
100
AcDbEntity
  8
0
100
AcDbLine
 10
130.996
 20
19.2799
 30
0.0
 11
130.995
 21
19.7987
 31
0.0
  0
LINE
  5
2D0
330
1E
100
AcDbEntity
  8
0
100
AcDbLine
 10
130.9979999999999
 20
18.779
 30
0.0
 11
130.997
 21
17.64199999999999
 31
0.0
  0
LINE
  5
2D1
330
1E
100
AcDbEntity
  8
0
100
AcDbLine
 10
130.9979999999999
 20
18.779
 30
0.0
 11
130.995
 21
19.7987
 31
0.0
  0
LINE
  5
2D2
330
1E
100
AcDbEntity
  8
0
100
AcDbLine
 10
130.997
 20
21.76849999999999
 30
0.0
 11
130.995
 21
22.8647
 31
0.0
  0
LINE
  5
2D3
330
1E
100
AcDbEntity
  8
0
100
AcDbLine
 10
130.997
 20
21.76849999999999
 30
0.0
 11
130.992
 21
20.8383
 31
0.0
  0
LINE
  5
2D4
330
1E
100
AcDbEntity
  8
0
100
AcDbLine
 10
130.997
 20
20.51429999999999
 30
0.0
 11
130.992
 21
20.8383
 31
0.0
  0
LINE
  5
2D5
330
1E
100
AcDbEntity
  8
0
100
AcDbLine
 10
130.997
 20
23.0357
 30
0.0
 11
130.997
 21
24.5006
 31
0.0
  0
LINE
  5
2D6
330
1E
100
AcDbEntity
  8
0
100
AcDbLine
 10
130.997
 20
23.0357
 30
0.0
 11
130.995
 21
22.8647
 31
0.0
  0
LINE
  5
2D7
330
1E
100
AcDbEntity
  8
0
100
AcDbLine
 10
130.997
 20
24.5006
 30
0.0
 11
130.997
 21
23.0357
 31
0.0
  0
LINE
  5
2D8
330
1E
100
AcDbEntity
  8
0
100
AcDbLine
 10
131.0
 20
43.3
 30
0.0
 11
131.0
 21
54.0
 31
0.0
  0
LINE
  5
2D9
330
1E
100
AcDbEntity
  8
0
100
AcDbLine
 10
131.0
 20
54.0
 30
0.0
 11
131.0
 21
43.3
 31
0.0
  0
LINE
  5
2DA
330
1E
100
AcDbEntity
  8
0
100
AcDbLine
 10
130.9979999999999
 20
41.0275
 30
0.0
 11
130.996
 21
29.4322
 31
0.0
  0
LINE
  5
2DB
330
1E
100
AcDbEntity
  8
0
100
AcDbLine
 10
130.996
 20
26.0163
 30
0.0
 11
130.996
 21
29.4322
 31
0.0
  0
LINE
  5
2DC
330
1E
100
AcDbEntity
  8
0
100
AcDbLine
 10
130.996
 20
29.4322
 30
0.0
 11
130.996
 21
26.0163
 31
0.0
  0
LINE
  5
2DD
330
1E
100
AcDbEntity
  8
0
100
AcDbLine
 10
130.9979999999999
 20
26.1425
 30
0.0
 11
130.996
 21
26.0163
 31
0.0
  0
LINE
  5
2DE
330
1E
100
AcDbEntity
  8
0
100
AcDbLine
 10
130.9309999999999
 20
41.275
 30
0.0
 11
130.7480999999999
 21
41.4579
 31
0.0
  0
LINE
  5
2DF
330
1E
100
AcDbEntity
  8
0
100
AcDbLine
 10
131.0
 20
41.0285
 30
0.0
 11
130.9309999999999
 21
41.275
 31
0.0
  0
LINE
  5
2E0
330
1E
100
AcDbEntity
  8
0
100
AcDbLine
 10
129.9033
 20
41.0703
 30
0.0
 11
129.7535511642655
 21
40.49987835382649
 31
0.0
  0
LINE
  5
2E1
330
1E
100
AcDbEntity
  8
0
100
AcDbLine
 10
129.9033
 20
41.0703
 30
0.0
 11
129.7014
 21
41.0703
 31
0.0
  0
LINE
  5
2E2
330
1E
100
AcDbEntity
  8
0
100
AcDbLine
 10
131.0
 20
43.3
 30
0.0
 11
130.472
 21
43.0
 31
0.0
  0
LINE
  5
2E3
330
1E
100
AcDbEntity
  8
0
100
AcDbLine
 10
130.7480999999999
 20
41.4579
 30
0.0
 11
130.4980999999999
 21
41.5235
 31
0.0
  0
LINE
  5
2E4
330
1E
100
AcDbEntity
  8
0
100
AcDbLine
 10
131.0
 20
43.3
 30
0.0
 11
130.2079999999999
 21
43.3
 31
0.0
  0
LINE
  5
2E5
330
1E
100
AcDbEntity
  8
0
100
AcDbLine
 10
130.2162
 20
41.5235
 30
0.0
 11
129.6684
 21
41.5235
 31
0.0
  0
LINE
  5
2E6
330
1E
100
AcDbEntity
  8
0
100
AcDbLine
 10
130.4980999999999
 20
41.5235
 30
0.0
 11
130.4012
 21
41.5235
 31
0.0
  0
LINE
  5
2E7
330
1E
100
AcDbEntity
  8
0
100
AcDbLine
 10
130.472
 20
43.0
 30
0.0
 11
129.68
 21
43.0
 31
0.0
  0
LINE
  5
2E8
330
1E
100
AcDbEntity
  8
0
100
AcDbLine
 10
130.4012
 20
41.5235
 30
0.0
 11
130.2162
 21
41.5235
 31
0.0
  0
LINE
  5
2E9
330
1E
100
AcDbEntity
  8
0
100
AcDbLine
 10
113.0639
 20
3.777700000000009
 30
0.0
 11
111.7191999999999
 21
3.772700000000009
 31
0.0
  0
LINE
  5
2EA
330
1E
100
AcDbEntity
  8
0
100
AcDbLine
 10
112.9399
 20
0.0169000000000001
 30
0.0
 11
109.0
 21
0.0000000000000001
 31
0.0
  0
LINE
  5
2EB
330
1E
100
AcDbEntity
  8
0
100
AcDbLine
 10
112.9399
 20
0.0169000000000001
 30
0.0
 11
109.0
 21
0.0000000000000001
 31
0.0
  0
LINE
  5
2EC
330
1E
100
AcDbEntity
  8
0
100
AcDbLine
 10
121.6706
 20
3.851200000000009
 30
0.0
 11
120.5648
 21
3.838300000000009
 31
0.0
  0
LINE
  5
2ED
330
1E
100
AcDbEntity
  8
0
100
AcDbLine
 10
124.7147
 20
0.4641
 30
0.0
 11
120.8007999999999
 21
0.2485
 31
0.0
  0
LINE
  5
2EE
330
1E
100
AcDbEntity
  8
0
100
AcDbLine
 10
125.4974999999999
 20
3.902900000000009
 30
0.0
 11
124.6387
 21
3.890000000000009
 31
0.0
  0
LINE
  5
2EF
330
1E
100
AcDbEntity
  8
0
100
AcDbLine
 10
125.7154
 20
0.5486
 30
0.0
 11
124.7147
 21
0.4641
 31
0.0
  0
LINE
  5
2F0
330
1E
100
AcDbEntity
  8
0
100
AcDbLine
 10
127.9897999999999
 20
3.948600000000009
 30
0.0
 11
126.9981
 21
3.928700000000009
 31
0.0
  0
LINE
  5
2F1
330
1E
100
AcDbEntity
  8
0
100
AcDbLine
 10
127.4129999999999
 20
0.9272999999999999
 30
0.0
 11
126.8531
 21
0.7524
 31
0.0
  0
LINE
  5
2F2
330
1E
100
AcDbEntity
  8
0
100
AcDbLine
 10
128.4997
 20
1.6349
 30
0.0
 11
128.3747
 21
1.479899999999999
 31
0.0
  0
LINE
  5
2F3
330
1E
100
AcDbEntity
  8
0
100
AcDbLine
 10
128.3747
 20
1.479899999999999
 30
0.0
 11
128.0588
 21
1.2433
 31
0.0
  0
LINE
  5
2F4
330
1E
100
AcDbEntity
  8
0
100
AcDbLine
 10
128.0588
 20
1.2433
 30
0.0
 11
127.8478999999999
 21
1.129999999999999
 31
0.0
  0
LINE
  5
2F5
330
1E
100
AcDbEntity
  8
0
100
AcDbLine
 10
127.8478999999999
 20
1.129999999999999
 30
0.0
 11
127.4129999999999
 21
0.9272999999999999
 31
0.0
  0
LINE
  5
2F6
330
1E
100
AcDbEntity
  8
0
100
AcDbLine
 10
128.7615999999999
 20
3.966500000000009
 30
0.0
 11
127.9897999999999
 21
3.948600000000009
 31
0.0
  0
LINE
  5
2F7
330
1E
100
AcDbEntity
  8
0
100
AcDbLine
 10
128.6666
 20
1.875399999999999
 30
0.0
 11
128.4997
 21
1.6349
 31
0.0
  0
LINE
  5
2F8
330
1E
100
AcDbEntity
  8
0
100
AcDbLine
 10
128.7626
 20
2.1815
 30
0.0
 11
128.6666
 21
1.875399999999999
 31
0.0
  0
LINE
  5
2F9
330
1E
100
AcDbEntity
  8
0
100
AcDbLine
 10
128.8235999999999
 20
2.391199999999999
 30
0.0
 11
128.7626
 21
2.1815
 31
0.0
  0
LINE
  5
2FA
330
1E
100
AcDbEntity
  8
0
100
AcDbLine
 10
128.9246
 20
3.1267
 30
0.0
 11
128.8235999999999
 21
2.391199999999999
 31
0.0
  0
LINE
  5
2FB
330
1E
100
AcDbEntity
  8
0
100
AcDbLine
 10
129.0484999999999
 20
3.8433
 30
0.0
 11
128.9745
 21
3.4388
 31
0.0
  0
LINE
  5
2FC
330
1E
100
AcDbEntity
  8
0
100
AcDbLine
 10
128.9745
 20
3.4388
 30
0.0
 11
128.9246
 21
3.1267
 31
0.0
  0
LINE
  5
2FD
330
1E
100
AcDbEntity
  8
0
100
AcDbLine
 10
129.0778856523627
 20
3.975293909722349
 30
0.0
 11
129.0484999999999
 21
3.8433
 31
0.0
  0
LINE
  5
2FE
330
1E
100
AcDbEntity
  8
0
100
AcDbLine
 10
129.2975
 20
3.981400000000009
 30
0.0
 11
128.7615999999999
 21
3.966500000000009
 31
0.0
  0
LINE
  5
2FF
330
1E
100
AcDbEntity
  8
0
100
AcDbLine
 10
126.8531
 20
0.7524
 30
0.0
 11
126.1932999999999
 21
0.6162
 31
0.0
  0
LINE
  5
300
330
1E
100
AcDbEntity
  8
0
100
AcDbLine
 10
126.1932999999999
 20
0.6162
 30
0.0
 11
125.7154
 21
0.5486
 31
0.0
  0
LINE
  5
301
330
1E
100
AcDbEntity
  8
0
100
AcDbLine
 10
126.2853
 20
3.915800000000009
 30
0.0
 11
125.4974999999999
 21
3.902900000000009
 31
0.0
  0
LINE
  5
302
330
1E
100
AcDbEntity
  8
0
100
AcDbLine
 10
126.9981
 20
3.928700000000009
 30
0.0
 11
126.2853
 21
3.915800000000009
 31
0.0
  0
LINE
  5
303
330
1E
100
AcDbEntity
  8
0
100
AcDbLine
 10
123.7109999999999
 20
3.877100000000009
 30
0.0
 11
122.7202
 21
3.863100000000009
 31
0.0
  0
LINE
  5
304
330
1E
100
AcDbEntity
  8
0
100
AcDbLine
 10
124.6387
 20
3.890000000000009
 30
0.0
 11
123.7109999999999
 21
3.877100000000009
 31
0.0
  0
LINE
  5
305
330
1E
100
AcDbEntity
  8
0
100
AcDbLine
 10
122.7202
 20
3.863100000000009
 30
0.0
 11
121.6706
 21
3.851200000000009
 31
0.0
  0
LINE
  5
306
330
1E
100
AcDbEntity
  8
0
100
AcDbLine
 10
116.9688999999999
 20
3.803500000000009
 30
0.0
 11
115.6940999999999
 21
3.793600000000009
 31
0.0
  0
LINE
  5
307
330
1E
100
AcDbEntity
  8
0
100
AcDbLine
 10
116.8749
 20
0.1024
 30
0.0
 11
112.9399
 21
0.0169000000000001
 31
0.0
  0
LINE
  5
308
330
1E
100
AcDbEntity
  8
0
100
AcDbLine
 10
116.8749
 20
0.1024
 30
0.0
 11
112.9399
 21
0.0169000000000001
 31
0.0
  0
LINE
  5
309
330
1E
100
AcDbEntity
  8
0
100
AcDbLine
 10
119.4101999999999
 20
3.826400000000009
 30
0.0
 11
118.2095
 21
3.814400000000009
 31
0.0
  0
LINE
  5
30A
330
1E
100
AcDbEntity
  8
0
100
AcDbLine
 10
120.8007999999999
 20
0.2485
 30
0.0
 11
116.8749
 21
0.1024
 31
0.0
  0
LINE
  5
30B
330
1E
100
AcDbEntity
  8
0
100
AcDbLine
 10
120.5648
 20
3.838300000000009
 30
0.0
 11
119.4101999999999
 21
3.826400000000009
 31
0.0
  0
LINE
  5
30C
330
1E
100
AcDbEntity
  8
0
100
AcDbLine
 10
118.2095
 20
3.814400000000009
 30
0.0
 11
116.9688999999999
 21
3.803500000000009
 31
0.0
  0
LINE
  5
30D
330
1E
100
AcDbEntity
  8
0
100
AcDbLine
 10
115.6940999999999
 20
3.793600000000009
 30
0.0
 11
114.3904999999999
 21
3.785600000000009
 31
0.0
  0
LINE
  5
30E
330
1E
100
AcDbEntity
  8
0
100
AcDbLine
 10
114.3904999999999
 20
3.785600000000009
 30
0.0
 11
113.0639
 21
3.777700000000009
 31
0.0
  0
LINE
  5
30F
330
1E
100
AcDbEntity
  8
0
100
AcDbLine
 10
110.3627
 20
3.769700000000009
 30
0.0
 11
109.0
 21
3.768700000000009
 31
0.0
  0
LINE
  5
310
330
1E
100
AcDbEntity
  8
0
100
AcDbLine
 10
111.7191999999999
 20
3.772700000000009
 30
0.0
 11
110.3627
 21
3.769700000000009
 31
0.0
  0
LINE
  5
311
330
1E
100
AcDbEntity
  8
0
100
AcDbLine
 10
114.632
 20
43.3
 30
0.0
 11
109.0
 21
43.3
 31
0.0
  0
LINE
  5
312
330
1E
100
AcDbEntity
  8
0
100
AcDbLine
 10
114.2784999999999
 20
35.37939999999999
 30
0.0
 11
111.8509323693519
 21
35.2344034729317
 31
0.0
  0
LINE
  5
313
330
1E
100
AcDbEntity
  8
0
100
AcDbLine
 10
124.576
 20
43.3
 30
0.0
 11
119.912
 21
43.3
 31
0.0
  0
LINE
  5
314
330
1E
100
AcDbEntity
  8
0
100
AcDbLine
 10
121.0817
 20
36.33059999999999
 30
0.0
 11
118.8913
 21
35.9241
 31
0.0
  0
LINE
  5
315
330
1E
100
AcDbEntity
  8
0
100
AcDbLine
 10
126.4891999999999
 20
37.9923
 30
0.0
 11
124.9097
 21
37.3721
 31
0.0
  0
LINE
  5
316
330
1E
100
AcDbEntity
  8
0
100
AcDbLine
 10
128.096
 20
43.3
 30
0.0
 11
124.576
 21
43.3
 31
0.0
  0
LINE
  5
317
330
1E
100
AcDbEntity
  8
0
100
AcDbLine
 10
129.2844999999999
 20
42.9258
 30
0.0
 11
128.9626
 21
40.87449999999999
 31
0.0
  0
LINE
  5
318
330
1E
100
AcDbEntity
  8
0
100
AcDbLine
 10
127.8129
 20
38.6691
 30
0.0
 11
126.4891999999999
 21
37.9923
 31
0.0
  0
LINE
  5
319
330
1E
100
AcDbEntity
  8
0
100
AcDbLine
 10
128.8157289933284
 20
39.36197936088727
 30
0.0
 11
127.8129
 21
38.6691
 31
0.0
  0
LINE
  5
31A
330
1E
100
AcDbEntity
  8
0
100
AcDbLine
 10
128.9626
 20
40.87449999999999
 30
0.0
 11
128.5065928083591
 21
39.1483895228455
 31
0.0
  0
LINE
  5
31B
330
1E
100
AcDbEntity
  8
0
100
AcDbLine
 10
129.1075
 20
41.0703
 30
0.0
 11
128.9933258908984
 21
41.0703
 31
0.0
  0
LINE
  5
31C
330
1E
100
AcDbEntity
  8
0
100
AcDbLine
 10
129.3584
 20
39.90149999999999
 30
0.0
 11
128.8157289933284
 21
39.3619793608872
 31
0.0
  0
LINE
  5
31D
330
1E
100
AcDbEntity
  8
0
100
AcDbLine
 10
129.2851569362773
 20
43.0
 30
0.0
 11
129.2844999999999
 21
42.9258
 31
0.0
  0
LINE
  5
31E
330
1E
100
AcDbEntity
  8
0
100
AcDbLine
 10
123.0971999999999
 20
36.8156
 30
0.0
 11
121.0817
 21
36.33059999999999
 31
0.0
  0
LINE
  5
31F
330
1E
100
AcDbEntity
  8
0
100
AcDbLine
 10
124.9097
 20
37.3721
 30
0.0
 11
123.0971999999999
 21
36.8156
 31
0.0
  0
LINE
  5
320
330
1E
100
AcDbEntity
  8
0
100
AcDbLine
 10
118.8913
 20
35.9241
 30
0.0
 11
116.6359
 21
35.60999999999999
 31
0.0
  0
LINE
  5
321
330
1E
100
AcDbEntity
  8
0
100
AcDbLine
 10
116.6359
 20
35.60999999999999
 30
0.0
 11
114.2784999999999
 21
35.37939999999999
 31
0.0
  0
LINE
  5
322
330
1E
100
AcDbEntity
  8
0
100
AcDbLine
 10
119.912
 20
43.3
 30
0.0
 11
114.632
 21
43.3
 31
0.0
  0
LINE
  5
323
330
1E
100
AcDbEntity
  8
0
100
AcDbLine
 10
110.9876654896549
 20
35.21417901399029
 30
0.0
 11
109.384678177879
 21
35.17674152902969
 31
0.0
  0
LINE
  5
324
330
1E
100
AcDbEntity
  8
0
100
AcDbLine
 10
111.8509323693519
 20
35.2344034729317
 30
0.0
 11
109.384678177879
 21
35.17674152902969
 31
0.0
  0
LINE
  5
325
330
1E
100
AcDbEntity
  8
0
100
AcDbLine
 10
109.3879
 20
35.17669999999999
 30
0.0
 11
109.0
 21
35.1817
 31
0.0
  0
LINE
  5
326
330
1E
100
AcDbEntity
  8
0
100
AcDbLine
 10
150.3759999999999
 20
96.0
 30
0.0
 11
109.0
 21
96.0
 31
0.0
  0
LINE
  5
327
330
1E
100
AcDbEntity
  8
0
100
AcDbLine
 10
158.843
 20
96.0
 30
0.0
 11
150.3759999999999
 21
96.0
 31
0.0
  0
LINE
  5
328
330
1E
100
AcDbEntity
  8
0
100
AcDbLine
 10
150.0
 20
136.0
 30
0.0
 11
150.0
 21
115.0
 31
0.0
  0
LINE
  5
329
330
1E
100
AcDbEntity
  8
0
100
AcDbLine
 10
150.0
 20
115.0
 30
0.0
 11
150.0
 21
136.0
 31
0.0
  0
LINE
  5
32A
330
1E
100
AcDbEntity
  8
0
100
AcDbLine
 10
155.1999999999999
 20
113.5
 30
0.0
 11
151.8666999999999
 21
113.5
 31
0.0
  0
LINE
  5
32B
330
1E
100
AcDbEntity
  8
0
100
AcDbLine
 10
156.8
 20
113.0
 30
0.0
 11
153.8666999999999
 21
113.0
 31
0.0
  0
LINE
  5
32C
330
1E
100
AcDbEntity
  8
0
100
AcDbLine
 10
161.8667
 20
113.0
 30
0.0
 11
156.8
 21
113.0
 31
0.0
  0
LINE
  5
32D
330
1E
100
AcDbEntity
  8
0
100
AcDbLine
 10
160.4
 20
113.5
 30
0.0
 11
155.1999999999999
 21
113.5
 31
0.0
  0
LINE
  5
32E
330
1E
100
AcDbEntity
  8
0
100
AcDbLine
 10
151.8666999999999
 20
113.5
 30
0.0
 11
150.6667
 21
113.5
 31
0.0
  0
LINE
  5
32F
330
1E
100
AcDbEntity
  8
0
100
AcDbLine
 10
152.6666999999999
 20
113.0
 30
0.0
 11
150.6667
 21
113.5
 31
0.0
  0
LINE
  5
330
330
1E
100
AcDbEntity
  8
0
100
AcDbLine
 10
153.8666999999999
 20
113.0
 30
0.0
 11
152.6666999999999
 21
113.0
 31
0.0
  0
LINE
  5
331
330
1E
100
AcDbEntity
  8
0
100
AcDbLine
 10
150.6667
 20
113.5
 30
0.0
 11
150.0
 21
115.0
 31
0.0
  0
LINE
  5
332
330
1E
100
AcDbEntity
  8
0
100
AcDbLine
 10
160.0
 20
136.0
 30
0.0
 11
154.5333
 21
136.0
 31
0.0
  0
LINE
  5
333
330
1E
100
AcDbEntity
  8
0
100
AcDbLine
 10
151.2
 20
136.0
 30
0.0
 11
150.0
 21
136.0
 31
0.0
  0
LINE
  5
334
330
1E
100
AcDbEntity
  8
0
100
AcDbLine
 10
154.5333
 20
136.0
 30
0.0
 11
151.2
 21
136.0
 31
0.0
  0
ENDSEC
  0
SECTION
  2
OBJECTS
  0
DICTIONARY
  5
C
330
0
100
AcDbDictionary
281
     1
  3
ACAD_GROUP
350
D
  3
ACAD_LAYOUT
350
19
  3
ACAD_MLINESTYLE
350
16
  3
ACAD_PLOTSETTINGS
350
18
  3
ACAD_PLOTSTYLENAME
350
E
  3
AcDbVariableDictionary
350
336
  0
DICTIONARY
  5
D
102
{ACAD_REACTORS
330
C
102
}
330
C
100
AcDbDictionary
281
     1
  0
DICTIONARY
  5
19
102
{ACAD_REACTORS
330
C
102
}
330
C
100
AcDbDictionary
281
     1
  3
Layout1
350
1D
  3
Model
350
21
  0
DICTIONARY
  5
16
102
{ACAD_REACTORS
330
C
102
}
330
C
100
AcDbDictionary
281
     1
  3
Standard
350
17
  0
DICTIONARY
  5
18
102
{ACAD_REACTORS
330
C
102
}
330
C
100
AcDbDictionary
281
     1
  0
ACDBDICTIONARYWDFLT
  5
E
102
{ACAD_REACTORS
330
C
102
}
330
C
100
AcDbDictionary
281
     1
  3
Normal
350
F
100
AcDbDictionaryWithDefault
340
F
  0
DICTIONARY
  5
336
102
{ACAD_REACTORS
330
C
102
}
330
C
100
AcDbDictionary
281
     1
  3
DIMASSOC
350
337
  0
LAYOUT
  5
1D
102
{ACAD_REACTORS
330
19
102
}
330
19
100
AcDbPlotSettings
  1

  2
C:\Programme\AutoCAD LT 2002 Deu\plotters\DWF ePlot (optimized for plotting).pc3
  4

  6

 40
0.0
 41
0.0
 42
0.0
 43
0.0
 44
0.0
 45
0.0
 46
0.0
 47
0.0
 48
0.0
 49
0.0
140
0.0
141
0.0
142
1.0
143
1.0
 70
   688
 72
     0
 73
     0
 74
     5
  7

 75
    16
147
1.0
148
0.0
149
0.0
100
AcDbLayout
  1
Layout1
 70
     1
 71
     1
 10
0.0
 20
0.0
 11
12.0
 21
9.0
 12
0.0
 22
0.0
 32
0.0
 14
1.000000000000000E+20
 24
1.000000000000000E+20
 34
1.000000000000000E+20
 15
-1.000000000000000E+20
 25
-1.000000000000000E+20
 35
-1.000000000000000E+20
146
0.0
 13
0.0
 23
0.0
 33
0.0
 16
1.0
 26
0.0
 36
0.0
 17
0.0
 27
1.0
 37
0.0
 76
     0
330
1A
  0
LAYOUT
  5
21
102
{ACAD_REACTORS
330
19
102
}
330
19
100
AcDbPlotSettings
  1

  2
C:\Programme\AutoCAD LT 2002 Deu\plotters\DWF ePlot (optimized for plotting).pc3
  4

  6

 40
0.0
 41
0.0
 42
0.0
 43
0.0
 44
0.0
 45
0.0
 46
0.0
 47
0.0
 48
0.0
 49
0.0
140
0.0
141
0.0
142
1.0
143
1.0
 70
  1712
 72
     0
 73
     0
 74
     0
  7

 75
     0
147
1.0
148
0.0
149
0.0
100
AcDbLayout
  1
Model
 70
     1
 71
     0
 10
0.0
 20
0.0
 11
12.0
 21
9.0
 12
0.0
 22
0.0
 32
0.0
 14
0.0
 24
0.0
 34
0.0
 15
0.0
 25
0.0
 35
0.0
146
0.0
 13
0.0
 23
0.0
 33
0.0
 16
1.0
 26
0.0
 36
0.0
 17
0.0
 27
1.0
 37
0.0
 76
     0
330
1E
  0
MLINESTYLE
  5
17
102
{ACAD_REACTORS
330
16
102
}
330
16
100
AcDbMlineStyle
  2
STANDARD
 70
     0
  3

 62
   256
 51
90.0
 52
90.0
 71
     2
 49
0.5
 62
   256
  6
BYLAYER
 49
-0.5
 62
   256
  6
BYLAYER
  0
ACDBPLACEHOLDER
  5
F
102
{ACAD_REACTORS
330
E
102
}
330
E
  0
DICTIONARYVAR
  5
337
102
{ACAD_REACTORS
330
336
102
}
330
336
100
DictionaryVariables
280
     0
  1
1
  0
ENDSEC
  0
EOF
