999
Erzeugt mit innoplus bad 
0
SECTION
2
HEADER
9
$ACADVER
1
AC1009
9
$DWGCODEPAGE
3
ISO8859-1
0
ENDSEC
0
SECTION
2
TABLES
0
TABLE
2
LAYER
70
1
0
LAYER
2
0
70
0
62
7
6
CONTINUOUS
0
ENDTAB
0
ENDSEC
0
SECTION
2
ENTITIES
0
LINE
8
0
6
CONTINUOUS
10
0.295520
20
16.437565
30
0.0
11
-6.036000
21
15.872495
31
0.0
0
LINE
8
0
6
CONTINUOUS
10
-31.894676
20
-21.677085
30
0.0
11
-31.862280
21
-22.039505
31
0.0
0
LINE
8
0
6
CONTINUOUS
10
-12.683100
20
-45.858145
30
0.0
11
-6.616710
21
-47.759315
31
0.0
0
LINE
8
0
6
CONTINUOUS
10
30.072910
20
-3.861245
30
0.0
11
27.127880
21
1.774645
31
0.0
0
LINE
8
0
6
CONTINUOUS
10
6.035890
20
-47.875295
30
0.0
11
12.136240
21
-46.084905
31
0.0
0
LINE
8
0
6
CONTINUOUS
10
-31.862280
20
-22.039505
30
0.0
11
-30.072870
21
-28.141785
31
0.0
0
LINE
8
0
6
CONTINUOUS
10
-26.799140
20
2.266855
30
0.0
11
-29.846610
21
-3.314095
31
0.0
0
LINE
8
0
6
CONTINUOUS
10
-12.136450
20
14.081985
30
0.0
11
-17.770470
21
11.135155
31
0.0
0
LINE
8
0
6
CONTINUOUS
10
27.127880
20
1.774645
30
0.0
11
23.139330
21
6.727375
31
0.0
0
LINE
8
0
6
CONTINUOUS
10
31.747260
20
-22.620175
30
0.0
11
32.428330
21
-16.297285
31
0.0
0
LINE
8
0
6
CONTINUOUS
10
22.721000
20
-39.149215
30
0.0
11
26.798780
21
-34.269815
31
0.0
0
LINE
8
0
6
CONTINUOUS
10
32.428330
20
-16.297285
30
0.0
11
31.862590
21
-9.963485
31
0.0
0
LINE
8
0
6
CONTINUOUS
10
17.770760
20
-43.138145
30
0.0
11
22.721000
21
-39.149215
31
0.0
0
LINE
8
0
6
CONTINUOUS
10
-30.072870
20
-28.141785
30
0.0
11
-27.128000
21
-33.777445
31
0.0
0
LINE
8
0
6
CONTINUOUS
10
18.262660
20
10.806165
30
0.0
11
12.683310
21
13.854985
31
0.0
0
LINE
8
0
6
CONTINUOUS
10
-29.846610
20
-3.314095
30
0.0
11
-31.747370
21
-9.382645
31
0.0
0
LINE
8
0
6
CONTINUOUS
10
-23.139680
20
-38.730035
30
0.0
11
-18.262770
21
-42.808965
31
0.0
0
LINE
8
0
6
CONTINUOUS
10
12.683310
20
13.854985
30
0.0
11
6.616590
21
15.756505
31
0.0
0
LINE
8
0
6
CONTINUOUS
10
-17.770470
20
11.135155
30
0.0
11
-22.721210
21
7.145825
31
0.0
0
LINE
8
0
6
CONTINUOUS
10
-0.295460
20
-48.440825
30
0.0
11
6.035890
21
-47.875295
31
0.0
0
LINE
8
0
6
CONTINUOUS
10
23.139330
20
6.727375
30
0.0
11
18.262660
21
10.806165
31
0.0
0
LINE
8
0
6
CONTINUOUS
10
6.616590
20
15.756505
30
0.0
11
0.295520
21
16.437565
31
0.0
0
LINE
8
0
6
CONTINUOUS
10
26.798780
20
-34.269815
30
0.0
11
29.846470
21
-28.688745
31
0.0
0
LINE
8
0
6
CONTINUOUS
10
12.136240
20
-46.084905
30
0.0
11
17.770760
21
-43.138145
31
0.0
0
LINE
8
0
6
CONTINUOUS
10
-27.128000
20
-33.777445
30
0.0
11
-23.139680
21
-38.730035
31
0.0
0
LINE
8
0
6
CONTINUOUS
10
31.862590
20
-9.963485
30
0.0
11
30.072910
21
-3.861245
31
0.0
0
LINE
8
0
6
CONTINUOUS
10
-31.747370
20
-9.382645
30
0.0
11
-31.785801
21
-9.739425
31
0.0
0
LINE
8
0
6
CONTINUOUS
10
-22.721210
20
7.145825
30
0.0
11
-26.799140
21
2.266855
31
0.0
0
LINE
8
0
6
CONTINUOUS
10
-6.616710
20
-47.759315
30
0.0
11
-0.295460
21
-48.440825
31
0.0
0
LINE
8
0
6
CONTINUOUS
10
-6.036000
20
15.872495
30
0.0
11
-12.136450
21
14.081985
31
0.0
0
LINE
8
0
6
CONTINUOUS
10
29.846470
20
-28.688745
30
0.0
11
31.747260
21
-22.620175
31
0.0
0
LINE
8
0
6
CONTINUOUS
10
-18.262770
20
-42.808965
30
0.0
11
-12.683100
21
-45.858145
31
0.0
0
LINE
8
0
6
CONTINUOUS
10
-12.567180
20
-45.585235
30
0.0
11
-18.095850
21
-42.563935
31
0.0
0
LINE
8
0
6
CONTINUOUS
10
31.457080
20
-22.559675
30
0.0
11
29.573660
21
-28.572785
31
0.0
0
LINE
8
0
6
CONTINUOUS
10
-12.025520
20
13.807015
30
0.0
11
-5.980840
21
15.581155
31
0.0
0
LINE
8
0
6
CONTINUOUS
10
-0.292750
20
-48.144325
30
0.0
11
-6.556230
21
-47.469035
31
0.0
0
LINE
8
0
6
CONTINUOUS
10
-26.554190
20
2.099875
30
0.0
11
-22.513530
21
6.934255
31
0.0
0
LINE
8
0
6
CONTINUOUS
10
-32.132040
20
-15.708255
30
0.0
11
-31.457190
21
-9.443145
31
0.0
0
LINE
8
0
6
CONTINUOUS
10
29.798020
20
-3.972205
30
0.0
11
31.571350
21
-10.018685
31
0.0
0
LINE
8
0
6
CONTINUOUS
10
-22.928180
20
-38.522285
30
0.0
11
-26.880040
21
-33.614975
31
0.0
0
LINE
8
0
6
CONTINUOUS
10
17.608330
20
-42.890115
30
0.0
11
12.025320
21
-45.809925
31
0.0
0
LINE
8
0
6
CONTINUOUS
10
29.573660
20
-28.572785
30
0.0
11
26.553830
21
-34.102845
31
0.0
0
LINE
8
0
6
CONTINUOUS
10
0.292810
20
16.141055
30
0.0
11
6.556110
21
15.466225
31
0.0
0
LINE
8
0
6
CONTINUOUS
10
18.095740
20
10.561135
30
0.0
11
22.927830
21
6.519625
31
0.0
0
LINE
8
0
6
CONTINUOUS
10
5.980710
20
-47.583945
30
0.0
11
-0.292750
21
-48.144325
31
0.0
0
LINE
8
0
6
CONTINUOUS
10
-22.513530
20
6.934255
30
0.0
11
-17.608040
21
10.887115
31
0.0
0
LINE
8
0
6
CONTINUOUS
10
6.556110
20
15.466225
30
0.0
11
12.567390
21
13.582085
31
0.0
0
LINE
8
0
6
CONTINUOUS
10
-18.095850
20
-42.563935
30
0.0
11
-22.928180
21
-38.522285
31
0.0
0
LINE
8
0
6
CONTINUOUS
10
-31.457190
20
-9.443145
30
0.0
11
-29.573800
21
-3.430045
31
0.0
0
LINE
8
0
6
CONTINUOUS
10
12.567390
20
13.582085
30
0.0
11
18.095740
21
10.561135
31
0.0
0
LINE
8
0
6
CONTINUOUS
10
-26.880040
20
-33.614975
30
0.0
11
-29.797990
21
-28.030845
31
0.0
0
LINE
8
0
6
CONTINUOUS
10
22.513310
20
-38.937645
30
0.0
11
17.608330
21
-42.890115
31
0.0
0
LINE
8
0
6
CONTINUOUS
10
31.571350
20
-10.018685
30
0.0
11
32.131920
21
-16.294575
31
0.0
0
LINE
8
0
6
CONTINUOUS
10
26.553830
20
-34.102845
30
0.0
11
22.513310
21
-38.937645
31
0.0
0
LINE
8
0
6
CONTINUOUS
10
32.131920
20
-16.294575
30
0.0
11
31.457080
21
-22.559675
31
0.0
0
LINE
8
0
6
CONTINUOUS
10
22.927830
20
6.519625
30
0.0
11
26.879920
21
1.612165
31
0.0
0
LINE
8
0
6
CONTINUOUS
10
-17.608040
20
10.887115
30
0.0
11
-12.025520
21
13.807015
31
0.0
0
LINE
8
0
6
CONTINUOUS
10
-29.573800
20
-3.430045
30
0.0
11
-26.554190
21
2.099875
31
0.0
0
LINE
8
0
6
CONTINUOUS
10
-29.797990
20
-28.030845
30
0.0
11
-31.571040
21
-21.984305
31
0.0
0
LINE
8
0
6
CONTINUOUS
10
12.025320
20
-45.809925
30
0.0
11
5.980710
21
-47.583945
31
0.0
0
LINE
8
0
6
CONTINUOUS
10
26.879920
20
1.612165
30
0.0
11
29.798020
21
-3.972205
31
0.0
0
LINE
8
0
6
CONTINUOUS
10
-6.556230
20
-47.469035
30
0.0
11
-12.567180
21
-45.585235
31
0.0
0
LINE
8
0
6
CONTINUOUS
10
-31.571040
20
-21.984305
30
0.0
11
-32.132040
21
-15.708255
31
0.0
0
LINE
8
0
6
CONTINUOUS
10
-5.980840
20
15.581155
30
0.0
11
0.292810
21
16.141055
31
0.0
0
LINE
8
0
6
CONTINUOUS
10
-33.710170
20
-21.677085
30
0.0
11
-31.894676
21
-21.677085
31
0.0
0
LINE
8
0
6
CONTINUOUS
10
-31.785801
20
-9.739425
30
0.0
11
-33.710170
21
-9.739425
31
0.0
0
LINE
8
0
6
CONTINUOUS
10
-34.301040
20
-20.590375
30
0.0
11
-34.301040
21
-21.412935
31
0.0
0
LINE
8
0
6
CONTINUOUS
10
-34.301040
20
-13.949915
30
0.0
11
-34.301040
21
-15.798825
31
0.0
0
LINE
8
0
6
CONTINUOUS
10
-34.301040
20
-9.739425
30
0.0
11
-34.301040
21
-10.059545
31
0.0
0
LINE
8
0
6
CONTINUOUS
10
-33.710170
20
-9.739425
30
0.0
11
-34.301040
21
-9.739425
31
0.0
0
LINE
8
0
6
CONTINUOUS
10
-34.301040
20
-19.289915
30
0.0
11
-34.301040
21
-20.590375
31
0.0
0
LINE
8
0
6
CONTINUOUS
10
-34.301040
20
-12.273135
30
0.0
11
-34.301040
21
-13.949915
31
0.0
0
LINE
8
0
6
CONTINUOUS
10
-34.301040
20
-17.638855
30
0.0
11
-34.301040
21
-19.289915
31
0.0
0
LINE
8
0
6
CONTINUOUS
10
-34.301040
20
-15.798825
30
0.0
11
-34.301040
21
-17.638855
31
0.0
0
LINE
8
0
6
CONTINUOUS
10
-34.301040
20
-10.059545
30
0.0
11
-34.301040
21
-10.932605
31
0.0
0
LINE
8
0
6
CONTINUOUS
10
-34.301040
20
-10.932605
30
0.0
11
-34.301040
21
-12.273135
31
0.0
0
LINE
8
0
6
CONTINUOUS
10
-34.301040
20
-21.677075
30
0.0
11
-33.710170
21
-21.677085
31
0.0
0
LINE
8
0
6
CONTINUOUS
10
-34.301040
20
-21.412935
30
0.0
11
-34.301040
21
-21.677075
31
0.0
0
LINE
8
0
6
CONTINUOUS
10
56.183140
20
-13.453335
30
0.0
11
55.824770
21
-13.464755
31
0.0
0
LINE
8
0
6
CONTINUOUS
10
55.824790
20
-18.538495
30
0.0
11
56.183180
21
-18.549455
31
0.0
0
LINE
8
0
6
CONTINUOUS
10
56.183690
20
-18.181305
30
0.0
11
56.183070
21
-13.821495
31
0.0
0
LINE
8
0
6
CONTINUOUS
10
24.109950
20
5.788235
30
0.0
11
21.757220
21
8.140005
31
0.0
0
LINE
8
0
6
CONTINUOUS
10
-23.368450
20
6.582175
30
0.0
11
-25.554670
21
4.073985
31
0.0
0
LINE
8
0
6
CONTINUOUS
10
-20.937760
20
8.853865
30
0.0
11
-23.368450
21
6.582175
31
0.0
0
LINE
8
0
6
CONTINUOUS
10
-18.288030
20
-42.867835
30
0.0
11
-15.446480
21
-44.598105
31
0.0
0
LINE
8
0
6
CONTINUOUS
10
-20.937880
20
-40.856445
30
0.0
11
-18.288030
21
-42.867835
31
0.0
0
LINE
8
0
6
CONTINUOUS
10
-23.369060
20
-38.585105
30
0.0
11
-20.937880
21
-40.856445
31
0.0
0
LINE
8
0
6
CONTINUOUS
10
54.269290
20
-13.488485
30
0.0
11
53.301310
21
-13.493935
31
0.0
0
LINE
8
0
6
CONTINUOUS
10
55.075990
20
-13.481295
30
0.0
11
54.269290
21
-13.488485
31
0.0
0
LINE
8
0
6
CONTINUOUS
10
53.301310
20
-13.493935
30
0.0
11
52.219500
21
-13.497405
31
0.0
0
LINE
8
0
6
CONTINUOUS
10
26.211040
20
3.208015
30
0.0
11
24.109950
21
5.788235
31
0.0
0
LINE
8
0
6
CONTINUOUS
10
33.796320
20
-12.186815
30
0.0
11
32.846730
21
-11.234915
31
0.0
0
LINE
8
0
6
CONTINUOUS
10
36.202820
20
-13.347905
30
0.0
11
34.934100
21
-12.903165
31
0.0
0
LINE
8
0
6
CONTINUOUS
10
31.690950
20
-8.825115
30
0.0
11
30.791510
21
-5.621805
31
0.0
0
LINE
8
0
6
CONTINUOUS
10
52.127370
20
-18.505215
30
0.0
11
53.214190
21
-18.508485
31
0.0
0
LINE
8
0
6
CONTINUOUS
10
53.214190
20
-18.508485
30
0.0
11
54.191840
21
-18.513805
31
0.0
0
LINE
8
0
6
CONTINUOUS
10
34.934140
20
-19.099555
30
0.0
11
36.202860
21
-18.654835
31
0.0
0
LINE
8
0
6
CONTINUOUS
10
32.133010
20
-21.907485
30
0.0
11
32.846700
21
-20.767835
31
0.0
0
LINE
8
0
6
CONTINUOUS
10
55.014100
20
-18.520765
30
0.0
11
55.638500
21
-18.529255
31
0.0
0
LINE
8
0
6
CONTINUOUS
10
37.538730
20
-18.504055
30
0.0
11
50.984720
21
-18.504085
31
0.0
0
LINE
8
0
6
CONTINUOUS
10
28.036660
20
-32.429445
30
0.0
11
29.569100
21
-29.476325
31
0.0
0
LINE
8
0
6
CONTINUOUS
10
26.211040
20
-35.211725
30
0.0
11
28.036660
21
-32.429445
31
0.0
0
LINE
8
0
6
CONTINUOUS
10
24.110000
20
-37.791315
30
0.0
11
26.211040
21
-35.211725
31
0.0
0
LINE
8
0
6
CONTINUOUS
10
16.393160
20
-44.065405
30
0.0
11
19.175110
21
-42.241795
31
0.0
0
LINE
8
0
6
CONTINUOUS
10
13.438530
20
13.592135
30
0.0
11
10.343770
21
14.810965
31
0.0
0
LINE
8
0
6
CONTINUOUS
10
16.393110
20
12.062015
30
0.0
11
13.438530
21
13.592135
31
0.0
0
LINE
8
0
6
CONTINUOUS
10
19.175170
20
10.239135
30
0.0
11
16.393110
21
12.062015
31
0.0
0
LINE
8
0
6
CONTINUOUS
10
7.140220
20
-47.711325
30
0.0
11
10.343360
21
-46.814085
31
0.0
0
LINE
8
0
6
CONTINUOUS
10
10.343360
20
-46.814085
30
0.0
11
13.438710
21
-45.595205
31
0.0
0
LINE
8
0
6
CONTINUOUS
10
-2.781700
20
-48.385625
30
0.0
11
0.543550
21
-48.501025
31
0.0
0
LINE
8
0
6
CONTINUOUS
10
30.791650
20
-26.381645
30
0.0
11
31.690700
21
-23.177805
31
0.0
0
LINE
8
0
6
CONTINUOUS
10
3.862010
20
-48.274905
30
0.0
11
7.140220
21
-47.711325
31
0.0
0
LINE
8
0
6
CONTINUOUS
10
0.543550
20
-48.501025
30
0.0
11
3.862010
21
-48.274905
31
0.0
0
LINE
8
0
6
CONTINUOUS
10
-27.472240
20
-33.358345
30
0.0
11
-25.554560
21
-36.077265
31
0.0
0
LINE
8
0
6
CONTINUOUS
10
-12.442620
20
-46.028155
30
0.0
11
-9.308200
21
-47.142935
31
0.0
0
LINE
8
0
6
CONTINUOUS
10
-15.446330
20
12.595485
30
0.0
11
-18.287910
21
10.865435
31
0.0
0
LINE
8
0
6
CONTINUOUS
10
-6.076930
20
15.929085
30
0.0
11
-9.308690
21
15.140145
31
0.0
0
LINE
8
0
6
CONTINUOUS
10
-2.781050
20
16.382755
30
0.0
11
-6.076930
21
15.929085
31
0.0
0
LINE
8
0
6
CONTINUOUS
10
-27.472540
20
1.355545
30
0.0
11
-29.102550
21
-1.545435
31
0.0
0
LINE
8
0
6
CONTINUOUS
10
50.984690
20
-13.498775
30
0.0
11
37.538780
21
-13.498735
31
0.0
0
LINE
8
0
6
CONTINUOUS
10
-29.102400
20
-30.457405
30
0.0
11
-27.472240
21
-33.358345
31
0.0
0
LINE
8
0
6
CONTINUOUS
10
-31.964505
20
-21.677085
30
0.0
11
-31.433760
21
-24.233675
31
0.0
0
LINE
8
0
6
CONTINUOUS
10
-31.433360
20
-7.769295
30
0.0
11
-31.842919
21
-9.739425
31
0.0
0
LINE
8
0
6
CONTINUOUS
10
21.757220
20
8.140005
30
0.0
11
19.175170
21
10.239135
31
0.0
0
LINE
8
0
6
CONTINUOUS
10
3.862010
20
16.271455
30
0.0
11
0.543620
21
16.497955
31
0.0
0
LINE
8
0
6
CONTINUOUS
10
0.543620
20
16.497955
30
0.0
11
-2.781050
21
16.382755
31
0.0
0
LINE
8
0
6
CONTINUOUS
10
7.140260
20
15.707485
30
0.0
11
3.862010
21
16.271455
31
0.0
0
LINE
8
0
6
CONTINUOUS
10
-9.308690
20
15.140145
30
0.0
11
-12.442830
21
14.025025
31
0.0
0
LINE
8
0
6
CONTINUOUS
10
10.343770
20
14.810965
30
0.0
11
7.140260
21
15.707485
31
0.0
0
LINE
8
0
6
CONTINUOUS
10
-25.554670
20
4.073985
30
0.0
11
-27.472540
21
1.355545
31
0.0
0
LINE
8
0
6
CONTINUOUS
10
-29.102550
20
-1.545435
30
0.0
11
-30.427890
21
-4.597585
31
0.0
0
LINE
8
0
6
CONTINUOUS
10
-18.287910
20
10.865435
30
0.0
11
-20.937760
21
8.853865
31
0.0
0
LINE
8
0
6
CONTINUOUS
10
-12.442830
20
14.025025
30
0.0
11
-15.446330
21
12.595485
31
0.0
0
LINE
8
0
6
CONTINUOUS
10
-15.446480
20
-44.598105
30
0.0
11
-12.442620
21
-46.028155
31
0.0
0
LINE
8
0
6
CONTINUOUS
10
-30.427430
20
-27.405185
30
0.0
11
-29.102400
21
-30.457405
31
0.0
0
LINE
8
0
6
CONTINUOUS
10
-25.554560
20
-36.077265
30
0.0
11
-23.369060
21
-38.585105
31
0.0
0
LINE
8
0
6
CONTINUOUS
10
-30.427890
20
-4.597585
30
0.0
11
-31.433360
21
-7.769295
31
0.0
0
LINE
8
0
6
CONTINUOUS
10
-31.433760
20
-24.233675
30
0.0
11
-30.427430
21
-27.405185
31
0.0
0
LINE
8
0
6
CONTINUOUS
10
55.680820
20
-13.472735
30
0.0
11
55.075990
21
-13.481295
31
0.0
0
LINE
8
0
6
CONTINUOUS
10
52.219500
20
-13.497405
30
0.0
11
50.984690
21
-13.498775
31
0.0
0
LINE
8
0
6
CONTINUOUS
10
56.079480
20
-13.462335
30
0.0
11
55.680820
21
-13.472735
31
0.0
0
LINE
8
0
6
CONTINUOUS
10
28.037200
20
0.426735
30
0.0
11
26.211040
21
3.208015
31
0.0
0
LINE
8
0
6
CONTINUOUS
10
30.791510
20
-5.621805
30
0.0
11
29.569440
21
-2.526455
31
0.0
0
LINE
8
0
6
CONTINUOUS
10
29.569440
20
-2.526455
30
0.0
11
28.037200
21
0.426735
31
0.0
0
LINE
8
0
6
CONTINUOUS
10
32.133010
20
-10.095265
30
0.0
11
31.690950
21
-8.825115
31
0.0
0
LINE
8
0
6
CONTINUOUS
10
37.538780
20
-13.498735
30
0.0
11
36.202820
21
-13.347905
31
0.0
0
LINE
8
0
6
CONTINUOUS
10
34.934100
20
-12.903165
30
0.0
11
33.796320
21
-12.186815
31
0.0
0
LINE
8
0
6
CONTINUOUS
10
32.846730
20
-11.234915
30
0.0
11
32.133010
21
-10.095265
31
0.0
0
LINE
8
0
6
CONTINUOUS
10
36.202860
20
-18.654835
30
0.0
11
37.538730
21
-18.504055
31
0.0
0
LINE
8
0
6
CONTINUOUS
10
33.796390
20
-19.815875
30
0.0
11
34.934140
21
-19.099555
31
0.0
0
LINE
8
0
6
CONTINUOUS
10
32.846700
20
-20.767835
30
0.0
11
33.796390
21
-19.815875
31
0.0
0
LINE
8
0
6
CONTINUOUS
10
54.191840
20
-18.513805
30
0.0
11
55.014100
21
-18.520765
31
0.0
0
LINE
8
0
6
CONTINUOUS
10
50.984720
20
-18.504085
30
0.0
11
52.127370
21
-18.505215
31
0.0
0
LINE
8
0
6
CONTINUOUS
10
31.690700
20
-23.177805
30
0.0
11
32.133010
21
-21.907485
31
0.0
0
LINE
8
0
6
CONTINUOUS
10
55.638500
20
-18.529255
30
0.0
11
56.067380
21
-18.539985
31
0.0
0
LINE
8
0
6
CONTINUOUS
10
-6.076870
20
-47.931405
30
0.0
11
-2.781700
21
-48.385625
31
0.0
0
LINE
8
0
6
CONTINUOUS
10
-9.308200
20
-47.142935
30
0.0
11
-6.076870
21
-47.931405
31
0.0
0
LINE
8
0
6
CONTINUOUS
10
29.569100
20
-29.476325
30
0.0
11
30.791650
21
-26.381645
31
0.0
0
LINE
8
0
6
CONTINUOUS
10
19.175110
20
-42.241795
30
0.0
11
21.756940
21
-40.142885
31
0.0
0
LINE
8
0
6
CONTINUOUS
10
13.438710
20
-45.595205
30
0.0
11
16.393160
21
-44.065405
31
0.0
0
LINE
8
0
6
CONTINUOUS
10
21.756940
20
-40.142885
30
0.0
11
24.110000
21
-37.791315
31
0.0
0
LINE
8
0
6
CONTINUOUS
10
56.183140
20
-13.453335
30
0.0
11
56.079480
21
-13.462335
31
0.0
0
LINE
8
0
6
CONTINUOUS
10
56.183070
20
-13.821495
30
0.0
11
56.183140
21
-13.453335
31
0.0
0
LINE
8
0
6
CONTINUOUS
10
56.183180
20
-18.549455
30
0.0
11
56.183690
21
-18.181305
31
0.0
0
LINE
8
0
6
CONTINUOUS
10
56.067380
20
-18.539985
30
0.0
11
56.183180
21
-18.549455
31
0.0
0
LINE
8
0
6
CONTINUOUS
10
59.106640
20
-107.212005
30
0.0
11
59.976740
21
-101.716645
31
0.0
0
LINE
8
0
6
CONTINUOUS
10
56.581560
20
-112.169445
30
0.0
11
59.106640
21
-107.212005
31
0.0
0
LINE
8
0
6
CONTINUOUS
10
52.648640
20
-116.103695
30
0.0
11
56.581560
21
-112.169445
31
0.0
0
LINE
8
0
6
CONTINUOUS
10
47.692880
20
-118.629635
30
0.0
11
52.648640
21
-116.103695
31
0.0
0
LINE
8
0
6
CONTINUOUS
10
42.199380
20
-119.499995
30
0.0
11
47.692880
21
-118.629635
31
0.0
0
LINE
8
0
6
CONTINUOUS
10
-47.692960
20
-118.629635
30
0.0
11
-42.199450
21
-119.499995
31
0.0
0
LINE
8
0
6
CONTINUOUS
10
-52.648720
20
-116.103695
30
0.0
11
-47.692960
21
-118.629635
31
0.0
0
LINE
8
0
6
CONTINUOUS
10
-56.581640
20
-112.169445
30
0.0
11
-52.648720
21
-116.103695
31
0.0
0
LINE
8
0
6
CONTINUOUS
10
-59.106730
20
-107.212005
30
0.0
11
-56.581640
21
-112.169445
31
0.0
0
LINE
8
0
6
CONTINUOUS
10
-59.976820
20
-101.716645
30
0.0
11
-59.106730
21
-107.212005
31
0.0
0
LINE
8
0
6
CONTINUOUS
10
-42.199450
20
-119.499995
30
0.0
11
42.199380
21
-119.499995
31
0.0
0
LINE
8
0
6
CONTINUOUS
10
59.976740
20
-101.716645
30
0.0
11
59.976740
21
43.089875
31
0.0
0
LINE
8
0
6
CONTINUOUS
10
-59.976820
20
43.995575
30
0.0
11
-59.976820
21
43.089875
31
0.0
0
LINE
8
0
6
CONTINUOUS
10
-58.489830
20
43.995575
30
0.0
11
-59.976820
21
43.995575
31
0.0
0
LINE
8
0
6
CONTINUOUS
10
58.489750
20
43.995575
30
0.0
11
-58.489830
21
43.995575
31
0.0
0
LINE
8
0
6
CONTINUOUS
10
-59.976820
20
43.089875
30
0.0
11
-59.976820
21
-101.716645
31
0.0
0
LINE
8
0
6
CONTINUOUS
10
59.976740
20
43.995575
30
0.0
11
58.489750
21
43.995575
31
0.0
0
LINE
8
0
6
CONTINUOUS
10
59.976740
20
43.089875
30
0.0
11
59.976740
21
43.995575
31
0.0
0
LINE
8
0
6
CONTINUOUS
10
-6.213220
20
107.992065
30
0.0
11
-7.153130
21
106.946275
31
0.0
0
LINE
8
0
6
CONTINUOUS
10
8.474560
20
98.467325
30
0.0
11
8.843820
21
99.823355
31
0.0
0
LINE
8
0
6
CONTINUOUS
10
-2.587830
20
110.092325
30
0.0
11
-3.901660
21
109.584715
31
0.0
0
LINE
8
0
6
CONTINUOUS
10
8.146770
20
105.313925
30
0.0
11
7.449710
21
106.534825
31
0.0
0
LINE
8
0
6
CONTINUOUS
10
-7.153130
20
106.946275
30
0.0
11
-7.917920
21
105.766995
31
0.0
0
LINE
8
0
6
CONTINUOUS
10
8.644590
20
103.999765
30
0.0
11
8.146770
21
105.313925
31
0.0
0
LINE
8
0
6
CONTINUOUS
10
-8.632510
20
98.948355
30
0.0
11
-8.128260
21
97.633985
31
0.0
0
LINE
8
0
6
CONTINUOUS
10
8.997240
20
101.220025
30
0.0
11
8.930200
21
102.623935
31
0.0
0
LINE
8
0
6
CONTINUOUS
10
-5.494230
20
94.376895
30
0.0
11
-4.315500
21
93.608165
31
0.0
0
LINE
8
0
6
CONTINUOUS
10
0.195570
20
110.468795
30
0.0
11
-1.211510
21
110.389315
31
0.0
0
LINE
8
0
6
CONTINUOUS
10
-8.489760
20
104.482975
30
0.0
11
-8.852050
21
103.125295
31
0.0
0
LINE
8
0
6
CONTINUOUS
10
7.897840
20
97.184865
30
0.0
11
8.474560
21
98.467325
31
0.0
0
LINE
8
0
6
CONTINUOUS
10
6.183340
20
94.964785
30
0.0
11
7.127140
21
96.007545
31
0.0
0
LINE
8
0
6
CONTINUOUS
10
-2.998630
20
93.020555
30
0.0
11
-1.636550
21
92.656955
31
0.0
0
LINE
8
0
6
CONTINUOUS
10
-0.235290
20
92.510035
30
0.0
11
1.171870
21
92.583625
31
0.0
0
LINE
8
0
6
CONTINUOUS
10
7.449710
20
106.534825
30
0.0
11
6.570530
21
107.631985
31
0.0
0
LINE
8
0
6
CONTINUOUS
10
7.127140
20
96.007545
30
0.0
11
7.897840
21
97.184865
31
0.0
0
LINE
8
0
6
CONTINUOUS
10
-7.917920
20
105.766995
30
0.0
11
-8.489760
21
104.482975
31
0.0
0
LINE
8
0
6
CONTINUOUS
10
-1.211510
20
110.389315
30
0.0
11
-2.587830
21
110.092325
31
0.0
0
LINE
8
0
6
CONTINUOUS
10
-7.424040
20
96.414775
30
0.0
11
-6.539500
21
95.319485
31
0.0
0
LINE
8
0
6
CONTINUOUS
10
-8.925420
20
100.323415
30
0.0
11
-8.632510
21
98.948355
31
0.0
0
LINE
8
0
6
CONTINUOUS
10
-8.128260
20
97.633985
30
0.0
11
-7.424040
21
96.414775
31
0.0
0
LINE
8
0
6
CONTINUOUS
10
1.171870
20
92.583625
30
0.0
11
2.549970
21
92.875525
31
0.0
0
LINE
8
0
6
CONTINUOUS
10
-3.901660
20
109.584715
30
0.0
11
-5.119600
21
108.879015
31
0.0
0
LINE
8
0
6
CONTINUOUS
10
8.843820
20
99.823355
30
0.0
11
8.997240
21
101.220025
31
0.0
0
LINE
8
0
6
CONTINUOUS
10
6.570530
20
107.631985
30
0.0
11
5.529120
21
108.578615
31
0.0
0
LINE
8
0
6
CONTINUOUS
10
-4.315500
20
93.608165
30
0.0
11
-2.998630
21
93.020555
31
0.0
0
LINE
8
0
6
CONTINUOUS
10
1.622250
20
110.324125
30
0.0
11
0.195570
21
110.468795
31
0.0
0
LINE
8
0
6
CONTINUOUS
10
5.087600
20
94.081445
30
0.0
11
6.183340
21
94.964785
31
0.0
0
LINE
8
0
6
CONTINUOUS
10
-8.852050
20
103.125295
30
0.0
11
-8.998530
21
101.727515
31
0.0
0
LINE
8
0
6
CONTINUOUS
10
-8.998530
20
101.727515
30
0.0
11
-8.925420
21
100.323415
31
0.0
0
LINE
8
0
6
CONTINUOUS
10
-6.539500
20
95.319485
30
0.0
11
-5.494230
21
94.376895
31
0.0
0
LINE
8
0
6
CONTINUOUS
10
8.930200
20
102.623935
30
0.0
11
8.644590
21
103.999765
31
0.0
0
LINE
8
0
6
CONTINUOUS
10
-1.636550
20
92.656955
30
0.0
11
-0.235290
21
92.510035
31
0.0
0
LINE
8
0
6
CONTINUOUS
10
4.314840
20
109.373045
30
0.0
11
3.006980
21
109.955725
31
0.0
0
LINE
8
0
6
CONTINUOUS
10
2.549970
20
92.875525
30
0.0
11
3.866210
21
93.378825
31
0.0
0
LINE
8
0
6
CONTINUOUS
10
3.866210
20
93.378825
30
0.0
11
5.087600
21
94.081445
31
0.0
0
LINE
8
0
6
CONTINUOUS
10
3.006980
20
109.955725
30
0.0
11
1.622250
21
110.324125
31
0.0
0
LINE
8
0
6
CONTINUOUS
10
5.529120
20
108.578615
30
0.0
11
4.314840
21
109.373045
31
0.0
0
LINE
8
0
6
CONTINUOUS
10
-5.119600
20
108.879015
30
0.0
11
-6.213220
21
107.992065
31
0.0
0
LINE
8
0
6
CONTINUOUS
10
-7.371180
20
105.467815
30
0.0
11
-6.659340
21
106.565925
31
0.0
0
LINE
8
0
6
CONTINUOUS
10
-6.872290
20
106.735105
30
0.0
11
-7.606930
21
105.601865
31
0.0
0
LINE
8
0
6
CONTINUOUS
10
0.182690
20
109.846965
30
0.0
11
1.510500
21
109.712185
31
0.0
0
LINE
8
0
6
CONTINUOUS
10
1.558840
20
109.982215
30
0.0
11
0.188630
21
110.121275
31
0.0
0
LINE
8
0
6
CONTINUOUS
10
-1.523900
20
93.260015
30
0.0
11
-2.791180
21
93.598735
31
0.0
0
LINE
8
0
6
CONTINUOUS
10
-8.307680
20
100.399805
30
0.0
11
-8.376530
21
101.706935
31
0.0
0
LINE
8
0
6
CONTINUOUS
10
-8.644570
20
101.720605
30
0.0
11
-8.573490
21
100.371625
31
0.0
0
LINE
8
0
6
CONTINUOUS
10
-5.783750
20
107.539825
30
0.0
11
-4.766760
21
108.365785
31
0.0
0
LINE
8
0
6
CONTINUOUS
10
-4.919330
20
108.592765
30
0.0
11
-5.968880
21
107.740365
31
0.0
0
LINE
8
0
6
CONTINUOUS
10
-2.409580
20
109.496315
30
0.0
11
-1.127270
21
109.773135
31
0.0
0
LINE
8
0
6
CONTINUOUS
10
-1.163310
20
110.045085
30
0.0
11
-2.486670
21
109.759445
31
0.0
0
LINE
8
0
6
CONTINUOUS
10
8.232760
20
99.934135
30
0.0
11
7.889030
21
98.671385
31
0.0
0
LINE
8
0
6
CONTINUOUS
10
8.141400
20
98.587905
30
0.0
11
8.496180
21
99.891055
31
0.0
0
LINE
8
0
6
CONTINUOUS
10
-0.219190
20
93.123005
30
0.0
11
-1.523900
21
93.260015
31
0.0
0
LINE
8
0
6
CONTINUOUS
10
6.935830
20
106.182985
30
0.0
11
7.584510
21
105.045985
31
0.0
0
LINE
8
0
6
CONTINUOUS
10
7.827120
20
105.166535
30
0.0
11
7.157670
21
106.339915
31
0.0
0
LINE
8
0
6
CONTINUOUS
10
2.374640
20
93.463725
30
0.0
11
1.091100
21
93.191505
31
0.0
0
LINE
8
0
6
CONTINUOUS
10
8.047150
20
103.822475
30
0.0
11
8.312970
21
102.541455
31
0.0
0
LINE
8
0
6
CONTINUOUS
10
8.578970
20
102.581855
30
0.0
11
8.304600
21
103.903855
31
0.0
0
LINE
8
0
6
CONTINUOUS
10
-2.791180
20
93.598735
30
0.0
11
-4.018270
21
94.146315
31
0.0
0
LINE
8
0
6
CONTINUOUS
10
-8.035480
20
99.119205
30
0.0
11
-8.307680
21
100.399805
31
0.0
0
LINE
8
0
6
CONTINUOUS
10
-8.573490
20
100.371625
30
0.0
11
-8.292530
21
99.050055
31
0.0
0
LINE
8
0
6
CONTINUOUS
10
-4.766760
20
108.365785
30
0.0
11
-3.632810
21
109.023375
31
0.0
0
LINE
8
0
6
CONTINUOUS
10
-3.749060
20
109.271395
30
0.0
11
-4.919330
21
108.592765
31
0.0
0
LINE
8
0
6
CONTINUOUS
10
-6.087720
20
95.740495
30
0.0
11
-6.911750
21
96.760175
31
0.0
0
LINE
8
0
6
CONTINUOUS
10
4.736810
20
94.587175
30
0.0
11
3.599880
21
93.932865
31
0.0
0
LINE
8
0
6
CONTINUOUS
10
8.375270
20
101.234395
30
0.0
11
8.232760
21
99.934135
31
0.0
0
LINE
8
0
6
CONTINUOUS
10
8.496180
20
99.891055
30
0.0
11
8.643300
21
101.232935
31
0.0
0
LINE
8
0
6
CONTINUOUS
10
7.352320
20
97.477575
30
0.0
11
6.635730
21
96.381235
31
0.0
0
LINE
8
0
6
CONTINUOUS
10
6.847960
20
96.224525
30
0.0
11
7.587490
21
97.355925
31
0.0
0
LINE
8
0
6
CONTINUOUS
10
3.599880
20
93.932865
30
0.0
11
2.374640
21
93.463725
31
0.0
0
LINE
8
0
6
CONTINUOUS
10
-4.018270
20
94.146315
30
0.0
11
-5.115380
21
94.862325
31
0.0
0
LINE
8
0
6
CONTINUOUS
10
-3.632810
20
109.023375
30
0.0
11
-2.409580
21
109.496315
31
0.0
0
LINE
8
0
6
CONTINUOUS
10
-2.486670
20
109.759445
30
0.0
11
-3.749060
21
109.271395
31
0.0
0
LINE
8
0
6
CONTINUOUS
10
5.756570
20
95.410095
30
0.0
11
4.736810
21
94.587175
31
0.0
0
LINE
8
0
6
CONTINUOUS
10
-8.240350
20
103.008235
30
0.0
11
-7.902550
21
104.272255
31
0.0
0
LINE
8
0
6
CONTINUOUS
10
-8.155330
20
104.368045
30
0.0
11
-8.503990
21
103.063565
31
0.0
0
LINE
8
0
6
CONTINUOUS
10
-7.902550
20
104.272255
30
0.0
11
-7.371180
21
105.467815
31
0.0
0
LINE
8
0
6
CONTINUOUS
10
-7.606930
20
105.601865
30
0.0
11
-8.155330
21
104.368045
31
0.0
0
LINE
8
0
6
CONTINUOUS
10
-6.659340
20
106.565925
30
0.0
11
-5.783750
21
107.539825
31
0.0
0
LINE
8
0
6
CONTINUOUS
10
-5.968880
20
107.740365
30
0.0
11
-6.872290
21
106.735105
31
0.0
0
LINE
8
0
6
CONTINUOUS
10
1.510500
20
109.712185
30
0.0
11
2.799730
21
109.368865
31
0.0
0
LINE
8
0
6
CONTINUOUS
10
2.889340
20
109.627945
30
0.0
11
1.558840
21
109.982215
31
0.0
0
LINE
8
0
6
CONTINUOUS
10
8.312970
20
102.541455
30
0.0
11
8.375270
21
101.234395
31
0.0
0
LINE
8
0
6
CONTINUOUS
10
8.643300
20
101.232935
30
0.0
11
8.578970
21
102.581855
31
0.0
0
LINE
8
0
6
CONTINUOUS
10
2.799730
20
109.368865
30
0.0
11
4.017910
21
108.826025
31
0.0
0
LINE
8
0
6
CONTINUOUS
10
4.146570
20
109.067725
30
0.0
11
2.889340
21
109.627945
31
0.0
0
LINE
8
0
6
CONTINUOUS
10
-6.911750
20
96.760175
30
0.0
11
-7.566260
21
97.895845
31
0.0
0
LINE
8
0
6
CONTINUOUS
10
-7.808270
20
97.787575
30
0.0
11
-7.132790
21
96.615595
31
0.0
0
LINE
8
0
6
CONTINUOUS
10
5.148790
20
108.086055
30
0.0
11
6.117280
21
107.204735
31
0.0
0
LINE
8
0
6
CONTINUOUS
10
6.312910
20
107.394355
30
0.0
11
5.313490
21
108.304185
31
0.0
0
LINE
8
0
6
CONTINUOUS
10
6.117280
20
107.204735
30
0.0
11
6.935830
21
106.182985
31
0.0
0
LINE
8
0
6
CONTINUOUS
10
7.157670
20
106.339915
30
0.0
11
6.312910
21
107.394355
31
0.0
0
LINE
8
0
6
CONTINUOUS
10
4.017910
20
108.826025
30
0.0
11
5.148790
21
108.086055
31
0.0
0
LINE
8
0
6
CONTINUOUS
10
5.313490
20
108.304185
30
0.0
11
4.146570
21
109.067725
31
0.0
0
LINE
8
0
6
CONTINUOUS
10
-7.566260
20
97.895845
30
0.0
11
-8.035480
21
99.119205
31
0.0
0
LINE
8
0
6
CONTINUOUS
10
-8.292530
20
99.050055
30
0.0
11
-7.808270
21
97.787575
31
0.0
0
LINE
8
0
6
CONTINUOUS
10
-8.376530
20
101.706935
30
0.0
11
-8.240350
21
103.008235
31
0.0
0
LINE
8
0
6
CONTINUOUS
10
-8.503990
20
103.063565
30
0.0
11
-8.644570
21
101.720605
31
0.0
0
LINE
8
0
6
CONTINUOUS
10
-1.127270
20
109.773135
30
0.0
11
0.182690
21
109.846965
31
0.0
0
LINE
8
0
6
CONTINUOUS
10
0.188630
20
110.121275
30
0.0
11
-1.163310
21
110.045085
31
0.0
0
LINE
8
0
6
CONTINUOUS
10
-5.115380
20
94.862325
30
0.0
11
-6.087720
21
95.740495
31
0.0
0
LINE
8
0
6
CONTINUOUS
10
1.091100
20
93.191505
30
0.0
11
-0.219190
21
93.123005
31
0.0
0
LINE
8
0
6
CONTINUOUS
10
6.635730
20
96.381235
30
0.0
11
5.756570
21
95.410095
31
0.0
0
LINE
8
0
6
CONTINUOUS
10
7.584510
20
105.045985
30
0.0
11
8.047150
21
103.822475
31
0.0
0
LINE
8
0
6
CONTINUOUS
10
8.304600
20
103.903855
30
0.0
11
7.827120
21
105.166535
31
0.0
0
LINE
8
0
6
CONTINUOUS
10
7.889030
20
98.671385
30
0.0
11
7.352320
21
97.477575
31
0.0
0
LINE
8
0
6
CONTINUOUS
10
7.587490
20
97.355925
30
0.0
11
8.141400
21
98.587905
31
0.0
0
LINE
8
0
6
CONTINUOUS
10
3.011820
20
93.856305
30
0.0
11
4.372090
21
94.539325
31
0.0
0
LINE
8
0
6
CONTINUOUS
10
0.033530
20
93.288755
30
0.0
11
1.549000
21
93.434695
31
0.0
0
LINE
8
0
6
CONTINUOUS
10
-1.483030
20
93.423195
30
0.0
11
0.033530
21
93.288755
31
0.0
0
LINE
8
0
6
CONTINUOUS
10
-7.924570
20
99.244355
30
0.0
11
-7.369200
21
97.828405
31
0.0
0
LINE
8
0
6
CONTINUOUS
10
-4.314380
20
94.506725
30
0.0
11
-2.948920
21
93.834005
31
0.0
0
LINE
8
0
6
CONTINUOUS
10
-2.948920
20
93.834005
30
0.0
11
-1.483030
21
93.423195
31
0.0
0
LINE
8
0
6
CONTINUOUS
10
-5.532810
20
95.418575
30
0.0
11
-4.314380
21
94.506725
31
0.0
0
LINE
8
0
6
CONTINUOUS
10
-8.209880
20
100.738115
30
0.0
11
-7.924570
21
99.244355
31
0.0
0
LINE
8
0
6
CONTINUOUS
10
-6.600320
20
106.470655
30
0.0
11
-7.397020
21
105.174805
31
0.0
0
LINE
8
0
6
CONTINUOUS
10
-5.578870
20
107.598345
30
0.0
11
-6.600320
21
106.470655
31
0.0
0
LINE
8
0
6
CONTINUOUS
10
-6.562810
20
96.538505
30
0.0
11
-5.532810
21
95.418575
31
0.0
0
LINE
8
0
6
CONTINUOUS
10
-4.367410
20
108.519345
30
0.0
11
-5.578870
21
107.598345
31
0.0
0
LINE
8
0
6
CONTINUOUS
10
-7.369200
20
97.828405
30
0.0
11
-6.562810
21
96.538505
31
0.0
0
LINE
8
0
6
CONTINUOUS
10
-7.397020
20
105.174805
30
0.0
11
-7.941590
21
103.754695
31
0.0
0
LINE
8
0
6
CONTINUOUS
10
-8.215620
20
102.258825
30
0.0
11
-8.209880
21
100.738115
31
0.0
0
LINE
8
0
6
CONTINUOUS
10
1.487700
20
109.635365
30
0.0
11
-0.028840
21
109.769965
31
0.0
0
LINE
8
0
6
CONTINUOUS
10
7.928020
20
103.814525
30
0.0
11
7.374280
21
105.230215
31
0.0
0
LINE
8
0
6
CONTINUOUS
10
2.953620
20
109.224665
30
0.0
11
1.487700
21
109.635365
31
0.0
0
LINE
8
0
6
CONTINUOUS
10
4.319030
20
108.551875
30
0.0
11
2.953620
21
109.224665
31
0.0
0
LINE
8
0
6
CONTINUOUS
10
8.218230
20
102.319965
30
0.0
11
7.928020
21
103.814525
31
0.0
0
LINE
8
0
6
CONTINUOUS
10
4.372090
20
94.539325
30
0.0
11
5.583600
21
95.460335
31
0.0
0
LINE
8
0
6
CONTINUOUS
10
1.549000
20
93.434695
30
0.0
11
3.011820
21
93.856305
31
0.0
0
LINE
8
0
6
CONTINUOUS
10
-7.941590
20
103.754695
30
0.0
11
-8.215620
21
102.258825
31
0.0
0
LINE
8
0
6
CONTINUOUS
10
-3.007070
20
109.202285
30
0.0
11
-1.544310
21
109.624025
31
0.0
0
LINE
8
0
6
CONTINUOUS
10
-4.367410
20
108.519345
30
0.0
11
-3.007070
21
109.202285
31
0.0
0
LINE
8
0
6
CONTINUOUS
10
-0.028840
20
109.769965
30
0.0
11
-1.544310
21
109.624025
31
0.0
0
LINE
8
0
6
CONTINUOUS
10
7.400560
20
97.884105
30
0.0
11
6.605210
21
96.587965
31
0.0
0
LINE
8
0
6
CONTINUOUS
10
5.537630
20
107.640185
30
0.0
11
4.319030
21
108.551875
31
0.0
0
LINE
8
0
6
CONTINUOUS
10
5.583600
20
95.460335
30
0.0
11
6.605210
21
96.587965
31
0.0
0
LINE
8
0
6
CONTINUOUS
10
8.209970
20
100.801555
30
0.0
11
7.952110
21
99.303055
31
0.0
0
LINE
8
0
6
CONTINUOUS
10
7.400560
20
97.884105
30
0.0
11
7.952110
21
99.303055
31
0.0
0
LINE
8
0
6
CONTINUOUS
10
7.374280
20
105.230215
30
0.0
11
6.567420
21
106.520235
31
0.0
0
LINE
8
0
6
CONTINUOUS
10
6.567420
20
106.520235
30
0.0
11
5.537630
21
107.640185
31
0.0
0
LINE
8
0
6
CONTINUOUS
10
2.882950
20
94.178365
30
0.0
11
4.184690
21
94.831995
31
0.0
0
LINE
8
0
6
CONTINUOUS
10
0.032830
20
93.635235
30
0.0
11
1.483080
21
93.774915
31
0.0
0
LINE
8
0
6
CONTINUOUS
10
7.587590
20
103.708035
30
0.0
11
7.057680
21
105.062815
31
0.0
0
LINE
8
0
6
CONTINUOUS
10
4.133910
20
108.241515
30
0.0
11
2.827250
21
108.885345
31
0.0
0
LINE
8
0
6
CONTINUOUS
10
7.865300
20
102.277785
30
0.0
11
7.587590
21
103.708035
31
0.0
0
LINE
8
0
6
CONTINUOUS
10
4.184690
20
94.831995
30
0.0
11
5.344050
21
95.713365
31
0.0
0
LINE
8
0
6
CONTINUOUS
10
1.483080
20
93.774915
30
0.0
11
2.882950
21
94.178365
31
0.0
0
LINE
8
0
6
CONTINUOUS
10
6.321700
20
96.792475
30
0.0
11
7.082820
21
98.032825
31
0.0
0
LINE
8
0
6
CONTINUOUS
10
5.300070
20
107.369065
30
0.0
11
4.133910
21
108.241515
31
0.0
0
LINE
8
0
6
CONTINUOUS
10
5.344050
20
95.713365
30
0.0
11
6.321700
21
96.792475
31
0.0
0
LINE
8
0
6
CONTINUOUS
10
7.610640
20
99.390705
30
0.0
11
7.857400
21
100.824735
31
0.0
0
LINE
8
0
6
CONTINUOUS
10
7.082820
20
98.032825
30
0.0
11
7.610640
21
99.390705
31
0.0
0
LINE
8
0
6
CONTINUOUS
10
7.057680
20
105.062815
30
0.0
11
6.285550
21
106.297305
31
0.0
0
LINE
8
0
6
CONTINUOUS
10
6.285550
20
106.297305
30
0.0
11
5.300070
21
107.369065
31
0.0
0
LINE
8
0
6
CONTINUOUS
10
8.209970
20
100.801555
30
0.0
11
8.218230
21
102.319965
31
0.0
0
LINE
8
0
6
CONTINUOUS
10
7.865300
20
102.277785
30
0.0
11
7.857400
21
100.824735
31
0.0
0
LINE
8
0
6
CONTINUOUS
10
-59.611390
20
44.500925
30
0.0
11
59.611390
21
44.500925
31
0.0
0
LINE
8
0
6
CONTINUOUS
10
57.236160
20
111.166295
30
0.0
11
54.417540
21
114.575195
31
0.0
0
LINE
8
0
6
CONTINUOUS
10
-59.996960
20
98.073705
30
0.0
11
-59.984760
21
93.627775
31
0.0
0
LINE
8
0
6
CONTINUOUS
10
-59.976730
20
84.502445
30
0.0
11
-59.976730
21
44.984355
31
0.0
0
LINE
8
0
6
CONTINUOUS
10
59.976740
20
44.500925
30
0.0
11
59.976740
21
44.984355
31
0.0
0
LINE
8
0
6
CONTINUOUS
10
59.611390
20
44.500925
30
0.0
11
59.976740
21
44.500925
31
0.0
0
LINE
8
0
6
CONTINUOUS
10
46.574800
20
118.930025
30
0.0
11
42.098050
21
119.499995
31
0.0
0
LINE
8
0
6
CONTINUOUS
10
50.765950
20
117.256805
30
0.0
11
46.574800
21
118.930025
31
0.0
0
LINE
8
0
6
CONTINUOUS
10
54.402410
20
114.589495
30
0.0
11
50.765950
21
117.256805
31
0.0
0
LINE
8
0
6
CONTINUOUS
10
57.254770
20
111.099125
30
0.0
11
54.402410
21
114.589495
31
0.0
0
LINE
8
0
6
CONTINUOUS
10
59.143840
20
107.007525
30
0.0
11
57.254770
21
111.099125
31
0.0
0
LINE
8
0
6
CONTINUOUS
10
59.924920
20
102.574825
30
0.0
11
59.143840
21
107.007525
31
0.0
0
LINE
8
0
6
CONTINUOUS
10
59.999990
20
98.058965
30
0.0
11
59.924920
21
102.574825
31
0.0
0
LINE
8
0
6
CONTINUOUS
10
-59.924910
20
102.574835
30
0.0
11
-59.999990
21
98.058965
31
0.0
0
LINE
8
0
6
CONTINUOUS
10
-59.143840
20
107.007535
30
0.0
11
-59.924910
21
102.574835
31
0.0
0
LINE
8
0
6
CONTINUOUS
10
-57.254760
20
111.099125
30
0.0
11
-59.143840
21
107.007535
31
0.0
0
LINE
8
0
6
CONTINUOUS
10
-54.402410
20
114.589505
30
0.0
11
-57.254760
21
111.099125
31
0.0
0
LINE
8
0
6
CONTINUOUS
10
-50.765950
20
117.256815
30
0.0
11
-54.402410
21
114.589505
31
0.0
0
LINE
8
0
6
CONTINUOUS
10
-46.574790
20
118.930025
30
0.0
11
-50.765950
21
117.256815
31
0.0
0
LINE
8
0
6
CONTINUOUS
10
-42.098040
20
119.499995
30
0.0
11
-46.574790
21
118.930025
31
0.0
0
LINE
8
0
6
CONTINUOUS
10
42.098050
20
119.499995
30
0.0
11
-42.098040
21
119.499995
31
0.0
0
LINE
8
0
6
CONTINUOUS
10
59.976740
20
89.020805
30
0.0
11
59.976740
21
93.539175
31
0.0
0
LINE
8
0
6
CONTINUOUS
10
59.976740
20
84.502445
30
0.0
11
59.976740
21
89.020805
31
0.0
0
LINE
8
0
6
CONTINUOUS
10
-59.976730
20
93.539175
30
0.0
11
-59.976730
21
89.020805
31
0.0
0
LINE
8
0
6
CONTINUOUS
10
-59.976730
20
89.020805
30
0.0
11
-59.976730
21
84.502445
31
0.0
0
LINE
8
0
6
CONTINUOUS
10
-59.999990
20
98.058965
30
0.0
11
-59.976730
21
93.539175
31
0.0
0
LINE
8
0
6
CONTINUOUS
10
59.976740
20
93.539175
30
0.0
11
59.999990
21
98.058965
31
0.0
0
LINE
8
0
6
CONTINUOUS
10
59.976740
20
44.984355
30
0.0
11
59.976740
21
84.502445
31
0.0
0
LINE
8
0
6
CONTINUOUS
10
-59.976730
20
44.500925
30
0.0
11
-59.611390
21
44.500925
31
0.0
0
LINE
8
0
6
CONTINUOUS
10
-59.976730
20
44.984355
30
0.0
11
-59.976730
21
44.500925
31
0.0
0
LINE
8
0
6
CONTINUOUS
10
-53.342150
20
43.995575
30
0.0
11
-53.342150
21
44.500925
31
0.0
0
LINE
8
0
6
CONTINUOUS
10
53.342076
20
44.500925
30
0.0
11
53.342076
21
43.995575
31
0.0
0
LINE
8
0
6
CONTINUOUS
10
53.983856
20
43.995575
30
0.0
11
53.983856
21
44.500925
31
0.0
0
LINE
8
0
6
CONTINUOUS
10
-53.983859
20
44.500925
30
0.0
11
-53.983859
21
43.995575
31
0.0
0
LINE
8
0
6
CONTINUOUS
10
-53.342150
20
44.500925
30
0.0
11
-53.342150
21
43.995575
31
0.0
0
LINE
8
0
6
CONTINUOUS
10
53.342076
20
43.995575
30
0.0
11
53.342076
21
44.500925
31
0.0
0
LINE
8
0
6
CONTINUOUS
10
55.824770
20
-13.464755
30
0.0
11
50.963170
21
-13.498795
31
0.0
0
LINE
8
0
6
CONTINUOUS
10
53.342065
20
-18.520906
30
0.0
11
55.824790
21
-18.538495
31
0.0
0
ENDSEC
0
EOF
