  0
SECTION
  2
HEADER
  9
$ACADVER
  1
AC1015
  9
$ACADMAINTVER
 70
     6
  9
$DWGCODEPAGE
  3
ANSI_1252
  9
$INSBASE
 10
0.0
 20
0.0
 30
0.0
  9
$EXTMIN
 10
0.20485
 20
-0.0975
 30
0.0
  9
$EXTMAX
 10
511.79515
 20
1542.0975
 30
0.0
  9
$LIMMIN
 10
0.0
 20
0.0
  9
$LIMMAX
 10
12.0
 20
9.0
  9
$ORTHOMODE
 70
     0
  9
$REGENMODE
 70
     1
  9
$FILLMODE
 70
     1
  9
$QTEXTMODE
 70
     0
  9
$MIRRTEXT
 70
     1
  9
$LTSCALE
 40
1.0
  9
$ATTMODE
 70
     1
  9
$TEXTSIZE
 40
0.2
  9
$TRACEWID
 40
0.05
  9
$TEXTSTYLE
  7
Standard
  9
$CLAYER
  8
0
  9
$CELTYPE
  6
ByBlock
  9
$CECOLOR
 62
   256
  9
$CELTSCALE
 40
1.0
  9
$DISPSILH
 70
     0
  9
$DIMSCALE
 40
1.0
  9
$DIMASZ
 40
0.18
  9
$DIMEXO
 40
0.0625
  9
$DIMDLI
 40
0.38
  9
$DIMRND
 40
0.0
  9
$DIMDLE
 40
0.0
  9
$DIMEXE
 40
0.18
  9
$DIMTP
 40
0.0
  9
$DIMTM
 40
0.0
  9
$DIMTXT
 40
0.18
  9
$DIMCEN
 40
0.09
  9
$DIMTSZ
 40
0.0
  9
$DIMTOL
 70
     0
  9
$DIMLIM
 70
     0
  9
$DIMTIH
 70
     1
  9
$DIMTOH
 70
     1
  9
$DIMSE1
 70
     0
  9
$DIMSE2
 70
     0
  9
$DIMTAD
 70
     0
  9
$DIMZIN
 70
     0
  9
$DIMBLK
  1

  9
$DIMASO
 70
     1
  9
$DIMSHO
 70
     1
  9
$DIMPOST
  1

  9
$DIMAPOST
  1

  9
$DIMALT
 70
     0
  9
$DIMALTD
 70
     2
  9
$DIMALTF
 40
25.4
  9
$DIMLFAC
 40
1.0
  9
$DIMTOFL
 70
     0
  9
$DIMTVP
 40
0.0
  9
$DIMTIX
 70
     0
  9
$DIMSOXD
 70
     0
  9
$DIMSAH
 70
     0
  9
$DIMBLK1
  1

  9
$DIMBLK2
  1

  9
$DIMSTYLE
  2
Standard
  9
$DIMCLRD
 70
     0
  9
$DIMCLRE
 70
     0
  9
$DIMCLRT
 70
     0
  9
$DIMTFAC
 40
1.0
  9
$DIMGAP
 40
0.09
  9
$DIMJUST
 70
     0
  9
$DIMSD1
 70
     0
  9
$DIMSD2
 70
     0
  9
$DIMTOLJ
 70
     1
  9
$DIMTZIN
 70
     0
  9
$DIMALTZ
 70
     0
  9
$DIMALTTZ
 70
     0
  9
$DIMUPT
 70
     0
  9
$DIMDEC
 70
     4
  9
$DIMTDEC
 70
     4
  9
$DIMALTU
 70
     2
  9
$DIMALTTD
 70
     2
  9
$DIMTXSTY
  7
Standard
  9
$DIMAUNIT
 70
     0
  9
$DIMADEC
 70
     0
  9
$DIMALTRND
 40
0.0
  9
$DIMAZIN
 70
     0
  9
$DIMDSEP
 70
    46
  9
$DIMATFIT
 70
     3
  9
$DIMFRAC
 70
     0
  9
$DIMLDRBLK
  1

  9
$DIMLUNIT
 70
     2
  9
$DIMLWD
 70
    -2
  9
$DIMLWE
 70
    -2
  9
$DIMTMOVE
 70
     2
  9
$LUNITS
 70
     2
  9
$LUPREC
 70
     4
  9
$SKETCHINC
 40
0.1
  9
$FILLETRAD
 40
0.5
  9
$AUNITS
 70
     0
  9
$AUPREC
 70
     0
  9
$MENU
  1
.
  9
$ELEVATION
 40
0.0
  9
$PELEVATION
 40
0.0
  9
$THICKNESS
 40
0.0
  9
$LIMCHECK
 70
     0
  9
$CHAMFERA
 40
0.5
  9
$CHAMFERB
 40
0.5
  9
$CHAMFERC
 40
1.0
  9
$CHAMFERD
 40
0.0
  9
$SKPOLY
 70
     0
  9
$TDCREATE
 40
2455870.914802396
  9
$TDUCREATE
 40
2455870.873135729
  9
$TDUPDATE
 40
2455870.917124086
  9
$TDUUPDATE
 40
2455870.875457419
  9
$TDINDWG
 40
0.0023211574
  9
$TDUSRTIMER
 40
0.0023211574
  9
$USRTIMER
 70
     1
  9
$ANGBASE
 50
0.0
  9
$ANGDIR
 70
     0
  9
$PDMODE
 70
     0
  9
$PDSIZE
 40
0.0
  9
$PLINEWID
 40
0.0
  9
$SPLFRAME
 70
     0
  9
$SPLINETYPE
 70
     6
  9
$SPLINESEGS
 70
     8
  9
$HANDSEED
  5
2946
  9
$SURFTAB1
 70
     6
  9
$SURFTAB2
 70
     6
  9
$SURFTYPE
 70
     6
  9
$SURFU
 70
     6
  9
$SURFV
 70
     6
  9
$UCSBASE
  2

  9
$UCSNAME
  2

  9
$UCSORG
 10
0.0
 20
0.0
 30
0.0
  9
$UCSXDIR
 10
1.0
 20
0.0
 30
0.0
  9
$UCSYDIR
 10
0.0
 20
1.0
 30
0.0
  9
$UCSORTHOREF
  2

  9
$UCSORTHOVIEW
 70
     0
  9
$UCSORGTOP
 10
0.0
 20
0.0
 30
0.0
  9
$UCSORGBOTTOM
 10
0.0
 20
0.0
 30
0.0
  9
$UCSORGLEFT
 10
0.0
 20
0.0
 30
0.0
  9
$UCSORGRIGHT
 10
0.0
 20
0.0
 30
0.0
  9
$UCSORGFRONT
 10
0.0
 20
0.0
 30
0.0
  9
$UCSORGBACK
 10
0.0
 20
0.0
 30
0.0
  9
$PUCSBASE
  2

  9
$PUCSNAME
  2

  9
$PUCSORG
 10
0.0
 20
0.0
 30
0.0
  9
$PUCSXDIR
 10
1.0
 20
0.0
 30
0.0
  9
$PUCSYDIR
 10
0.0
 20
1.0
 30
0.0
  9
$PUCSORTHOREF
  2

  9
$PUCSORTHOVIEW
 70
     0
  9
$PUCSORGTOP
 10
0.0
 20
0.0
 30
0.0
  9
$PUCSORGBOTTOM
 10
0.0
 20
0.0
 30
0.0
  9
$PUCSORGLEFT
 10
0.0
 20
0.0
 30
0.0
  9
$PUCSORGRIGHT
 10
0.0
 20
0.0
 30
0.0
  9
$PUCSORGFRONT
 10
0.0
 20
0.0
 30
0.0
  9
$PUCSORGBACK
 10
0.0
 20
0.0
 30
0.0
  9
$USERI1
 70
     0
  9
$USERI2
 70
     0
  9
$USERI3
 70
     0
  9
$USERI4
 70
     0
  9
$USERI5
 70
     0
  9
$USERR1
 40
0.0
  9
$USERR2
 40
0.0
  9
$USERR3
 40
0.0
  9
$USERR4
 40
0.0
  9
$USERR5
 40
0.0
  9
$WORLDVIEW
 70
     1
  9
$SHADEDGE
 70
     3
  9
$SHADEDIF
 70
    70
  9
$TILEMODE
 70
     1
  9
$MAXACTVP
 70
    64
  9
$PINSBASE
 10
0.0
 20
0.0
 30
0.0
  9
$PLIMCHECK
 70
     0
  9
$PEXTMIN
 10
1.000000000000E+20
 20
1.000000000000E+20
 30
1.000000000000E+20
  9
$PEXTMAX
 10
-1.000000000000E+20
 20
-1.000000000000E+20
 30
-1.000000000000E+20
  9
$PLIMMIN
 10
0.0
 20
0.0
  9
$PLIMMAX
 10
12.0
 20
9.0
  9
$UNITMODE
 70
     0
  9
$VISRETAIN
 70
     1
  9
$PLINEGEN
 70
     0
  9
$PSLTSCALE
 70
     1
  9
$TREEDEPTH
 70
  3020
  9
$CMLSTYLE
  2
Standard
  9
$CMLJUST
 70
     0
  9
$CMLSCALE
 40
1.0
  9
$PROXYGRAPHICS
 70
     1
  9
$MEASUREMENT
 70
     0
  9
$CELWEIGHT
370
    -1
  9
$ENDCAPS
280
     0
  9
$JOINSTYLE
280
     0
  9
$LWDISPLAY
290
     0
  9
$INSUNITS
 70
     0
  9
$HYPERLINKBASE
  1

  9
$STYLESHEET
  1

  9
$XEDIT
290
     1
  9
$CEPSNTYPE
380
     0
  9
$PSTYLEMODE
290
     1
  9
$FINGERPRINTGUID
  2
{2D415C76-0AF7-4A85-BCBC-4DB4A90033A2}
  9
$VERSIONGUID
  2
{FAEB1C32-E019-11D5-929B-00C0DF256EC4}
  9
$EXTNAMES
290
     1
  9
$PSVPSCALE
 40
0.0
  9
$OLESTARTUP
290
     0
  0
ENDSEC
  0
SECTION
  2
CLASSES
  0
CLASS
  1
ACDBDICTIONARYWDFLT
  2
AcDbDictionaryWithDefault
  3
ObjectDBX Classes
 90
        0
280
     0
281
     0
  0
CLASS
  1
SCALE
  2
AcDbScale
  3
ObjectDBX Classes
 90
     1153
280
     0
281
     0
  0
CLASS
  1
DICTIONARYVAR
  2
AcDbDictionaryVar
  3
ObjectDBX Classes
 90
        0
280
     0
281
     0
  0
CLASS
  1
ACDBPLACEHOLDER
  2
AcDbPlaceHolder
  3
ObjectDBX Classes
 90
        0
280
     0
281
     0
  0
CLASS
  1
LAYOUT
  2
AcDbLayout
  3
ObjectDBX Classes
 90
        0
280
     0
281
     0
  0
ENDSEC
  0
SECTION
  2
TABLES
  0
TABLE
  2
VPORT
  5
8
330
0
100
AcDbSymbolTable
 70
     1
  0
VPORT
  5
D6A
330
8
100
AcDbSymbolTableRecord
100
AcDbViewportTableRecord
  2
*Active
 70
     0
 10
0.0
 20
0.0
 11
1.0
 21
1.0
 12
255.897575
 22
771.0
 13
0.0
 23
0.0
 14
0.5
 24
0.5
 15
0.5
 25
0.5
 16
0.0
 26
0.0
 36
1.0
 17
0.0
 27
0.0
 37
0.0
 40
1573.0389
 41
2.271724137931
 42
50.0
 43
0.0
 44
0.0
 50
0.0
 51
0.0
 71
    16
 72
   100
 73
     1
 74
     3
 75
     0
 76
     0
 77
     0
 78
     0
281
     0
 65
     1
110
0.0
120
0.0
130
0.0
111
1.0
121
0.0
131
0.0
112
0.0
122
1.0
132
0.0
 79
     0
146
0.0
  0
ENDTAB
  0
TABLE
  2
LTYPE
  5
5
330
0
100
AcDbSymbolTable
 70
     1
  0
LTYPE
  5
14
330
5
100
AcDbSymbolTableRecord
100
AcDbLinetypeTableRecord
  2
ByBlock
 70
     0
  3

 72
    65
 73
     0
 40
0.0
  0
LTYPE
  5
15
330
5
100
AcDbSymbolTableRecord
100
AcDbLinetypeTableRecord
  2
ByLayer
 70
     0
  3

 72
    65
 73
     0
 40
0.0
  0
LTYPE
  5
16
330
5
100
AcDbSymbolTableRecord
100
AcDbLinetypeTableRecord
  2
Continuous
 70
     0
  3
Solid line
 72
    65
 73
     0
 40
0.0
  0
ENDTAB
  0
TABLE
  2
LAYER
  5
2
330
0
100
AcDbSymbolTable
 70
     1
  0
LAYER
  5
10
330
2
100
AcDbSymbolTableRecord
100
AcDbLayerTableRecord
  2
0
 70
     0
 62
     7
  6
Continuous
370
    -3
390
F
  0
ENDTAB
  0
TABLE
  2
STYLE
  5
3
330
0
100
AcDbSymbolTable
 70
     1
  0
STYLE
  5
11
330
3
100
AcDbSymbolTableRecord
100
AcDbTextStyleTableRecord
  2
Standard
 70
     0
 40
0.0
 41
1.0
 50
0.0
 71
     0
 42
0.2
  3
txt
  4

  0
ENDTAB
  0
TABLE
  2
VIEW
  5
6
330
0
100
AcDbSymbolTable
 70
     0
  0
ENDTAB
  0
TABLE
  2
UCS
  5
7
330
0
100
AcDbSymbolTable
 70
     0
  0
ENDTAB
  0
TABLE
  2
APPID
  5
9
330
0
100
AcDbSymbolTable
 70
     1
  0
APPID
  5
12
330
9
100
AcDbSymbolTableRecord
100
AcDbRegAppTableRecord
  2
ACAD
 70
     0
  0
ENDTAB
  0
TABLE
  2
DIMSTYLE
  5
A
330
0
100
AcDbSymbolTable
 70
     1
100
AcDbDimStyleTable
  0
DIMSTYLE
105
20
330
A
100
AcDbSymbolTableRecord
100
AcDbDimStyleTableRecord
  2
Standard
 70
     0
340
11
  0
ENDTAB
  0
TABLE
  2
BLOCK_RECORD
  5
1
330
0
100
AcDbSymbolTable
 70
     3
  0
BLOCK_RECORD
  5
1D
330
1
100
AcDbSymbolTableRecord
100
AcDbBlockTableRecord
  2
*Model_Space
340
1E
  0
BLOCK_RECORD
  5
1B
330
1
100
AcDbSymbolTableRecord
100
AcDbBlockTableRecord
  2
*Paper_Space
340
1C
  0
ENDTAB
  0
ENDSEC
  0
SECTION
  2
BLOCKS
  0
BLOCK
  5
D6D
330
1D
100
AcDbEntity
  8
0
100
AcDbBlockBegin
  2
*Model_Space
 70
     0
 10
0.0
 20
0.0
 30
0.0
  3
*Model_Space
  1
*Model_Space
  0
ENDBLK
  5
D6E
330
1D
100
AcDbEntity
  8
0
100
AcDbBlockEnd
  0
BLOCK
  5
D6B
330
1B
100
AcDbEntity
 67
     1
  8
0
100
AcDbBlockBegin
  2
*Paper_Space
 70
     0
 10
0.0
 20
0.0
 30
0.0
  3
*Paper_Space
  1
*Paper_Space
  0
ENDBLK
  5
D6C
330
1B
100
AcDbEntity
 67
     1
  8
0
100
AcDbBlockEnd
  0
ENDSEC
  0
SECTION
  2
ENTITIES
  0
LINE
  5
21
330
1D
100
AcDbEntity
  8
0
100
AcDbLine
 10
430.79515
 20
11.6485
 30
0.0
 11
430.79515
 21
8.8415
 31
0.0
  0
LINE
  5
22
330
1D
100
AcDbEntity
  8
0
100
AcDbLine
 10
430.79515
 20
11.6485
 30
0.0
 11
430.79515
 21
16.2735
 31
0.0
  0
LINE
  5
23
330
1D
100
AcDbEntity
  8
0
100
AcDbLine
 10
430.79515
 20
8.8415
 30
0.0
 11
430.817652029717
 21
9.000186188731
 31
0.0
  0
LINE
  5
24
330
1D
100
AcDbEntity
  8
0
100
AcDbLine
 10
430.79515
 20
8.8415
 30
0.0
 11
430.811533524955
 21
8.726018903959
 31
0.0
  0
LINE
  5
25
330
1D
100
AcDbEntity
  8
0
100
AcDbLine
 10
430.79515
 20
8.8415
 30
0.0
 11
430.79515
 21
11.6485
 31
0.0
  0
LINE
  5
26
330
1D
100
AcDbEntity
  8
0
100
AcDbLine
 10
430.80015
 20
8.1795
 30
0.0
 11
431.01615
 21
6.1225
 31
0.0
  0
LINE
  5
27
330
1D
100
AcDbEntity
  8
0
100
AcDbLine
 10
430.81815
 20
9.0225
 30
0.0
 11
430.88215
 21
11.8295
 31
0.0
  0
LINE
  5
28
330
1D
100
AcDbEntity
  8
0
100
AcDbLine
 10
430.79715
 20
8.0815
 30
0.0
 11
430.81815
 21
9.0225
 31
0.0
  0
LINE
  5
29
330
1D
100
AcDbEntity
  8
0
100
AcDbLine
 10
430.79715
 20
8.0815
 30
0.0
 11
431.03915
 21
6.0275
 31
0.0
  0
LINE
  5
2A
330
1D
100
AcDbEntity
  8
0
100
AcDbLine
 10
430.79515
 20
16.2735
 30
0.0
 11
430.79515
 21
22.6375
 31
0.0
  0
LINE
  5
2B
330
1D
100
AcDbEntity
  8
0
100
AcDbLine
 10
430.79515
 20
16.2735
 30
0.0
 11
430.79515
 21
11.6485
 31
0.0
  0
LINE
  5
2C
330
1D
100
AcDbEntity
  8
0
100
AcDbLine
 10
430.79515
 20
22.6375
 30
0.0
 11
430.79515
 21
30.6315
 31
0.0
  0
LINE
  5
2D
330
1D
100
AcDbEntity
  8
0
100
AcDbLine
 10
430.79515
 20
22.6375
 30
0.0
 11
430.79515
 21
16.2735
 31
0.0
  0
LINE
  5
2E
330
1D
100
AcDbEntity
  8
0
100
AcDbLine
 10
430.88215
 20
11.8295
 30
0.0
 11
430.98715
 21
16.4525
 31
0.0
  0
LINE
  5
2F
330
1D
100
AcDbEntity
  8
0
100
AcDbLine
 10
431.01615
 20
6.1225
 30
0.0
 11
431.71715
 21
4.1775
 31
0.0
  0
LINE
  5
30
330
1D
100
AcDbEntity
  8
0
100
AcDbLine
 10
431.03915
 20
6.0275
 30
0.0
 11
431.76315
 21
4.0905
 31
0.0
  0
LINE
  5
31
330
1D
100
AcDbEntity
  8
0
100
AcDbLine
 10
430.98715
 20
16.4525
 30
0.0
 11
431.13115
 21
22.8155
 31
0.0
  0
LINE
  5
32
330
1D
100
AcDbEntity
  8
0
100
AcDbLine
 10
430.79515
 20
40.1185
 30
0.0
 11
430.79515
 21
50.9365
 31
0.0
  0
LINE
  5
33
330
1D
100
AcDbEntity
  8
0
100
AcDbLine
 10
430.79515
 20
40.1185
 30
0.0
 11
430.79515
 21
30.6315
 31
0.0
  0
LINE
  5
34
330
1D
100
AcDbEntity
  8
0
100
AcDbLine
 10
430.79515
 20
30.6315
 30
0.0
 11
430.79515
 21
22.6375
 31
0.0
  0
LINE
  5
35
330
1D
100
AcDbEntity
  8
0
100
AcDbLine
 10
430.79515
 20
30.6315
 30
0.0
 11
430.79515
 21
40.1185
 31
0.0
  0
LINE
  5
36
330
1D
100
AcDbEntity
  8
0
100
AcDbLine
 10
431.13115
 20
22.8155
 30
0.0
 11
431.31215
 21
30.8075
 31
0.0
  0
LINE
  5
37
330
1D
100
AcDbEntity
  8
0
100
AcDbLine
 10
431.71715
 20
4.1775
 30
0.0
 11
432.93715
 21
2.4375
 31
0.0
  0
LINE
  5
38
330
1D
100
AcDbEntity
  8
0
100
AcDbLine
 10
432.93715
 20
2.4375
 30
0.0
 11
434.58715
 21
1.0995
 31
0.0
  0
LINE
  5
39
330
1D
100
AcDbEntity
  8
0
100
AcDbLine
 10
431.76315
 20
4.0905
 30
0.0
 11
433.00415
 21
2.3665
 31
0.0
  0
LINE
  5
3A
330
1D
100
AcDbEntity
  8
0
100
AcDbLine
 10
433.00415
 20
2.3665
 30
0.0
 11
434.67115
 21
1.0485
 31
0.0
  0
LINE
  5
3B
330
1D
100
AcDbEntity
  8
0
100
AcDbLine
 10
431.31215
 20
30.8075
 30
0.0
 11
431.52815
 21
40.2915
 31
0.0
  0
LINE
  5
3C
330
1D
100
AcDbEntity
  8
0
100
AcDbLine
 10
430.79515
 20
50.9365
 30
0.0
 11
430.79515
 21
40.1185
 31
0.0
  0
LINE
  5
3D
330
1D
100
AcDbEntity
  8
0
100
AcDbLine
 10
430.79515
 20
50.9365
 30
0.0
 11
430.79515
 21
62.9005
 31
0.0
  0
LINE
  5
3E
330
1D
100
AcDbEntity
  8
0
100
AcDbLine
 10
430.79515
 20
62.9005
 30
0.0
 11
430.79515
 21
75.8055
 31
0.0
  0
LINE
  5
3F
330
1D
100
AcDbEntity
  8
0
100
AcDbLine
 10
430.79515
 20
62.9005
 30
0.0
 11
430.79515
 21
50.9365
 31
0.0
  0
LINE
  5
40
330
1D
100
AcDbEntity
  8
0
100
AcDbLine
 10
430.79515
 20
89.4305
 30
0.0
 11
430.79515
 21
103.5425
 31
0.0
  0
LINE
  5
41
330
1D
100
AcDbEntity
  8
0
100
AcDbLine
 10
430.79515
 20
89.4305
 30
0.0
 11
430.79515
 21
75.8055
 31
0.0
  0
LINE
  5
42
330
1D
100
AcDbEntity
  8
0
100
AcDbLine
 10
430.79515
 20
75.8055
 30
0.0
 11
430.79515
 21
62.9005
 31
0.0
  0
LINE
  5
43
330
1D
100
AcDbEntity
  8
0
100
AcDbLine
 10
430.79515
 20
75.8055
 30
0.0
 11
430.79515
 21
89.4305
 31
0.0
  0
LINE
  5
44
330
1D
100
AcDbEntity
  8
0
100
AcDbLine
 10
430.79515
 20
103.5425
 30
0.0
 11
430.79515
 21
117.9005
 31
0.0
  0
LINE
  5
45
330
1D
100
AcDbEntity
  8
0
100
AcDbLine
 10
430.79515
 20
103.5425
 30
0.0
 11
430.79515
 21
89.4305
 31
0.0
  0
LINE
  5
46
330
1D
100
AcDbEntity
  8
0
100
AcDbLine
 10
366.68315
 20
251.8105
 30
0.0
 11
367.29515
 21
252.1635
 31
0.0
  0
LINE
  5
47
330
1D
100
AcDbEntity
  8
0
100
AcDbLine
 10
361.85315
 20
253.1045
 30
0.0
 11
362.81915
 21
252.8455
 31
0.0
  0
LINE
  5
49
330
1D
100
AcDbEntity
  8
0
100
AcDbLine
 10
360.88715
 20
253.3635
 30
0.0
 11
361.85315
 21
253.1045
 31
0.0
  0
LINE
  5
4A
330
1D
100
AcDbEntity
  8
0
100
AcDbLine
 10
360.01815
 20
253.5965
 30
0.0
 11
360.88715
 21
253.3635
 31
0.0
  0
LINE
  5
4B
330
1D
100
AcDbEntity
  8
0
100
AcDbLine
 10
359.43815
 20
253.7515
 30
0.0
 11
360.01815
 21
253.5965
 31
0.0
  0
LINE
  5
4C
330
1D
100
AcDbEntity
  8
0
100
AcDbLine
 10
359.05215
 20
253.8555
 30
0.0
 11
359.43815
 21
253.7515
 31
0.0
  0
LINE
  5
51
330
1D
100
AcDbEntity
  8
0
100
AcDbLine
 10
358.60215
 20
254.4935
 30
0.0
 11
358.95515
 21
253.8815
 31
0.0
  0
LINE
  5
52
330
1D
100
AcDbEntity
  8
0
100
AcDbLine
 10
358.60215
 20
254.4935
 30
0.0
 11
371.09515
 21
301.119058301454
 31
0.0
  0
LINE
  5
54
330
1D
100
AcDbEntity
  8
0
100
AcDbLine
 10
358.95515
 20
253.8815
 30
0.0
 11
359.05215
 21
253.8555
 31
0.0
  0
LINE
  5
57
330
1D
100
AcDbEntity
  8
0
100
AcDbLine
 10
362.81915
 20
252.8455
 30
0.0
 11
363.78515
 21
252.5865
 31
0.0
  0
LINE
  5
58
330
1D
100
AcDbEntity
  8
0
100
AcDbLine
 10
363.78515
 20
252.5865
 30
0.0
 11
364.75115
 21
252.3285
 31
0.0
  0
LINE
  5
59
330
1D
100
AcDbEntity
  8
0
100
AcDbLine
 10
365.62015
 20
252.0955
 30
0.0
 11
366.20015
 21
251.9395
 31
0.0
  0
LINE
  5
5A
330
1D
100
AcDbEntity
  8
0
100
AcDbLine
 10
366.20015
 20
251.9395
 30
0.0
 11
366.58615
 21
251.8365
 31
0.0
  0
LINE
  5
5F
330
1D
100
AcDbEntity
  8
0
100
AcDbLine
 10
367.29515
 20
252.1635
 30
0.0
 11
379.245636859323
 21
296.765240550709
 31
0.0
  0
LINE
  5
60
330
1D
100
AcDbEntity
  8
0
100
AcDbLine
 10
364.75115
 20
252.3285
 30
0.0
 11
365.62015
 21
252.0955
 31
0.0
  0
LINE
  5
61
330
1D
100
AcDbEntity
  8
0
100
AcDbLine
 10
366.58615
 20
251.8365
 30
0.0
 11
366.68315
 21
251.8105
 31
0.0
  0
LINE
  5
62
330
1D
100
AcDbEntity
  8
0
100
AcDbLine
 10
430.09515
 20
280.7235
 30
0.0
 11
430.79515
 21
280.7235
 31
0.0
  0
LINE
  5
63
330
1D
100
AcDbEntity
  8
0
100
AcDbLine
 10
430.09515
 20
280.7235
 30
0.0
 11
430.99515
 21
280.7235
 31
0.0
  0
LINE
  5
64
330
1D
100
AcDbEntity
  8
0
100
AcDbLine
 10
379.182236726317
 20
296.5975
 30
0.0
 11
406.09515
 21
296.5975
 31
0.0
  0
LINE
  5
65
330
1D
100
AcDbEntity
  8
0
100
AcDbLine
 10
406.09515
 20
296.5975
 30
0.0
 11
407.09515
 21
297.5975
 31
0.0
  0
LINE
  5
66
330
1D
100
AcDbEntity
  8
0
100
AcDbLine
 10
406.09515
 20
296.5975
 30
0.0
 11
406.09515
 21
297.4975
 31
0.0
  0
LINE
  5
67
330
1D
100
AcDbEntity
  8
0
100
AcDbLine
 10
379.182236726317
 20
296.5975
 30
0.0
 11
406.09515
 21
296.5975
 31
0.0
  0
LINE
  5
68
330
1D
100
AcDbEntity
  8
0
100
AcDbLine
 10
409.66015
 20
297.0975
 30
0.0
 11
424.029673809524
 21
297.0975
 31
0.0
  0
LINE
  5
6C
330
1D
100
AcDbEntity
  8
0
100
AcDbLine
 10
407.09515
 20
297.5975
 30
0.0
 11
407.09515
 21
298.4975
 31
0.0
  0
LINE
  5
6D
330
1D
100
AcDbEntity
  8
0
100
AcDbLine
 10
406.09515
 20
297.4975
 30
0.0
 11
406.09515
 21
299.9975
 31
0.0
  0
LINE
  5
6E
330
1D
100
AcDbEntity
  8
0
100
AcDbLine
 10
406.09515
 20
297.4975
 30
0.0
 11
406.09515
 21
296.5975
 31
0.0
  0
LINE
  5
71
330
1D
100
AcDbEntity
  8
0
100
AcDbLine
 10
407.09515
 20
298.5975
 30
0.0
 11
408.79515
 21
298.5975
 31
0.0
  0
LINE
  5
72
330
1D
100
AcDbEntity
  8
0
100
AcDbLine
 10
407.09515
 20
298.4975
 30
0.0
 11
407.09515
 21
300.8975
 31
0.0
  0
LINE
  5
73
330
1D
100
AcDbEntity
  8
0
100
AcDbLine
 10
407.09515
 20
300.8975
 30
0.0
 11
407.09515
 21
304.7975
 31
0.0
  0
LINE
  5
74
330
1D
100
AcDbEntity
  8
0
100
AcDbLine
 10
406.09515
 20
299.9975
 30
0.0
 11
406.09515
 21
304.0975
 31
0.0
  0
LINE
  5
75
330
1D
100
AcDbEntity
  8
0
100
AcDbLine
 10
406.09515
 20
299.9975
 30
0.0
 11
406.09515
 21
297.4975
 31
0.0
  0
LINE
  5
79
330
1D
100
AcDbEntity
  8
0
100
AcDbLine
 10
406.09515
 20
304.0975
 30
0.0
 11
406.09515
 21
309.3975
 31
0.0
  0
LINE
  5
7A
330
1D
100
AcDbEntity
  8
0
100
AcDbLine
 10
406.09515
 20
304.0975
 30
0.0
 11
406.09515
 21
299.9975
 31
0.0
  0
LINE
  5
7B
330
1D
100
AcDbEntity
  8
0
100
AcDbLine
 10
407.09515
 20
304.7975
 30
0.0
 11
407.09515
 21
309.8975
 31
0.0
  0
LINE
  5
7C
330
1D
100
AcDbEntity
  8
0
100
AcDbLine
 10
407.09515
 20
309.8975
 30
0.0
 11
407.09515
 21
315.7975
 31
0.0
  0
LINE
  5
7D
330
1D
100
AcDbEntity
  8
0
100
AcDbLine
 10
406.09515
 20
309.3975
 30
0.0
 11
406.09515
 21
315.4975
 31
0.0
  0
LINE
  5
7E
330
1D
100
AcDbEntity
  8
0
100
AcDbLine
 10
406.09515
 20
309.3975
 30
0.0
 11
406.09515
 21
304.0975
 31
0.0
  0
LINE
  5
87
330
1D
100
AcDbEntity
  8
0
100
AcDbLine
 10
408.79515
 20
305.1855
 30
0.0
 11
408.79515
 21
301.4355
 31
0.0
  0
LINE
  5
88
330
1D
100
AcDbEntity
  8
0
100
AcDbLine
 10
408.79515
 20
301.4355
 30
0.0
 11
408.79515
 21
305.1855
 31
0.0
  0
LINE
  5
89
330
1D
100
AcDbEntity
  8
0
100
AcDbLine
 10
409.08315
 20
309.8185
 30
0.0
 11
409.08315
 21
315.7745
 31
0.0
  0
LINE
  5
8A
330
1D
100
AcDbEntity
  8
0
100
AcDbLine
 10
409.08315
 20
309.8185
 30
0.0
 11
409.08315
 21
304.6715
 31
0.0
  0
LINE
  5
8B
330
1D
100
AcDbEntity
  8
0
100
AcDbLine
 10
409.08315
 20
304.6715
 30
0.0
 11
409.08315
 21
300.7735
 31
0.0
  0
LINE
  5
8C
330
1D
100
AcDbEntity
  8
0
100
AcDbLine
 10
409.08315
 20
304.6715
 30
0.0
 11
409.08315
 21
309.8185
 31
0.0
  0
LINE
  5
8D
330
1D
100
AcDbEntity
  8
0
100
AcDbLine
 10
409.08315
 20
300.7735
 30
0.0
 11
409.08315
 21
304.6715
 31
0.0
  0
LINE
  5
8E
330
1D
100
AcDbEntity
  8
0
100
AcDbLine
 10
409.08315
 20
300.7735
 30
0.0
 11
409.08315
 21
298.3475
 31
0.0
  0
LINE
  5
8F
330
1D
100
AcDbEntity
  8
0
100
AcDbLine
 10
409.08315
 20
298.3475
 30
0.0
 11
409.08315
 21
300.7735
 31
0.0
  0
LINE
  5
90
330
1D
100
AcDbEntity
  8
0
100
AcDbLine
 10
409.08315
 20
298.3475
 30
0.0
 11
409.08315
 21
297.4655
 31
0.0
  0
LINE
  5
91
330
1D
100
AcDbEntity
  8
0
100
AcDbLine
 10
408.79515
 20
298.2005
 30
0.0
 11
409.08315
 21
297.4655
 31
0.0
  0
LINE
  5
92
330
1D
100
AcDbEntity
  8
0
100
AcDbLine
 10
409.08315
 20
297.4655
 30
0.0
 11
409.66015
 21
297.0975
 31
0.0
  0
LINE
  5
93
330
1D
100
AcDbEntity
  8
0
100
AcDbLine
 10
409.08315
 20
297.4655
 30
0.0
 11
409.08315
 21
298.3475
 31
0.0
  0
LINE
  5
94
330
1D
100
AcDbEntity
  8
0
100
AcDbLine
 10
423.79515
 20
311.3475
 30
0.0
 11
423.79515
 21
312.9135
 31
0.0
  0
LINE
  5
95
330
1D
100
AcDbEntity
  8
0
100
AcDbLine
 10
407.09515
 20
315.7975
 30
0.0
 11
407.09515
 21
322.0975
 31
0.0
  0
LINE
  5
96
330
1D
100
AcDbEntity
  8
0
100
AcDbLine
 10
406.09515
 20
315.4975
 30
0.0
 11
406.09515
 21
322.0975
 31
0.0
  0
LINE
  5
97
330
1D
100
AcDbEntity
  8
0
100
AcDbLine
 10
406.09515
 20
315.4975
 30
0.0
 11
406.09515
 21
309.3975
 31
0.0
  0
LINE
  5
9C
330
1D
100
AcDbEntity
  8
0
100
AcDbLine
 10
409.08315
 20
315.7745
 30
0.0
 11
409.08315
 21
322.0975
 31
0.0
  0
LINE
  5
9D
330
1D
100
AcDbEntity
  8
0
100
AcDbLine
 10
409.08315
 20
315.7745
 30
0.0
 11
409.08315
 21
309.8185
 31
0.0
  0
LINE
  5
9E
330
1D
100
AcDbEntity
  8
0
100
AcDbLine
 10
423.79515
 20
315.2215
 30
0.0
 11
423.79515
 21
317.9205
 31
0.0
  0
LINE
  5
9F
330
1D
100
AcDbEntity
  8
0
100
AcDbLine
 10
423.79515
 20
315.2215
 30
0.0
 11
423.79515
 21
313.5265
 31
0.0
  0
LINE
  5
A0
330
1D
100
AcDbEntity
  8
0
100
AcDbLine
 10
423.79515
 20
313.5265
 30
0.0
 11
423.79515
 21
315.2215
 31
0.0
  0
LINE
  5
A1
330
1D
100
AcDbEntity
  8
0
100
AcDbLine
 10
423.79515
 20
313.5265
 30
0.0
 11
423.79515
 21
312.8915
 31
0.0
  0
LINE
  5
A2
330
1D
100
AcDbEntity
  8
0
100
AcDbLine
 10
406.09515
 20
322.0975
 30
0.0
 11
406.09515
 21
315.4975
 31
0.0
  0
LINE
  5
A7
330
1D
100
AcDbEntity
  8
0
100
AcDbLine
 10
409.08315
 20
322.0975
 30
0.0
 11
409.08315
 21
315.7745
 31
0.0
  0
LINE
  5
A8
330
1D
100
AcDbEntity
  8
0
100
AcDbLine
 10
409.08315
 20
322.0975
 30
0.0
 11
409.08315
 21
328.4205
 31
0.0
  0
LINE
  5
A9
330
1D
100
AcDbEntity
  8
0
100
AcDbLine
 10
423.79515
 20
317.9205
 30
0.0
 11
423.79515
 21
321.5205
 31
0.0
  0
LINE
  5
AA
330
1D
100
AcDbEntity
  8
0
100
AcDbLine
 10
423.79515
 20
317.9205
 30
0.0
 11
423.79515
 21
315.2215
 31
0.0
  0
LINE
  5
AB
330
1D
100
AcDbEntity
  8
0
100
AcDbLine
 10
423.79515
 20
321.5205
 30
0.0
 11
423.79515
 21
325.6505
 31
0.0
  0
LINE
  5
AC
330
1D
100
AcDbEntity
  8
0
100
AcDbLine
 10
423.79515
 20
321.5205
 30
0.0
 11
423.79515
 21
317.9205
 31
0.0
  0
LINE
  5
AE
330
1D
100
AcDbEntity
  8
0
100
AcDbLine
 10
405.29515
 20
328.3975
 30
0.0
 11
407.09515
 21
322.0975
 31
0.0
  0
LINE
  5
AF
330
1D
100
AcDbEntity
  8
0
100
AcDbLine
 10
403.69515
 20
334.2975
 30
0.0
 11
405.29515
 21
328.3975
 31
0.0
  0
LINE
  5
B0
330
1D
100
AcDbEntity
  8
0
100
AcDbLine
 10
404.29515
 20
328.6975
 30
0.0
 11
406.09515
 21
322.0975
 31
0.0
  0
LINE
  5
B4
330
1D
100
AcDbEntity
  8
0
100
AcDbLine
 10
402.59515
 20
334.7975
 30
0.0
 11
404.29515
 21
328.6975
 31
0.0
  0
LINE
  5
B7
330
1D
100
AcDbEntity
  8
0
100
AcDbLine
 10
409.08315
 20
334.3765
 30
0.0
 11
409.08315
 21
339.5245
 31
0.0
  0
LINE
  5
B8
330
1D
100
AcDbEntity
  8
0
100
AcDbLine
 10
409.08315
 20
334.3765
 30
0.0
 11
409.08315
 21
328.4205
 31
0.0
  0
LINE
  5
B9
330
1D
100
AcDbEntity
  8
0
100
AcDbLine
 10
409.08315
 20
328.4205
 30
0.0
 11
409.08315
 21
334.3765
 31
0.0
  0
LINE
  5
BA
330
1D
100
AcDbEntity
  8
0
100
AcDbLine
 10
409.08315
 20
328.4205
 30
0.0
 11
409.08315
 21
322.0975
 31
0.0
  0
LINE
  5
BC
330
1D
100
AcDbEntity
  8
0
100
AcDbLine
 10
402.29515
 20
339.3975
 30
0.0
 11
403.69515
 21
334.2975
 31
0.0
  0
LINE
  5
BD
330
1D
100
AcDbEntity
  8
0
100
AcDbLine
 10
401.09515
 20
340.0975
 30
0.0
 11
402.59515
 21
334.7975
 31
0.0
  0
LINE
  5
C1
330
1D
100
AcDbEntity
  8
0
100
AcDbLine
 10
409.08315
 20
339.5245
 30
0.0
 11
409.08315
 21
343.4205
 31
0.0
  0
LINE
  5
C2
330
1D
100
AcDbEntity
  8
0
100
AcDbLine
 10
409.08315
 20
339.5245
 30
0.0
 11
409.08315
 21
334.3765
 31
0.0
  0
LINE
  5
C3
330
1D
100
AcDbEntity
  8
0
100
AcDbLine
 10
423.79515
 20
338.6745
 30
0.0
 11
423.79515
 21
342.2745
 31
0.0
  0
LINE
  5
C4
330
1D
100
AcDbEntity
  8
0
100
AcDbLine
 10
423.79515
 20
338.6745
 30
0.0
 11
423.79515
 21
334.5445
 31
0.0
  0
LINE
  5
C5
330
1D
100
AcDbEntity
  8
0
100
AcDbLine
 10
423.79515
 20
334.5445
 30
0.0
 11
423.79515
 21
338.6745
 31
0.0
  0
LINE
  5
C6
330
1D
100
AcDbEntity
  8
0
100
AcDbLine
 10
423.79515
 20
334.5445
 30
0.0
 11
423.79515
 21
330.0975
 31
0.0
  0
LINE
  5
C7
330
1D
100
AcDbEntity
  8
0
100
AcDbLine
 10
401.29515
 20
343.2975
 30
0.0
 11
402.29515
 21
339.3975
 31
0.0
  0
LINE
  5
CB
330
1D
100
AcDbEntity
  8
0
100
AcDbLine
 10
399.99515
 20
344.1975
 30
0.0
 11
401.09515
 21
340.0975
 31
0.0
  0
LINE
  5
CF
330
1D
100
AcDbEntity
  8
0
100
AcDbLine
 10
371.09515
 20
301.119058301454
 30
0.0
 11
371.09515
 21
345.5975
 31
0.0
  0
LINE
  5
D0
330
1D
100
AcDbEntity
  8
0
100
AcDbLine
 10
400.928159708738
 20
344.555752427185
 30
0.0
 11
403.09515
 21
345.0975
 31
0.0
  0
LINE
  5
D1
330
1D
100
AcDbEntity
  8
0
100
AcDbLine
 10
403.09515
 20
345.0975
 30
0.0
 11
406.09515
 21
345.5975
 31
0.0
  0
LINE
  5
D2
330
1D
100
AcDbEntity
  8
0
100
AcDbLine
 10
400.59515
 20
345.6975
 30
0.0
 11
401.29515
 21
343.2975
 31
0.0
  0
LINE
  5
D3
330
1D
100
AcDbEntity
  8
0
100
AcDbLine
 10
400.39515
 20
346.5975
 30
0.0
 11
400.59515
 21
345.6975
 31
0.0
  0
LINE
  5
D6
330
1D
100
AcDbEntity
  8
0
100
AcDbLine
 10
371.09515
 20
345.5975
 30
0.0
 11
371.59515
 21
347.0975
 31
0.0
  0
LINE
  5
D7
330
1D
100
AcDbEntity
  8
0
100
AcDbLine
 10
371.09515
 20
345.5975
 30
0.0
 11
371.09515
 21
301.119058301454
 31
0.0
  0
LINE
  5
D8
330
1D
100
AcDbEntity
  8
0
100
AcDbLine
 10
406.09515
 20
345.5975
 30
0.0
 11
408.79515
 21
345.5975
 31
0.0
  0
LINE
  5
DA
330
1D
100
AcDbEntity
  8
0
100
AcDbLine
 10
408.79515
 20
345.9945
 30
0.0
 11
409.08315
 21
346.7295
 31
0.0
  0
LINE
  5
DB
330
1D
100
AcDbEntity
  8
0
100
AcDbLine
 10
409.08315
 20
343.4205
 30
0.0
 11
409.08315
 21
345.8475
 31
0.0
  0
LINE
  5
DC
330
1D
100
AcDbEntity
  8
0
100
AcDbLine
 10
409.08315
 20
343.4205
 30
0.0
 11
409.08315
 21
339.5245
 31
0.0
  0
LINE
  5
DD
330
1D
100
AcDbEntity
  8
0
100
AcDbLine
 10
409.08315
 20
345.8475
 30
0.0
 11
409.08315
 21
346.7295
 31
0.0
  0
LINE
  5
DE
330
1D
100
AcDbEntity
  8
0
100
AcDbLine
 10
409.08315
 20
345.8475
 30
0.0
 11
409.08315
 21
343.4205
 31
0.0
  0
LINE
  5
DF
330
1D
100
AcDbEntity
  8
0
100
AcDbLine
 10
423.79515
 20
342.2745
 30
0.0
 11
423.79515
 21
344.9735
 31
0.0
  0
LINE
  5
E0
330
1D
100
AcDbEntity
  8
0
100
AcDbLine
 10
423.79515
 20
342.2745
 30
0.0
 11
423.79515
 21
338.6745
 31
0.0
  0
LINE
  5
E1
330
1D
100
AcDbEntity
  8
0
100
AcDbLine
 10
423.79515
 20
344.9735
 30
0.0
 11
423.79515
 21
346.6685
 31
0.0
  0
LINE
  5
E2
330
1D
100
AcDbEntity
  8
0
100
AcDbLine
 10
423.79515
 20
344.9735
 30
0.0
 11
423.79515
 21
342.2745
 31
0.0
  0
LINE
  5
E3
330
1D
100
AcDbEntity
  8
0
100
AcDbLine
 10
399.39515
 20
346.6975
 30
0.0
 11
399.99515
 21
344.1975
 31
0.0
  0
LINE
  5
E4
330
1D
100
AcDbEntity
  8
0
100
AcDbLine
 10
371.59515
 20
347.0975
 30
0.0
 11
373.09515
 21
347.5975
 31
0.0
  0
LINE
  5
E6
330
1D
100
AcDbEntity
  8
0
100
AcDbLine
 10
409.08315
 20
346.7295
 30
0.0
 11
409.66015
 21
347.0975
 31
0.0
  0
LINE
  5
E7
330
1D
100
AcDbEntity
  8
0
100
AcDbLine
 10
409.08315
 20
346.7295
 30
0.0
 11
409.08315
 21
345.8475
 31
0.0
  0
LINE
  5
E8
330
1D
100
AcDbEntity
  8
0
100
AcDbLine
 10
409.66015
 20
347.0975
 30
0.0
 11
423.79515
 21
347.0975
 31
0.0
  0
LINE
  5
E9
330
1D
100
AcDbEntity
  8
0
100
AcDbLine
 10
423.79515
 20
346.6685
 30
0.0
 11
423.79515
 21
347.3035
 31
0.0
  0
LINE
  5
EA
330
1D
100
AcDbEntity
  8
0
100
AcDbLine
 10
423.79515
 20
346.6685
 30
0.0
 11
423.79515
 21
344.9735
 31
0.0
  0
LINE
  5
EB
330
1D
100
AcDbEntity
  8
0
100
AcDbLine
 10
423.79515
 20
330.0975
 30
0.0
 11
423.79515
 21
325.6505
 31
0.0
  0
LINE
  5
EC
330
1D
100
AcDbEntity
  8
0
100
AcDbLine
 10
423.79515
 20
330.0975
 30
0.0
 11
423.79515
 21
334.5445
 31
0.0
  0
LINE
  5
ED
330
1D
100
AcDbEntity
  8
0
100
AcDbLine
 10
423.79515
 20
325.6505
 30
0.0
 11
423.79515
 21
330.0975
 31
0.0
  0
LINE
  5
EE
330
1D
100
AcDbEntity
  8
0
100
AcDbLine
 10
423.79515
 20
325.6505
 30
0.0
 11
423.79515
 21
321.5205
 31
0.0
  0
LINE
  5
EF
330
1D
100
AcDbEntity
  8
0
100
AcDbLine
 10
423.79515
 20
312.9135
 30
0.0
 11
423.79515
 21
311.3475
 31
0.0
  0
LINE
  5
F0
330
1D
100
AcDbEntity
  8
0
100
AcDbLine
 10
423.79515
 20
312.8915
 30
0.0
 11
424.18015
 21
312.3625
 31
0.0
  0
LINE
  5
F1
330
1D
100
AcDbEntity
  8
0
100
AcDbLine
 10
423.79515
 20
312.8915
 30
0.0
 11
423.79515
 21
313.5265
 31
0.0
  0
LINE
  5
F2
330
1D
100
AcDbEntity
  8
0
100
AcDbLine
 10
423.79515
 20
297.251920776189
 30
0.0
 11
423.79515
 21
297.2005
 31
0.0
  0
LINE
  5
F3
330
1D
100
AcDbEntity
  8
0
100
AcDbLine
 10
423.79515
 20
297.2005
 30
0.0
 11
424.18015
 21
296.4655
 31
0.0
  0
LINE
  5
F4
330
1D
100
AcDbEntity
  8
0
100
AcDbLine
 10
423.79515
 20
297.2005
 30
0.0
 11
423.79515
 21
297.251920776189
 31
0.0
  0
LINE
  5
F5
330
1D
100
AcDbEntity
  8
0
100
AcDbLine
 10
424.18015
 20
299.7735
 30
0.0
 11
424.18015
 21
303.6715
 31
0.0
  0
LINE
  5
F6
330
1D
100
AcDbEntity
  8
0
100
AcDbLine
 10
424.18015
 20
299.7735
 30
0.0
 11
424.18015
 21
297.3475
 31
0.0
  0
LINE
  5
F7
330
1D
100
AcDbEntity
  8
0
100
AcDbLine
 10
424.18015
 20
297.3475
 30
0.0
 11
424.18015
 21
299.7735
 31
0.0
  0
LINE
  5
F8
330
1D
100
AcDbEntity
  8
0
100
AcDbLine
 10
424.18015
 20
297.3475
 30
0.0
 11
424.18015
 21
296.4655
 31
0.0
  0
LINE
  5
F9
330
1D
100
AcDbEntity
  8
0
100
AcDbLine
 10
424.18015
 20
303.6715
 30
0.0
 11
424.18015
 21
308.8185
 31
0.0
  0
LINE
  5
FA
330
1D
100
AcDbEntity
  8
0
100
AcDbLine
 10
424.18015
 20
303.6715
 30
0.0
 11
424.18015
 21
299.7735
 31
0.0
  0
LINE
  5
FB
330
1D
100
AcDbEntity
  8
0
100
AcDbLine
 10
424.18015
 20
308.8185
 30
0.0
 11
424.18015
 21
311.0435
 31
0.0
  0
LINE
  5
FC
330
1D
100
AcDbEntity
  8
0
100
AcDbLine
 10
424.18015
 20
308.8185
 30
0.0
 11
424.18015
 21
303.6715
 31
0.0
  0
LINE
  5
FD
330
1D
100
AcDbEntity
  8
0
100
AcDbLine
 10
424.18015
 20
311.0435
 30
0.0
 11
424.18015
 21
312.3435
 31
0.0
  0
LINE
  5
FE
330
1D
100
AcDbEntity
  8
0
100
AcDbLine
 10
424.18015
 20
311.0435
 30
0.0
 11
424.18015
 21
308.8185
 31
0.0
  0
LINE
  5
FF
330
1D
100
AcDbEntity
  8
0
100
AcDbLine
 10
424.18015
 20
312.3435
 30
0.0
 11
424.94915
 21
312.0975
 31
0.0
  0
LINE
  5
100
330
1D
100
AcDbEntity
  8
0
100
AcDbLine
 10
424.18015
 20
312.3435
 30
0.0
 11
424.18015
 21
311.0435
 31
0.0
  0
LINE
  5
101
330
1D
100
AcDbEntity
  8
0
100
AcDbLine
 10
424.18015
 20
314.7445
 30
0.0
 11
424.18015
 21
317.5505
 31
0.0
  0
LINE
  5
102
330
1D
100
AcDbEntity
  8
0
100
AcDbLine
 10
424.18015
 20
314.7445
 30
0.0
 11
424.18015
 21
312.9975
 31
0.0
  0
LINE
  5
103
330
1D
100
AcDbEntity
  8
0
100
AcDbLine
 10
424.18015
 20
312.9975
 30
0.0
 11
424.18015
 21
314.7445
 31
0.0
  0
LINE
  5
104
330
1D
100
AcDbEntity
  8
0
100
AcDbLine
 10
424.18015
 20
312.9975
 30
0.0
 11
424.18015
 21
312.3625
 31
0.0
  0
LINE
  5
105
330
1D
100
AcDbEntity
  8
0
100
AcDbLine
 10
424.18015
 20
317.5505
 30
0.0
 11
424.18015
 21
321.2565
 31
0.0
  0
LINE
  5
106
330
1D
100
AcDbEntity
  8
0
100
AcDbLine
 10
424.18015
 20
317.5505
 30
0.0
 11
424.18015
 21
314.7445
 31
0.0
  0
LINE
  5
107
330
1D
100
AcDbEntity
  8
0
100
AcDbLine
 10
424.18015
 20
321.2565
 30
0.0
 11
424.18015
 21
325.5445
 31
0.0
  0
LINE
  5
108
330
1D
100
AcDbEntity
  8
0
100
AcDbLine
 10
424.18015
 20
321.2565
 30
0.0
 11
424.18015
 21
317.5505
 31
0.0
  0
LINE
  5
109
330
1D
100
AcDbEntity
  8
0
100
AcDbLine
 10
424.18015
 20
338.9385
 30
0.0
 11
424.18015
 21
342.6445
 31
0.0
  0
LINE
  5
10A
330
1D
100
AcDbEntity
  8
0
100
AcDbLine
 10
424.18015
 20
338.9385
 30
0.0
 11
424.18015
 21
334.6505
 31
0.0
  0
LINE
  5
10B
330
1D
100
AcDbEntity
  8
0
100
AcDbLine
 10
424.18015
 20
334.6505
 30
0.0
 11
424.18015
 21
338.9385
 31
0.0
  0
LINE
  5
10C
330
1D
100
AcDbEntity
  8
0
100
AcDbLine
 10
424.18015
 20
334.6505
 30
0.0
 11
424.18015
 21
330.0975
 31
0.0
  0
LINE
  5
10D
330
1D
100
AcDbEntity
  8
0
100
AcDbLine
 10
424.18015
 20
342.6445
 30
0.0
 11
424.18015
 21
345.4505
 31
0.0
  0
LINE
  5
10E
330
1D
100
AcDbEntity
  8
0
100
AcDbLine
 10
424.18015
 20
342.6445
 30
0.0
 11
424.18015
 21
338.9385
 31
0.0
  0
LINE
  5
10F
330
1D
100
AcDbEntity
  8
0
100
AcDbLine
 10
424.18015
 20
345.4505
 30
0.0
 11
424.18015
 21
347.1975
 31
0.0
  0
LINE
  5
110
330
1D
100
AcDbEntity
  8
0
100
AcDbLine
 10
424.18015
 20
345.4505
 30
0.0
 11
424.18015
 21
342.6445
 31
0.0
  0
LINE
  5
111
330
1D
100
AcDbEntity
  8
0
100
AcDbLine
 10
424.18015
 20
347.1975
 30
0.0
 11
424.18015
 21
347.8325
 31
0.0
  0
LINE
  5
112
330
1D
100
AcDbEntity
  8
0
100
AcDbLine
 10
424.18015
 20
347.1975
 30
0.0
 11
424.18015
 21
345.4505
 31
0.0
  0
LINE
  5
113
330
1D
100
AcDbEntity
  8
0
100
AcDbLine
 10
424.18015
 20
330.0975
 30
0.0
 11
424.18015
 21
325.5445
 31
0.0
  0
LINE
  5
114
330
1D
100
AcDbEntity
  8
0
100
AcDbLine
 10
424.18015
 20
330.0975
 30
0.0
 11
424.18015
 21
334.6505
 31
0.0
  0
LINE
  5
115
330
1D
100
AcDbEntity
  8
0
100
AcDbLine
 10
424.18015
 20
325.5445
 30
0.0
 11
424.18015
 21
330.0975
 31
0.0
  0
LINE
  5
116
330
1D
100
AcDbEntity
  8
0
100
AcDbLine
 10
424.18015
 20
325.5445
 30
0.0
 11
424.18015
 21
321.2565
 31
0.0
  0
LINE
  5
117
330
1D
100
AcDbEntity
  8
0
100
AcDbLine
 10
424.001735365853
 20
312.607646341464
 30
0.0
 11
424.18015
 21
312.3435
 31
0.0
  0
LINE
  5
118
330
1D
100
AcDbEntity
  8
0
100
AcDbLine
 10
424.18015
 20
312.3625
 30
0.0
 11
424.18015
 21
312.9975
 31
0.0
  0
LINE
  5
119
330
1D
100
AcDbEntity
  8
0
100
AcDbLine
 10
424.94915
 20
312.0975
 30
0.0
 11
438.887292645098
 21
312.0975
 31
0.0
  0
LINE
  5
11A
330
1D
100
AcDbEntity
  8
0
100
AcDbLine
 10
424.18015
 20
296.4655
 30
0.0
 11
424.94915
 21
296.0975
 31
0.0
  0
LINE
  5
11B
330
1D
100
AcDbEntity
  8
0
100
AcDbLine
 10
424.18015
 20
296.4655
 30
0.0
 11
424.18015
 21
297.3475
 31
0.0
  0
LINE
  5
11C
330
1D
100
AcDbEntity
  8
0
100
AcDbLine
 10
424.94915
 20
296.0975
 30
0.0
 11
438.30340072561
 21
296.0975
 31
0.0
  0
LINE
  5
11D
330
1D
100
AcDbEntity
  8
0
100
AcDbLine
 10
423.79515
 20
347.0975
 30
0.0
 11
423.79515
 21
347.3035
 31
0.0
  0
LINE
  5
11E
330
1D
100
AcDbEntity
  8
0
100
AcDbLine
 10
399.09515
 20
347.5975
 30
0.0
 11
400.39515
 21
346.5975
 31
0.0
  0
LINE
  5
11F
330
1D
100
AcDbEntity
  8
0
100
AcDbLine
 10
399.09515
 20
347.5975
 30
0.0
 11
399.39515
 21
346.6975
 31
0.0
  0
LINE
  5
120
330
1D
100
AcDbEntity
  8
0
100
AcDbLine
 10
373.09515
 20
347.5975
 30
0.0
 11
399.09515
 21
347.5975
 31
0.0
  0
LINE
  5
121
330
1D
100
AcDbEntity
  8
0
100
AcDbLine
 10
424.18015
 20
347.8325
 30
0.0
 11
424.18015
 21
347.1975
 31
0.0
  0
LINE
  5
122
330
1D
100
AcDbEntity
  8
0
100
AcDbLine
 10
423.79515
 20
347.3035
 30
0.0
 11
423.79515
 21
347.0975
 31
0.0
  0
LINE
  5
123
330
1D
100
AcDbEntity
  8
0
100
AcDbLine
 10
423.79515
 20
347.3035
 30
0.0
 11
424.18015
 21
347.8325
 31
0.0
  0
LINE
  5
124
330
1D
100
AcDbEntity
  8
0
100
AcDbLine
 10
423.79515
 20
347.3035
 30
0.0
 11
423.79515
 21
346.6685
 31
0.0
  0
LINE
  5
125
330
1D
100
AcDbEntity
  8
0
100
AcDbLine
 10
428.697007142857
 20
296.0975
 30
0.0
 11
429.79515
 21
280.7235
 31
0.0
  0
LINE
  5
126
330
1D
100
AcDbEntity
  8
0
100
AcDbLine
 10
429.79515
 20
280.7235
 30
0.0
 11
430.09515
 21
280.7235
 31
0.0
  0
LINE
  5
127
330
1D
100
AcDbEntity
  8
0
100
AcDbLine
 10
430.99515
 20
280.7235
 30
0.0
 11
432.39515
 21
280.7235
 31
0.0
  0
LINE
  5
128
330
1D
100
AcDbEntity
  8
0
100
AcDbLine
 10
430.79515
 20
280.7235
 30
0.0
 11
430.79515
 21
117.9005
 31
0.0
  0
LINE
  5
129
330
1D
100
AcDbEntity
  8
0
100
AcDbLine
 10
430.79515
 20
117.9005
 30
0.0
 11
430.79515
 21
103.5425
 31
0.0
  0
LINE
  5
12A
330
1D
100
AcDbEntity
  8
0
100
AcDbLine
 10
430.79515
 20
117.9005
 30
0.0
 11
430.79515
 21
280.7235
 31
0.0
  0
LINE
  5
12B
330
1D
100
AcDbEntity
  8
0
100
AcDbLine
 10
432.04415
 20
63.0675
 30
0.0
 11
432.33715
 21
75.9695
 31
0.0
  0
LINE
  5
12C
330
1D
100
AcDbEntity
  8
0
100
AcDbLine
 10
432.33715
 20
75.9695
 30
0.0
 11
432.64615
 21
89.5905
 31
0.0
  0
LINE
  5
12D
330
1D
100
AcDbEntity
  8
0
100
AcDbLine
 10
432.64615
 20
89.5905
 30
0.0
 11
432.96515
 21
103.6995
 31
0.0
  0
LINE
  5
12E
330
1D
100
AcDbEntity
  8
0
100
AcDbLine
 10
432.39515
 20
280.7235
 30
0.0
 11
434.29515
 21
280.7235
 31
0.0
  0
LINE
  5
12F
330
1D
100
AcDbEntity
  8
0
100
AcDbLine
 10
433.29115
 20
118.0535
 30
0.0
 11
434.83715
 21
186.2295
 31
0.0
  0
LINE
  5
130
330
1D
100
AcDbEntity
  8
0
100
AcDbLine
 10
432.96515
 20
103.6995
 30
0.0
 11
433.29115
 21
118.0535
 31
0.0
  0
LINE
  5
131
330
1D
100
AcDbEntity
  8
0
100
AcDbLine
 10
431.77315
 20
51.1075
 30
0.0
 11
432.04415
 21
63.0675
 31
0.0
  0
LINE
  5
132
330
1D
100
AcDbEntity
  8
0
100
AcDbLine
 10
431.52815
 20
40.2915
 30
0.0
 11
431.77315
 21
51.1075
 31
0.0
  0
LINE
  5
133
330
1D
100
AcDbEntity
  8
0
100
AcDbLine
 10
436.47915
 20
0.2645
 30
0.0
 11
438.51615
 21
-0.0945
 31
0.0
  0
LINE
  5
134
330
1D
100
AcDbEntity
  8
0
100
AcDbLine
 10
434.29515
 20
280.7235
 30
0.0
 11
436.49515
 21
280.7235
 31
0.0
  0
LINE
  5
135
330
1D
100
AcDbEntity
  8
0
100
AcDbLine
 10
434.83715
 20
186.2295
 30
0.0
 11
436.19315
 21
246.0244
 31
0.0
  0
LINE
  5
136
330
1D
100
AcDbEntity
  8
0
100
AcDbLine
 10
434.58715
 20
1.0995
 30
0.0
 11
436.47915
 21
0.2645
 31
0.0
  0
LINE
  5
137
330
1D
100
AcDbEntity
  8
0
100
AcDbLine
 10
436.49515
 20
280.7235
 30
0.0
 11
437.710114947991
 21
280.7235
 31
0.0
  0
LINE
  5
138
330
1D
100
AcDbEntity
  8
0
100
AcDbLine
 10
436.48915
 20
246.3828
 30
0.0
 11
439.38415
 21
325.71255
 31
0.0
  0
LINE
  5
139
330
1D
100
AcDbEntity
  8
0
100
AcDbLine
 10
436.19315
 20
246.0244
 30
0.0
 11
436.48915
 21
246.3828
 31
0.0
  0
LINE
  5
13A
330
1D
100
AcDbEntity
  8
0
100
AcDbLine
 10
434.67115
 20
1.0485
 30
0.0
 11
436.57315
 21
0.2365
 31
0.0
  0
LINE
  5
13B
330
1D
100
AcDbEntity
  8
0
100
AcDbLine
 10
438.51615
 20
-0.0945
 30
0.0
 11
440.57315
 21
0.1215
 31
0.0
  0
LINE
  5
13C
330
1D
100
AcDbEntity
  8
0
100
AcDbLine
 10
440.57315
 20
0.1215
 30
0.0
 11
442.51815
 21
0.8225
 31
0.0
  0
LINE
  5
13D
330
1D
100
AcDbEntity
  8
0
100
AcDbLine
 10
442.51815
 20
0.8225
 30
0.0
 11
444.25815
 21
2.0425
 31
0.0
  0
LINE
  5
13E
330
1D
100
AcDbEntity
  8
0
100
AcDbLine
 10
442.60515
 20
0.8685
 30
0.0
 11
444.32915
 21
2.1095
 31
0.0
  0
LINE
  5
13F
330
1D
100
AcDbEntity
  8
0
100
AcDbLine
 10
440.66815
 20
0.1445
 30
0.0
 11
442.60515
 21
0.8685
 31
0.0
  0
LINE
  5
140
330
1D
100
AcDbEntity
  8
0
100
AcDbLine
 10
438.61415
 20
-0.0975
 30
0.0
 11
440.66815
 21
0.1445
 31
0.0
  0
LINE
  5
141
330
1D
100
AcDbEntity
  8
0
100
AcDbLine
 10
444.25815
 20
2.0425
 30
0.0
 11
445.59615
 21
3.6925
 31
0.0
  0
LINE
  5
142
330
1D
100
AcDbEntity
  8
0
100
AcDbLine
 10
439.38415
 20
325.71255
 30
0.0
 11
441.31315
 21
413.82
 31
0.0
  0
LINE
  5
143
330
1D
100
AcDbEntity
  8
0
100
AcDbLine
 10
444.32915
 20
2.1095
 30
0.0
 11
445.64715
 21
3.7765
 31
0.0
  0
LINE
  5
144
330
1D
100
AcDbEntity
  8
0
100
AcDbLine
 10
445.59615
 20
3.6925
 30
0.0
 11
446.43115
 21
5.5845
 31
0.0
  0
LINE
  5
145
330
1D
100
AcDbEntity
  8
0
100
AcDbLine
 10
445.64715
 20
3.7765
 30
0.0
 11
446.45915
 21
5.6785
 31
0.0
  0
LINE
  5
146
330
1D
100
AcDbEntity
  8
0
100
AcDbLine
 10
446.43115
 20
5.5845
 30
0.0
 11
446.79015
 21
7.6215
 31
0.0
  0
LINE
  5
147
330
1D
100
AcDbEntity
  8
0
100
AcDbLine
 10
446.783401299601
 20
7.685768873701
 30
0.0
 11
446.79015
 21
7.6215
 31
0.0
  0
LINE
  5
148
330
1D
100
AcDbEntity
  8
0
100
AcDbLine
 10
446.79015
 20
7.6215
 30
0.0
 11
446.82315
 21
8.5615
 31
0.0
  0
LINE
  5
149
330
1D
100
AcDbEntity
  8
0
100
AcDbLine
 10
446.45915
 20
5.6785
 30
0.0
 11
446.79315
 21
7.7195
 31
0.0
  0
LINE
  5
14A
330
1D
100
AcDbEntity
  8
0
100
AcDbLine
 10
446.87815
 20
11.4665
 30
0.0
 11
446.98315
 21
16.0905
 31
0.0
  0
LINE
  5
14B
330
1D
100
AcDbEntity
  8
0
100
AcDbLine
 10
446.81415
 20
8.6595
 30
0.0
 11
446.87815
 21
11.4665
 31
0.0
  0
LINE
  5
14C
330
1D
100
AcDbEntity
  8
0
100
AcDbLine
 10
447.30815
 20
30.4445
 30
0.0
 11
447.52315
 21
39.9295
 31
0.0
  0
LINE
  5
14D
330
1D
100
AcDbEntity
  8
0
100
AcDbLine
 10
448.04015
 20
62.7045
 30
0.0
 11
448.33315
 21
75.6065
 31
0.0
  0
LINE
  5
14E
330
1D
100
AcDbEntity
  8
0
100
AcDbLine
 10
449.28715
 20
117.6905
 30
0.0
 11
450.83315
 21
185.8675
 31
0.0
  0
LINE
  5
14F
330
1D
100
AcDbEntity
  8
0
100
AcDbLine
 10
448.96115
 20
103.3365
 30
0.0
 11
449.28715
 21
117.6905
 31
0.0
  0
LINE
  5
150
330
1D
100
AcDbEntity
  8
0
100
AcDbLine
 10
448.64115
 20
89.2285
 30
0.0
 11
448.96115
 21
103.3365
 31
0.0
  0
LINE
  5
151
330
1D
100
AcDbEntity
  8
0
100
AcDbLine
 10
448.33315
 20
75.6065
 30
0.0
 11
448.64115
 21
89.2285
 31
0.0
  0
LINE
  5
152
330
1D
100
AcDbEntity
  8
0
100
AcDbLine
 10
447.76915
 20
50.7445
 30
0.0
 11
448.04015
 21
62.7045
 31
0.0
  0
LINE
  5
153
330
1D
100
AcDbEntity
  8
0
100
AcDbLine
 10
447.52315
 20
39.9295
 30
0.0
 11
447.76915
 21
50.7445
 31
0.0
  0
LINE
  5
154
330
1D
100
AcDbEntity
  8
0
100
AcDbLine
 10
447.12715
 20
22.4525
 30
0.0
 11
447.30815
 21
30.4445
 31
0.0
  0
LINE
  5
155
330
1D
100
AcDbEntity
  8
0
100
AcDbLine
 10
446.98315
 20
16.0905
 30
0.0
 11
447.12715
 21
22.4525
 31
0.0
  0
LINE
  5
156
330
1D
100
AcDbEntity
  8
0
100
AcDbLine
 10
446.813902750993
 20
8.648432663479
 30
0.0
 11
446.82315
 21
8.5615
 31
0.0
  0
LINE
  5
157
330
1D
100
AcDbEntity
  8
0
100
AcDbLine
 10
446.79315
 20
7.7195
 30
0.0
 11
446.81415
 21
8.6595
 31
0.0
  0
LINE
  5
158
330
1D
100
AcDbEntity
  8
0
100
AcDbLine
 10
436.57315
 20
0.2365
 30
0.0
 11
438.61415
 21
-0.0975
 31
0.0
  0
LINE
  5
159
330
1D
100
AcDbEntity
  8
0
100
AcDbLine
 10
434.73215
 20
353.9315
 30
0.0
 11
435.03215
 21
353.9315
 31
0.0
  0
LINE
  5
15A
330
1D
100
AcDbEntity
  8
0
100
AcDbLine
 10
434.73215
 20
353.9315
 30
0.0
 11
434.73215
 21
370.9565
 31
0.0
  0
LINE
  5
15B
330
1D
100
AcDbEntity
  8
0
100
AcDbLine
 10
435.03215
 20
370.9565
 30
0.0
 11
435.79515
 21
370.9565
 31
0.0
  0
LINE
  5
15C
330
1D
100
AcDbEntity
  8
0
100
AcDbLine
 10
435.03215
 20
353.9315
 30
0.0
 11
435.79515
 21
353.9315
 31
0.0
  0
LINE
  5
15D
330
1D
100
AcDbEntity
  8
0
100
AcDbLine
 10
434.73215
 20
370.9565
 30
0.0
 11
435.79515
 21
371.60493
 31
0.0
  0
LINE
  5
15E
330
1D
100
AcDbEntity
  8
0
100
AcDbLine
 10
434.73215
 20
370.9565
 30
0.0
 11
434.73215
 21
353.9315
 31
0.0
  0
LINE
  5
15F
330
1D
100
AcDbEntity
  8
0
100
AcDbLine
 10
434.73215
 20
370.9565
 30
0.0
 11
435.03215
 21
370.9565
 31
0.0
  0
LINE
  5
163
330
1D
100
AcDbEntity
  8
0
100
AcDbLine
 10
441.31315
 20
413.82
 30
0.0
 11
443.08815
 21
494.4275
 31
0.0
  0
LINE
  5
16B
330
1D
100
AcDbEntity
  8
0
100
AcDbLine
 10
454.849422180277
 20
312.0975
 30
0.0
 11
463.79515
 21
312.0975
 31
0.0
  0
LINE
  5
16C
330
1D
100
AcDbEntity
  8
0
100
AcDbLine
 10
454.208738168277
 20
296.0975
 30
0.0
 11
463.79515
 21
296.0975
 31
0.0
  0
LINE
  5
16D
330
1D
100
AcDbEntity
  8
0
100
AcDbLine
 10
450.83315
 20
185.8675
 30
0.0
 11
452.18915
 21
245.6617
 31
0.0
  0
LINE
  5
16E
330
1D
100
AcDbEntity
  8
0
100
AcDbLine
 10
455.38015
 20
325.35153
 30
0.0
 11
457.30915
 21
413.459
 31
0.0
  0
LINE
  5
170
330
1D
100
AcDbEntity
  8
0
100
AcDbLine
 10
457.79515
 20
348.0975
 30
0.0
 11
457.79515
 21
435.529560563379
 31
0.0
  0
LINE
  5
172
330
1D
100
AcDbEntity
  8
0
100
AcDbLine
 10
457.79515
 20
435.529560563379
 30
0.0
 11
457.79515
 21
348.0975
 31
0.0
  0
LINE
  5
173
330
1D
100
AcDbEntity
  8
0
100
AcDbLine
 10
457.30915
 20
413.459
 30
0.0
 11
459.08415
 21
494.0665
 31
0.0
  0
LINE
  5
BF5
330
1D
100
AcDbEntity
  8
0
100
AcDbLine
 10
463.79515
 20
299.4795
 30
0.0
 11
463.79515
 21
303.4505
 31
0.0
  0
LINE
  5
BF6
330
1D
100
AcDbEntity
  8
0
100
AcDbLine
 10
463.79515
 20
299.4795
 30
0.0
 11
463.79515
 21
296.9795
 31
0.0
  0
LINE
  5
BF7
330
1D
100
AcDbEntity
  8
0
100
AcDbLine
 10
463.79515
 20
296.9795
 30
0.0
 11
463.79515
 21
299.4795
 31
0.0
  0
LINE
  5
BF8
330
1D
100
AcDbEntity
  8
0
100
AcDbLine
 10
463.79515
 20
296.9795
 30
0.0
 11
463.79515
 21
296.0975
 31
0.0
  0
LINE
  5
BF9
330
1D
100
AcDbEntity
  8
0
100
AcDbLine
 10
463.79515
 20
296.0975
 30
0.0
 11
463.79515
 21
296.9795
 31
0.0
  0
LINE
  5
BFA
330
1D
100
AcDbEntity
  8
0
100
AcDbLine
 10
463.79515
 20
303.4505
 30
0.0
 11
463.79515
 21
308.6705
 31
0.0
  0
LINE
  5
BFB
330
1D
100
AcDbEntity
  8
0
100
AcDbLine
 10
463.79515
 20
303.4505
 30
0.0
 11
463.79515
 21
299.4795
 31
0.0
  0
LINE
  5
BFC
330
1D
100
AcDbEntity
  8
0
100
AcDbLine
 10
463.79515
 20
308.6705
 30
0.0
 11
463.79515
 21
310.8615
 31
0.0
  0
LINE
  5
BFD
330
1D
100
AcDbEntity
  8
0
100
AcDbLine
 10
463.79515
 20
308.6705
 30
0.0
 11
463.79515
 21
303.4505
 31
0.0
  0
LINE
  5
BFE
330
1D
100
AcDbEntity
  8
0
100
AcDbLine
 10
463.79515
 20
310.8615
 30
0.0
 11
463.79515
 21
312.0975
 31
0.0
  0
LINE
  5
BFF
330
1D
100
AcDbEntity
  8
0
100
AcDbLine
 10
463.79515
 20
310.8615
 30
0.0
 11
463.79515
 21
308.6705
 31
0.0
  0
LINE
  5
C00
330
1D
100
AcDbEntity
  8
0
100
AcDbLine
 10
463.79515
 20
314.5325
 30
0.0
 11
463.79515
 21
317.3915
 31
0.0
  0
LINE
  5
C01
330
1D
100
AcDbEntity
  8
0
100
AcDbLine
 10
463.79515
 20
314.5325
 30
0.0
 11
463.79515
 21
312.7325
 31
0.0
  0
LINE
  5
C02
330
1D
100
AcDbEntity
  8
0
100
AcDbLine
 10
463.79515
 20
312.7325
 30
0.0
 11
463.79515
 21
314.5325
 31
0.0
  0
LINE
  5
C03
330
1D
100
AcDbEntity
  8
0
100
AcDbLine
 10
463.79515
 20
312.7325
 30
0.0
 11
463.79515
 21
312.0975
 31
0.0
  0
LINE
  5
C04
330
1D
100
AcDbEntity
  8
0
100
AcDbLine
 10
463.79515
 20
312.0975
 30
0.0
 11
463.79515
 21
312.7325
 31
0.0
  0
LINE
  5
C05
330
1D
100
AcDbEntity
  8
0
100
AcDbLine
 10
463.79515
 20
312.0975
 30
0.0
 11
463.79515
 21
310.8615
 31
0.0
  0
LINE
  5
C06
330
1D
100
AcDbEntity
  8
0
100
AcDbLine
 10
463.79515
 20
317.3915
 30
0.0
 11
463.79515
 21
321.1505
 31
0.0
  0
LINE
  5
C07
330
1D
100
AcDbEntity
  8
0
100
AcDbLine
 10
463.79515
 20
317.3915
 30
0.0
 11
463.79515
 21
314.5325
 31
0.0
  0
LINE
  5
C08
330
1D
100
AcDbEntity
  8
0
100
AcDbLine
 10
463.79515
 20
321.1505
 30
0.0
 11
463.79515
 21
325.4915
 31
0.0
  0
LINE
  5
C09
330
1D
100
AcDbEntity
  8
0
100
AcDbLine
 10
463.79515
 20
321.1505
 30
0.0
 11
463.79515
 21
317.3915
 31
0.0
  0
LINE
  5
C0A
330
1D
100
AcDbEntity
  8
0
100
AcDbLine
 10
463.79515
 20
339.0445
 30
0.0
 11
463.79515
 21
342.8035
 31
0.0
  0
LINE
  5
C0B
330
1D
100
AcDbEntity
  8
0
100
AcDbLine
 10
463.79515
 20
339.0445
 30
0.0
 11
463.79515
 21
334.7035
 31
0.0
  0
LINE
  5
C0C
330
1D
100
AcDbEntity
  8
0
100
AcDbLine
 10
463.79515
 20
334.7035
 30
0.0
 11
463.79515
 21
339.0445
 31
0.0
  0
LINE
  5
C0D
330
1D
100
AcDbEntity
  8
0
100
AcDbLine
 10
463.79515
 20
334.7035
 30
0.0
 11
463.79515
 21
330.0975
 31
0.0
  0
LINE
  5
C0E
330
1D
100
AcDbEntity
  8
0
100
AcDbLine
 10
463.79515
 20
342.8035
 30
0.0
 11
463.79515
 21
345.6625
 31
0.0
  0
LINE
  5
C0F
330
1D
100
AcDbEntity
  8
0
100
AcDbLine
 10
463.79515
 20
342.8035
 30
0.0
 11
463.79515
 21
339.0445
 31
0.0
  0
LINE
  5
C10
330
1D
100
AcDbEntity
  8
0
100
AcDbLine
 10
463.79515
 20
345.6625
 30
0.0
 11
463.79515
 21
347.4625
 31
0.0
  0
LINE
  5
C11
330
1D
100
AcDbEntity
  8
0
100
AcDbLine
 10
463.79515
 20
345.6625
 30
0.0
 11
463.79515
 21
342.8035
 31
0.0
  0
LINE
  5
C12
330
1D
100
AcDbEntity
  8
0
100
AcDbLine
 10
463.79515
 20
348.0975
 30
0.0
 11
463.79515
 21
347.4625
 31
0.0
  0
LINE
  5
C13
330
1D
100
AcDbEntity
  8
0
100
AcDbLine
 10
463.79515
 20
347.4625
 30
0.0
 11
463.79515
 21
348.0975
 31
0.0
  0
LINE
  5
C14
330
1D
100
AcDbEntity
  8
0
100
AcDbLine
 10
463.79515
 20
347.4625
 30
0.0
 11
463.79515
 21
345.6625
 31
0.0
  0
LINE
  5
C15
330
1D
100
AcDbEntity
  8
0
100
AcDbLine
 10
463.79515
 20
330.0975
 30
0.0
 11
463.79515
 21
325.4915
 31
0.0
  0
LINE
  5
C16
330
1D
100
AcDbEntity
  8
0
100
AcDbLine
 10
463.79515
 20
330.0975
 30
0.0
 11
463.79515
 21
334.7035
 31
0.0
  0
LINE
  5
C17
330
1D
100
AcDbEntity
  8
0
100
AcDbLine
 10
463.79515
 20
325.4915
 30
0.0
 11
463.79515
 21
330.0975
 31
0.0
  0
LINE
  5
C18
330
1D
100
AcDbEntity
  8
0
100
AcDbLine
 10
463.79515
 20
325.4915
 30
0.0
 11
463.79515
 21
321.1505
 31
0.0
  0
LINE
  5
C19
330
1D
100
AcDbEntity
  8
0
100
AcDbLine
 10
463.79515
 20
344.083071550985
 30
0.0
 11
471.79515
 21
344.082500285633
 31
0.0
  0
LINE
  5
C1A
330
1D
100
AcDbEntity
  8
0
100
AcDbLine
 10
463.79515
 20
316.083071428571
 30
0.0
 11
471.79515
 21
316.0825
 31
0.0
  0
LINE
  5
D16
330
1D
100
AcDbEntity
  8
0
100
AcDbLine
 10
511.79515
 20
1338.0975
 30
0.0
 11
511.79515
 21
1339.1775
 31
0.0
  0
LINE
  5
D17
330
1D
100
AcDbEntity
  8
0
100
AcDbLine
 10
511.79515
 20
1339.1775
 30
0.0
 11
511.79515
 21
1342.0575
 31
0.0
  0
LINE
  5
D18
330
1D
100
AcDbEntity
  8
0
100
AcDbLine
 10
511.79515
 20
1339.1775
 30
0.0
 11
511.79515
 21
1338.0975
 31
0.0
  0
LINE
  5
D21
330
1D
100
AcDbEntity
  8
0
100
AcDbLine
 10
511.79515
 20
1342.0575
 30
0.0
 11
511.79515
 21
1346.8575
 31
0.0
  0
LINE
  5
D22
330
1D
100
AcDbEntity
  8
0
100
AcDbLine
 10
511.79515
 20
1342.0575
 30
0.0
 11
511.79515
 21
1339.1775
 31
0.0
  0
LINE
  5
D23
330
1D
100
AcDbEntity
  8
0
100
AcDbLine
 10
511.79515
 20
1346.8575
 30
0.0
 11
511.79515
 21
1353.2175
 31
0.0
  0
LINE
  5
D24
330
1D
100
AcDbEntity
  8
0
100
AcDbLine
 10
511.79515
 20
1346.8575
 30
0.0
 11
511.79515
 21
1342.0575
 31
0.0
  0
LINE
  5
D55
330
1D
100
AcDbEntity
  8
0
100
AcDbLine
 10
511.79515
 20
1398.0975
 30
0.0
 11
511.79515
 21
1397.0175
 31
0.0
  0
LINE
  5
D56
330
1D
100
AcDbEntity
  8
0
100
AcDbLine
 10
511.79515
 20
1397.0175
 30
0.0
 11
511.79515
 21
1398.0975
 31
0.0
  0
LINE
  5
D57
330
1D
100
AcDbEntity
  8
0
100
AcDbLine
 10
511.79515
 20
1397.0175
 30
0.0
 11
511.79515
 21
1394.1375
 31
0.0
  0
LINE
  5
D58
330
1D
100
AcDbEntity
  8
0
100
AcDbLine
 10
511.79515
 20
1394.1375
 30
0.0
 11
511.79515
 21
1397.0175
 31
0.0
  0
LINE
  5
D59
330
1D
100
AcDbEntity
  8
0
100
AcDbLine
 10
511.79515
 20
1394.1375
 30
0.0
 11
511.79515
 21
1389.3375
 31
0.0
  0
LINE
  5
D5A
330
1D
100
AcDbEntity
  8
0
100
AcDbLine
 10
511.79515
 20
1389.3375
 30
0.0
 11
511.79515
 21
1394.1375
 31
0.0
  0
LINE
  5
D5B
330
1D
100
AcDbEntity
  8
0
100
AcDbLine
 10
511.79515
 20
1389.3375
 30
0.0
 11
511.79515
 21
1382.9775
 31
0.0
  0
LINE
  5
D5C
330
1D
100
AcDbEntity
  8
0
100
AcDbLine
 10
511.79515
 20
1382.9775
 30
0.0
 11
511.79515
 21
1389.3375
 31
0.0
  0
LINE
  5
D5D
330
1D
100
AcDbEntity
  8
0
100
AcDbLine
 10
511.79515
 20
1382.9775
 30
0.0
 11
511.79515
 21
1375.7775
 31
0.0
  0
LINE
  5
D5E
330
1D
100
AcDbEntity
  8
0
100
AcDbLine
 10
511.79515
 20
1375.7775
 30
0.0
 11
511.79515
 21
1382.9775
 31
0.0
  0
LINE
  5
D5F
330
1D
100
AcDbEntity
  8
0
100
AcDbLine
 10
511.79515
 20
1375.7775
 30
0.0
 11
511.79515
 21
1368.0975
 31
0.0
  0
LINE
  5
D60
330
1D
100
AcDbEntity
  8
0
100
AcDbLine
 10
511.79515
 20
1368.0975
 30
0.0
 11
511.79515
 21
1360.4175
 31
0.0
  0
LINE
  5
D61
330
1D
100
AcDbEntity
  8
0
100
AcDbLine
 10
511.79515
 20
1368.0975
 30
0.0
 11
511.79515
 21
1375.7775
 31
0.0
  0
LINE
  5
D64
330
1D
100
AcDbEntity
  8
0
100
AcDbLine
 10
511.79515
 20
1353.2175
 30
0.0
 11
511.79515
 21
1360.4175
 31
0.0
  0
LINE
  5
D65
330
1D
100
AcDbEntity
  8
0
100
AcDbLine
 10
511.79515
 20
1353.2175
 30
0.0
 11
511.79515
 21
1346.8575
 31
0.0
  0
LINE
  5
D66
330
1D
100
AcDbEntity
  8
0
100
AcDbLine
 10
511.79515
 20
1360.4175
 30
0.0
 11
511.79515
 21
1368.0975
 31
0.0
  0
LINE
  5
D67
330
1D
100
AcDbEntity
  8
0
100
AcDbLine
 10
511.79515
 20
1360.4175
 30
0.0
 11
511.79515
 21
1353.2175
 31
0.0
  0
LINE
  5
1596
330
1D
100
AcDbEntity
  8
0
100
AcDbLine
 10
511.79515
 20
1337.0175
 30
0.0
 11
511.79515
 21
1338.0975
 31
0.0
  0
LINE
  5
1597
330
1D
100
AcDbEntity
  8
0
100
AcDbLine
 10
511.79515
 20
1338.0975
 30
0.0
 11
511.79515
 21
1340.9775
 31
0.0
  0
LINE
  5
1598
330
1D
100
AcDbEntity
  8
0
100
AcDbLine
 10
511.79515
 20
1338.0975
 30
0.0
 11
511.79515
 21
1337.0175
 31
0.0
  0
LINE
  5
1599
330
1D
100
AcDbEntity
  8
0
100
AcDbLine
 10
511.79515
 20
1340.9775
 30
0.0
 11
511.79515
 21
1345.7775
 31
0.0
  0
LINE
  5
159A
330
1D
100
AcDbEntity
  8
0
100
AcDbLine
 10
511.79515
 20
1340.9775
 30
0.0
 11
511.79515
 21
1338.0975
 31
0.0
  0
LINE
  5
159B
330
1D
100
AcDbEntity
  8
0
100
AcDbLine
 10
511.79515
 20
1345.7775
 30
0.0
 11
511.79515
 21
1352.1375
 31
0.0
  0
LINE
  5
159C
330
1D
100
AcDbEntity
  8
0
100
AcDbLine
 10
511.79515
 20
1345.7775
 30
0.0
 11
511.79515
 21
1340.9775
 31
0.0
  0
LINE
  5
159D
330
1D
100
AcDbEntity
  8
0
100
AcDbLine
 10
511.79515
 20
1352.1375
 30
0.0
 11
511.79515
 21
1359.3375
 31
0.0
  0
LINE
  5
159E
330
1D
100
AcDbEntity
  8
0
100
AcDbLine
 10
511.79515
 20
1352.1375
 30
0.0
 11
511.79515
 21
1345.7775
 31
0.0
  0
LINE
  5
159F
330
1D
100
AcDbEntity
  8
0
100
AcDbLine
 10
511.79515
 20
1397.0175
 30
0.0
 11
511.79515
 21
1395.9375
 31
0.0
  0
LINE
  5
15A0
330
1D
100
AcDbEntity
  8
0
100
AcDbLine
 10
511.79515
 20
1395.9375
 30
0.0
 11
511.79515
 21
1397.0175
 31
0.0
  0
LINE
  5
15A1
330
1D
100
AcDbEntity
  8
0
100
AcDbLine
 10
511.79515
 20
1395.9375
 30
0.0
 11
511.79515
 21
1393.0575
 31
0.0
  0
LINE
  5
15A2
330
1D
100
AcDbEntity
  8
0
100
AcDbLine
 10
511.79515
 20
1393.0575
 30
0.0
 11
511.79515
 21
1395.9375
 31
0.0
  0
LINE
  5
15A3
330
1D
100
AcDbEntity
  8
0
100
AcDbLine
 10
511.79515
 20
1393.0575
 30
0.0
 11
511.79515
 21
1388.2575
 31
0.0
  0
LINE
  5
15A4
330
1D
100
AcDbEntity
  8
0
100
AcDbLine
 10
511.79515
 20
1388.2575
 30
0.0
 11
511.79515
 21
1393.0575
 31
0.0
  0
LINE
  5
15A5
330
1D
100
AcDbEntity
  8
0
100
AcDbLine
 10
511.79515
 20
1388.2575
 30
0.0
 11
511.79515
 21
1381.8975
 31
0.0
  0
LINE
  5
15A6
330
1D
100
AcDbEntity
  8
0
100
AcDbLine
 10
511.79515
 20
1381.8975
 30
0.0
 11
511.79515
 21
1388.2575
 31
0.0
  0
LINE
  5
15A7
330
1D
100
AcDbEntity
  8
0
100
AcDbLine
 10
511.79515
 20
1381.8975
 30
0.0
 11
511.79515
 21
1374.6975
 31
0.0
  0
LINE
  5
15A8
330
1D
100
AcDbEntity
  8
0
100
AcDbLine
 10
511.79515
 20
1374.6975
 30
0.0
 11
511.79515
 21
1381.8975
 31
0.0
  0
LINE
  5
15A9
330
1D
100
AcDbEntity
  8
0
100
AcDbLine
 10
511.79515
 20
1374.6975
 30
0.0
 11
511.79515
 21
1367.0175
 31
0.0
  0
LINE
  5
15AA
330
1D
100
AcDbEntity
  8
0
100
AcDbLine
 10
511.79515
 20
1367.0175
 30
0.0
 11
511.79515
 21
1359.3375
 31
0.0
  0
LINE
  5
15AB
330
1D
100
AcDbEntity
  8
0
100
AcDbLine
 10
511.79515
 20
1367.0175
 30
0.0
 11
511.79515
 21
1374.6975
 31
0.0
  0
LINE
  5
15AC
330
1D
100
AcDbEntity
  8
0
100
AcDbLine
 10
511.79515
 20
1359.3375
 30
0.0
 11
511.79515
 21
1367.0175
 31
0.0
  0
LINE
  5
15AD
330
1D
100
AcDbEntity
  8
0
100
AcDbLine
 10
511.79515
 20
1359.3375
 30
0.0
 11
511.79515
 21
1352.1375
 31
0.0
  0
LINE
  5
15AE
330
1D
100
AcDbEntity
  8
0
100
AcDbLine
 10
404.65915
 20
938.0455
 30
0.0
 11
404.769625041358
 21
938.109133623823
 31
0.0
  0
LINE
  5
15AF
330
1D
100
AcDbEntity
  8
0
100
AcDbLine
 10
404.65915
 20
938.0455
 30
0.0
 11
405.03415
 21
938.2615
 31
0.0
  0
LINE
  5
15B0
330
1D
100
AcDbEntity
  8
0
100
AcDbLine
 10
404.11015
 20
938.4205
 30
0.0
 11
404.65915
 21
938.0455
 31
0.0
  0
LINE
  5
15B1
330
1D
100
AcDbEntity
  8
0
100
AcDbLine
 10
405.03415
 20
938.2615
 30
0.0
 11
406.03115
 21
938.8375
 31
0.0
  0
LINE
  5
15B2
330
1D
100
AcDbEntity
  8
0
100
AcDbLine
 10
404.769625041358
 20
938.109133623823
 30
0.0
 11
410.389307068499
 21
928.713334541129
 31
0.0
  0
LINE
  5
15B3
330
1D
100
AcDbEntity
  8
0
100
AcDbLine
 10
405.07815
 20
937.9125
 30
0.0
 11
406.34615
 21
938.6455
 31
0.0
  0
LINE
  5
15B4
330
1D
100
AcDbEntity
  8
0
100
AcDbLine
 10
0.48115
 20
1455.0875
 30
0.0
 11
1.46605
 21
1452.9375
 31
0.0
  0
LINE
  5
15B5
330
1D
100
AcDbEntity
  8
0
100
AcDbLine
 10
0.20665
 20
1457.4375
 30
0.0
 11
0.66285
 21
1459.7775
 31
0.0
  0
LINE
  5
15B6
330
1D
100
AcDbEntity
  8
0
100
AcDbLine
 10
0.20665
 20
1457.4375
 30
0.0
 11
0.48115
 21
1455.0875
 31
0.0
  0
LINE
  5
15B7
330
1D
100
AcDbEntity
  8
0
100
AcDbLine
 10
0.20485
 20
1457.4375
 30
0.0
 11
0.66125
 21
1459.7775
 31
0.0
  0
LINE
  5
15B8
330
1D
100
AcDbEntity
  8
0
100
AcDbLine
 10
0.20485
 20
1457.4375
 30
0.0
 11
0.47915
 21
1455.0875
 31
0.0
  0
LINE
  5
15B9
330
1D
100
AcDbEntity
  8
0
100
AcDbLine
 10
0.47915
 20
1455.0875
 30
0.0
 11
1.46405
 21
1452.9375
 31
0.0
  0
LINE
  5
15BA
330
1D
100
AcDbEntity
  8
0
100
AcDbLine
 10
1.46405
 20
1452.9375
 30
0.0
 11
3.05965
 21
1451.2075
 31
0.0
  0
LINE
  5
15BB
330
1D
100
AcDbEntity
  8
0
100
AcDbLine
 10
3.05965
 20
1451.2075
 30
0.0
 11
5.16665
 21
1450.0475
 31
0.0
  0
LINE
  5
15BC
330
1D
100
AcDbEntity
  8
0
100
AcDbLine
 10
5.16665
 20
1450.0475
 30
0.0
 11
5.95635
 21
1449.7475
 31
0.0
  0
LINE
  5
15BD
330
1D
100
AcDbEntity
  8
0
100
AcDbLine
 10
0.66125
 20
1459.7775
 30
0.0
 11
4.47505
 21
1470.2475
 31
0.0
  0
LINE
  5
15BE
330
1D
100
AcDbEntity
  8
0
100
AcDbLine
 10
93.89215
 20
1437.8675
 30
0.0
 11
97.11615
 21
1446.7275
 31
0.0
  0
LINE
  5
15BF
330
1D
100
AcDbEntity
  8
0
100
AcDbLine
 10
93.89215
 20
1437.8675
 30
0.0
 11
94.069365859004
 21
1437.49947984552
 31
0.0
  0
LINE
  5
15C0
330
1D
100
AcDbEntity
  8
0
100
AcDbLine
 10
121.508899098348
 20
1427.51028542457
 30
0.0
 11
121.88715
 21
1427.6775
 31
0.0
  0
LINE
  5
15C1
330
1D
100
AcDbEntity
  8
0
100
AcDbLine
 10
121.88715
 20
1427.6775
 30
0.0
 11
125.11015
 21
1436.5375
 31
0.0
  0
LINE
  5
15C2
330
1D
100
AcDbEntity
  8
0
100
AcDbLine
 10
97.12315
 20
1446.7275
 30
0.0
 11
97.74115
 21
1447.2375
 31
0.0
  0
LINE
  5
15C3
330
1D
100
AcDbEntity
  8
0
100
AcDbLine
 10
123.15015
 20
1447.1975
 30
0.0
 11
124.15415
 21
1446.8275
 31
0.0
  0
LINE
  5
15C4
330
1D
100
AcDbEntity
  8
0
100
AcDbLine
 10
122.82115
 20
1447.1675
 30
0.0
 11
123.87815
 21
1446.7875
 31
0.0
  0
LINE
  5
15C5
330
1D
100
AcDbEntity
  8
0
100
AcDbLine
 10
122.05515
 20
1447.5975
 30
0.0
 11
123.15015
 21
1447.1975
 31
0.0
  0
LINE
  5
15C6
330
1D
100
AcDbEntity
  8
0
100
AcDbLine
 10
121.68115
 20
1447.5875
 30
0.0
 11
122.82115
 21
1447.1675
 31
0.0
  0
LINE
  5
15C7
330
1D
100
AcDbEntity
  8
0
100
AcDbLine
 10
97.74115
 20
1447.2375
 30
0.0
 11
97.979615623253
 21
1447.89602431526
 31
0.0
  0
LINE
  5
15C8
330
1D
100
AcDbEntity
  8
0
100
AcDbLine
 10
97.49815
 20
1448.0675
 30
0.0
 11
100.17115
 21
1455.4175
 31
0.0
  0
LINE
  5
15C9
330
1D
100
AcDbEntity
  8
0
100
AcDbLine
 10
97.49815
 20
1448.0675
 30
0.0
 11
97.61515
 21
1448.0275
 31
0.0
  0
LINE
  5
15CA
330
1D
100
AcDbEntity
  8
0
100
AcDbLine
 10
102.76915
 20
1454.6075
 30
0.0
 11
103.56115
 21
1454.3275
 31
0.0
  0
LINE
  5
15CB
330
1D
100
AcDbEntity
  8
0
100
AcDbLine
 10
103.56115
 20
1454.3275
 30
0.0
 11
104.46415
 21
1453.9975
 31
0.0
  0
LINE
  5
15CC
330
1D
100
AcDbEntity
  8
0
100
AcDbLine
 10
102.82115
 20
1454.4475
 30
0.0
 11
103.68415
 21
1454.1375
 31
0.0
  0
LINE
  5
15CD
330
1D
100
AcDbEntity
  8
0
100
AcDbLine
 10
102.06815
 20
1454.7275
 30
0.0
 11
102.82115
 21
1454.4475
 31
0.0
  0
LINE
  5
15CE
330
1D
100
AcDbEntity
  8
0
100
AcDbLine
 10
104.46415
 20
1453.9975
 30
0.0
 11
105.46815
 21
1453.6275
 31
0.0
  0
LINE
  5
15CF
330
1D
100
AcDbEntity
  8
0
100
AcDbLine
 10
104.72715
 20
1454.7175
 30
0.0
 11
105.73115
 21
1454.3475
 31
0.0
  0
LINE
  5
15D0
330
1D
100
AcDbEntity
  8
0
100
AcDbLine
 10
104.64815
 20
1453.7875
 30
0.0
 11
105.70615
 21
1453.3975
 31
0.0
  0
LINE
  5
15D1
330
1D
100
AcDbEntity
  8
0
100
AcDbLine
 10
103.68415
 20
1454.1375
 30
0.0
 11
104.64815
 21
1453.7875
 31
0.0
  0
LINE
  5
15D2
330
1D
100
AcDbEntity
  8
0
100
AcDbLine
 10
100.92215
 20
1455.1375
 30
0.0
 11
101.43315
 21
1454.9575
 31
0.0
  0
LINE
  5
15D3
330
1D
100
AcDbEntity
  8
0
100
AcDbLine
 10
101.54615
 20
1455.0575
 30
0.0
 11
102.09415
 21
1454.8575
 31
0.0
  0
LINE
  5
15D4
330
1D
100
AcDbEntity
  8
0
100
AcDbLine
 10
103.82415
 20
1455.0475
 30
0.0
 11
104.72715
 21
1454.7175
 31
0.0
  0
LINE
  5
15D5
330
1D
100
AcDbEntity
  8
0
100
AcDbLine
 10
101.43315
 20
1454.9575
 30
0.0
 11
102.06815
 21
1454.7275
 31
0.0
  0
LINE
  5
15D6
330
1D
100
AcDbEntity
  8
0
100
AcDbLine
 10
102.09415
 20
1454.8575
 30
0.0
 11
102.76915
 21
1454.6075
 31
0.0
  0
LINE
  5
15D7
330
1D
100
AcDbEntity
  8
0
100
AcDbLine
 10
97.61515
 20
1448.0275
 30
0.0
 11
97.86615
 21
1447.9375
 31
0.0
  0
LINE
  5
15D8
330
1D
100
AcDbEntity
  8
0
100
AcDbLine
 10
97.86615
 20
1447.9375
 30
0.0
 11
97.981663101767
 21
1447.89341102986
 31
0.0
  0
LINE
  5
15D9
330
1D
100
AcDbEntity
  8
0
100
AcDbLine
 10
100.28715
 20
1455.3675
 30
0.0
 11
100.53815
 21
1455.2775
 31
0.0
  0
LINE
  5
15DA
330
1D
100
AcDbEntity
  8
0
100
AcDbLine
 10
101.12815
 20
1455.2075
 30
0.0
 11
101.54615
 21
1455.0575
 31
0.0
  0
LINE
  5
15DB
330
1D
100
AcDbEntity
  8
0
100
AcDbLine
 10
100.70215
 20
1455.3675
 30
0.0
 11
100.84715
 21
1455.3075
 31
0.0
  0
LINE
  5
15DC
330
1D
100
AcDbEntity
  8
0
100
AcDbLine
 10
100.84715
 20
1455.3075
 30
0.0
 11
101.12815
 21
1455.2075
 31
0.0
  0
LINE
  5
15DD
330
1D
100
AcDbEntity
  8
0
100
AcDbLine
 10
100.53815
 20
1455.2775
 30
0.0
 11
100.92215
 21
1455.1375
 31
0.0
  0
LINE
  5
15DE
330
1D
100
AcDbEntity
  8
0
100
AcDbLine
 10
100.96415
 20
1456.0875
 30
0.0
 11
101.10915
 21
1456.0375
 31
0.0
  0
LINE
  5
15DF
330
1D
100
AcDbEntity
  8
0
100
AcDbLine
 10
101.10915
 20
1456.0375
 30
0.0
 11
101.39115
 21
1455.9275
 31
0.0
  0
LINE
  5
15E0
330
1D
100
AcDbEntity
  8
0
100
AcDbLine
 10
100.17115
 20
1455.4175
 30
0.0
 11
100.28715
 21
1455.3675
 31
0.0
  0
LINE
  5
15E1
330
1D
100
AcDbEntity
  8
0
100
AcDbLine
 10
100.17115
 20
1455.4175
 30
0.0
 11
100.70215
 21
1455.3675
 31
0.0
  0
LINE
  5
15E2
330
1D
100
AcDbEntity
  8
0
100
AcDbLine
 10
100.69915
 20
1455.3675
 30
0.0
 11
100.96215
 21
1456.0875
 31
0.0
  0
LINE
  5
15E3
330
1D
100
AcDbEntity
  8
0
100
AcDbLine
 10
101.39115
 20
1455.9275
 30
0.0
 11
101.80915
 21
1455.7775
 31
0.0
  0
LINE
  5
15E4
330
1D
100
AcDbEntity
  8
0
100
AcDbLine
 10
100.96215
 20
1456.0875
 30
0.0
 11
101.60615
 21
1456.3875
 31
0.0
  0
LINE
  5
15E5
330
1D
100
AcDbEntity
  8
0
100
AcDbLine
 10
101.80915
 20
1455.7775
 30
0.0
 11
102.35715
 21
1455.5775
 31
0.0
  0
LINE
  5
15E6
330
1D
100
AcDbEntity
  8
0
100
AcDbLine
 10
102.35715
 20
1455.5775
 30
0.0
 11
103.03115
 21
1455.3375
 31
0.0
  0
LINE
  5
15E7
330
1D
100
AcDbEntity
  8
0
100
AcDbLine
 10
103.03115
 20
1455.3375
 30
0.0
 11
103.82415
 21
1455.0475
 31
0.0
  0
LINE
  5
15E8
330
1D
100
AcDbEntity
  8
0
100
AcDbLine
 10
104.908307797316
 20
1455.18547142527
 30
0.0
 11
104.98515
 21
1455.2375
 31
0.0
  0
LINE
  5
15E9
330
1D
100
AcDbEntity
  8
0
100
AcDbLine
 10
105.46815
 20
1453.6275
 30
0.0
 11
106.56315
 21
1453.2275
 31
0.0
  0
LINE
  5
15EA
330
1D
100
AcDbEntity
  8
0
100
AcDbLine
 10
105.73115
 20
1454.3475
 30
0.0
 11
106.82515
 21
1453.9575
 31
0.0
  0
LINE
  5
15EB
330
1D
100
AcDbEntity
  8
0
100
AcDbLine
 10
105.70615
 20
1453.3975
 30
0.0
 11
106.84615
 21
1452.9875
 31
0.0
  0
LINE
  5
15EC
330
1D
100
AcDbEntity
  8
0
100
AcDbLine
 10
106.56315
 20
1453.2275
 30
0.0
 11
107.73615
 21
1452.8075
 31
0.0
  0
LINE
  5
15ED
330
1D
100
AcDbEntity
  8
0
100
AcDbLine
 10
106.82515
 20
1453.9575
 30
0.0
 11
107.99915
 21
1453.5275
 31
0.0
  0
LINE
  5
15EE
330
1D
100
AcDbEntity
  8
0
100
AcDbLine
 10
106.84615
 20
1452.9875
 30
0.0
 11
108.05715
 21
1452.5475
 31
0.0
  0
LINE
  5
15EF
330
1D
100
AcDbEntity
  8
0
100
AcDbLine
 10
106.32615
 20
1456.0875
 30
0.0
 11
107.01415
 21
1456.4375
 31
0.0
  0
LINE
  5
15F0
330
1D
100
AcDbEntity
  8
0
100
AcDbLine
 10
107.73615
 20
1452.8075
 30
0.0
 11
108.97915
 21
1452.3475
 31
0.0
  0
LINE
  5
15F1
330
1D
100
AcDbEntity
  8
0
100
AcDbLine
 10
107.01415
 20
1456.4375
 30
0.0
 11
107.58415
 21
1456.6975
 31
0.0
  0
LINE
  5
15F2
330
1D
100
AcDbEntity
  8
0
100
AcDbLine
 10
107.58415
 20
1456.6975
 30
0.0
 11
107.93015
 21
1456.9175
 31
0.0
  0
LINE
  5
15F3
330
1D
100
AcDbEntity
  8
0
100
AcDbLine
 10
108.97915
 20
1452.3475
 30
0.0
 11
110.27515
 21
1451.8775
 31
0.0
  0
LINE
  5
15F4
330
1D
100
AcDbEntity
  8
0
100
AcDbLine
 10
107.99915
 20
1453.5275
 30
0.0
 11
109.24115
 21
1453.0775
 31
0.0
  0
LINE
  5
15F5
330
1D
100
AcDbEntity
  8
0
100
AcDbLine
 10
109.24115
 20
1453.0775
 30
0.0
 11
110.53715
 21
1452.5975
 31
0.0
  0
LINE
  5
15F6
330
1D
100
AcDbEntity
  8
0
100
AcDbLine
 10
108.05715
 20
1452.5475
 30
0.0
 11
109.32815
 21
1452.0775
 31
0.0
  0
LINE
  5
15F7
330
1D
100
AcDbEntity
  8
0
100
AcDbLine
 10
110.27515
 20
1451.8775
 30
0.0
 11
111.61315
 21
1451.3975
 31
0.0
  0
LINE
  5
15F8
330
1D
100
AcDbEntity
  8
0
100
AcDbLine
 10
110.53715
 20
1452.5975
 30
0.0
 11
111.87515
 21
1452.1175
 31
0.0
  0
LINE
  5
15F9
330
1D
100
AcDbEntity
  8
0
100
AcDbLine
 10
111.87515
 20
1452.1175
 30
0.0
 11
113.24015
 21
1451.6175
 31
0.0
  0
LINE
  5
15FA
330
1D
100
AcDbEntity
  8
0
100
AcDbLine
 10
111.61315
 20
1451.3975
 30
0.0
 11
115.64015
 21
1449.9275
 31
0.0
  0
LINE
  5
15FB
330
1D
100
AcDbEntity
  8
0
100
AcDbLine
 10
113.24015
 20
1451.6175
 30
0.0
 11
114.57115
 21
1451.1375
 31
0.0
  0
LINE
  5
15FC
330
1D
100
AcDbEntity
  8
0
100
AcDbLine
 10
110.64715
 20
1451.5975
 30
0.0
 11
112.00015
 21
1451.1075
 31
0.0
  0
LINE
  5
15FD
330
1D
100
AcDbEntity
  8
0
100
AcDbLine
 10
112.00015
 20
1451.1075
 30
0.0
 11
113.37615
 21
1450.6075
 31
0.0
  0
LINE
  5
15FE
330
1D
100
AcDbEntity
  8
0
100
AcDbLine
 10
109.32815
 20
1452.0775
 30
0.0
 11
110.64715
 21
1451.5975
 31
0.0
  0
LINE
  5
15FF
330
1D
100
AcDbEntity
  8
0
100
AcDbLine
 10
114.26315
 20
1450.2875
 30
0.0
 11
115.15015
 21
1449.9675
 31
0.0
  0
LINE
  5
1600
330
1D
100
AcDbEntity
  8
0
100
AcDbLine
 10
114.57115
 20
1451.1375
 30
0.0
 11
115.90315
 21
1450.6475
 31
0.0
  0
LINE
  5
1601
330
1D
100
AcDbEntity
  8
0
100
AcDbLine
 10
115.15015
 20
1449.9675
 30
0.0
 11
116.52715
 21
1449.4575
 31
0.0
  0
LINE
  5
1602
330
1D
100
AcDbEntity
  8
0
100
AcDbLine
 10
115.90315
 20
1450.6475
 30
0.0
 11
117.26715
 21
1450.1475
 31
0.0
  0
LINE
  5
1603
330
1D
100
AcDbEntity
  8
0
100
AcDbLine
 10
115.64015
 20
1449.9275
 30
0.0
 11
117.00515
 21
1449.4275
 31
0.0
  0
LINE
  5
1604
330
1D
100
AcDbEntity
  8
0
100
AcDbLine
 10
123.41315
 20
1447.9175
 30
0.0
 11
124.41615
 21
1447.5475
 31
0.0
  0
LINE
  5
1605
330
1D
100
AcDbEntity
  8
0
100
AcDbLine
 10
120.88115
 20
1448.0175
 30
0.0
 11
122.05515
 21
1447.5975
 31
0.0
  0
LINE
  5
1606
330
1D
100
AcDbEntity
  8
0
100
AcDbLine
 10
118.34415
 20
1448.9475
 30
0.0
 11
119.64015
 21
1448.4675
 31
0.0
  0
LINE
  5
1607
330
1D
100
AcDbEntity
  8
0
100
AcDbLine
 10
118.60615
 20
1449.6675
 30
0.0
 11
119.90215
 21
1449.1975
 31
0.0
  0
LINE
  5
1608
330
1D
100
AcDbEntity
  8
0
100
AcDbLine
 10
117.00515
 20
1449.4275
 30
0.0
 11
118.34415
 21
1448.9475
 31
0.0
  0
LINE
  5
1609
330
1D
100
AcDbEntity
  8
0
100
AcDbLine
 10
117.26715
 20
1450.1475
 30
0.0
 11
118.60615
 21
1449.6675
 31
0.0
  0
LINE
  5
160A
330
1D
100
AcDbEntity
  8
0
100
AcDbLine
 10
117.87915
 20
1448.9675
 30
0.0
 11
119.19815
 21
1448.4875
 31
0.0
  0
LINE
  5
160B
330
1D
100
AcDbEntity
  8
0
100
AcDbLine
 10
119.90215
 20
1449.1975
 30
0.0
 11
121.14315
 21
1448.7375
 31
0.0
  0
LINE
  5
160C
330
1D
100
AcDbEntity
  8
0
100
AcDbLine
 10
119.64015
 20
1448.4675
 30
0.0
 11
120.88115
 21
1448.0175
 31
0.0
  0
LINE
  5
160D
330
1D
100
AcDbEntity
  8
0
100
AcDbLine
 10
122.31715
 20
1448.3175
 30
0.0
 11
123.41315
 21
1447.9175
 31
0.0
  0
LINE
  5
160E
330
1D
100
AcDbEntity
  8
0
100
AcDbLine
 10
121.14315
 20
1448.7375
 30
0.0
 11
122.31715
 21
1448.3175
 31
0.0
  0
LINE
  5
160F
330
1D
100
AcDbEntity
  8
0
100
AcDbLine
 10
123.38015
 20
1451.2975
 30
0.0
 11
123.43015
 21
1451.6975
 31
0.0
  0
LINE
  5
1610
330
1D
100
AcDbEntity
  8
0
100
AcDbLine
 10
123.38015
 20
1451.2975
 30
0.0
 11
123.50315
 21
1450.9075
 31
0.0
  0
LINE
  5
1611
330
1D
100
AcDbEntity
  8
0
100
AcDbLine
 10
119.19815
 20
1448.4875
 30
0.0
 11
120.46915
 21
1448.0275
 31
0.0
  0
LINE
  5
1612
330
1D
100
AcDbEntity
  8
0
100
AcDbLine
 10
120.46915
 20
1448.0275
 30
0.0
 11
121.68115
 21
1447.5875
 31
0.0
  0
LINE
  5
1613
330
1D
100
AcDbEntity
  8
0
100
AcDbLine
 10
116.52715
 20
1449.4575
 30
0.0
 11
117.87915
 21
1448.9675
 31
0.0
  0
LINE
  5
1614
330
1D
100
AcDbEntity
  8
0
100
AcDbLine
 10
123.43015
 20
1451.6975
 30
0.0
 11
123.63215
 21
1452.0475
 31
0.0
  0
LINE
  5
1615
330
1D
100
AcDbEntity
  8
0
100
AcDbLine
 10
113.37615
 20
1450.6075
 30
0.0
 11
114.26315
 21
1450.2875
 31
0.0
  0
LINE
  5
1616
330
1D
100
AcDbEntity
  8
0
100
AcDbLine
 10
107.93015
 20
1456.9175
 30
0.0
 11
108.14815
 21
1457.2575
 31
0.0
  0
LINE
  5
1617
330
1D
100
AcDbEntity
  8
0
100
AcDbLine
 10
106.44015
 20
1461.7975
 30
0.0
 11
106.58515
 21
1461.2975
 31
0.0
  0
LINE
  5
1618
330
1D
100
AcDbEntity
  8
0
100
AcDbLine
 10
106.51615
 20
1462.8375
 30
0.0
 11
107.325343806295
 21
1465.07161193199
 31
0.0
  0
LINE
  5
1619
330
1D
100
AcDbEntity
  8
0
100
AcDbLine
 10
106.49415
 20
1462.7475
 30
0.0
 11
106.51615
 21
1462.8375
 31
0.0
  0
LINE
  5
161A
330
1D
100
AcDbEntity
  8
0
100
AcDbLine
 10
105.12815
 20
1466.4075
 30
0.0
 11
105.43115
 21
1465.7575
 31
0.0
  0
LINE
  5
161B
330
1D
100
AcDbEntity
  8
0
100
AcDbLine
 10
105.12815
 20
1466.4075
 30
0.0
 11
106.67015
 21
1470.6375
 31
0.0
  0
LINE
  5
161C
330
1D
100
AcDbEntity
  8
0
100
AcDbLine
 10
106.41615
 20
1462.3175
 30
0.0
 11
106.44015
 21
1461.7975
 31
0.0
  0
LINE
  5
161D
330
1D
100
AcDbEntity
  8
0
100
AcDbLine
 10
106.41615
 20
1462.3175
 30
0.0
 11
106.49415
 21
1462.7475
 31
0.0
  0
LINE
  5
161E
330
1D
100
AcDbEntity
  8
0
100
AcDbLine
 10
108.10815
 20
1458.0575
 30
0.0
 11
108.21615
 21
1457.6575
 31
0.0
  0
LINE
  5
161F
330
1D
100
AcDbEntity
  8
0
100
AcDbLine
 10
106.58515
 20
1461.2975
 30
0.0
 11
108.10815
 21
1458.0575
 31
0.0
  0
LINE
  5
1620
330
1D
100
AcDbEntity
  8
0
100
AcDbLine
 10
108.14815
 20
1457.2575
 30
0.0
 11
108.21615
 21
1457.6575
 31
0.0
  0
LINE
  5
1621
330
1D
100
AcDbEntity
  8
0
100
AcDbLine
 10
104.98515
 20
1455.2375
 30
0.0
 11
106.32615
 21
1456.0875
 31
0.0
  0
LINE
  5
1622
330
1D
100
AcDbEntity
  8
0
100
AcDbLine
 10
124.96015
 20
1437.3275
 30
0.0
 11
125.19915
 21
1437.9875
 31
0.0
  0
LINE
  5
1623
330
1D
100
AcDbEntity
  8
0
100
AcDbLine
 10
124.96015
 20
1437.3275
 30
0.0
 11
125.10315
 21
1436.5375
 31
0.0
  0
LINE
  5
1624
330
1D
100
AcDbEntity
  8
0
100
AcDbLine
 10
124.15415
 20
1446.8275
 30
0.0
 11
125.05715
 21
1446.4975
 31
0.0
  0
LINE
  5
1625
330
1D
100
AcDbEntity
  8
0
100
AcDbLine
 10
123.87815
 20
1446.7875
 30
0.0
 11
124.84215
 21
1446.4375
 31
0.0
  0
LINE
  5
1626
330
1D
100
AcDbEntity
  8
0
100
AcDbLine
 10
124.84215
 20
1446.4375
 30
0.0
 11
125.70515
 21
1446.1175
 31
0.0
  0
LINE
  5
1627
330
1D
100
AcDbEntity
  8
0
100
AcDbLine
 10
125.05715
 20
1446.4975
 30
0.0
 11
125.84915
 21
1446.2075
 31
0.0
  0
LINE
  5
1628
330
1D
100
AcDbEntity
  8
0
100
AcDbLine
 10
125.68215
 20
1437.8175
 30
0.0
 11
128.35415
 21
1445.1575
 31
0.0
  0
LINE
  5
1629
330
1D
100
AcDbEntity
  8
0
100
AcDbLine
 10
125.56515
 20
1437.8575
 30
0.0
 11
125.68215
 21
1437.8175
 31
0.0
  0
LINE
  5
162A
330
1D
100
AcDbEntity
  8
0
100
AcDbLine
 10
127.60515
 20
1445.4275
 30
0.0
 11
127.98815
 21
1445.2875
 31
0.0
  0
LINE
  5
162B
330
1D
100
AcDbEntity
  8
0
100
AcDbLine
 10
127.09315
 20
1445.6175
 30
0.0
 11
127.60515
 21
1445.4275
 31
0.0
  0
LINE
  5
162C
330
1D
100
AcDbEntity
  8
0
100
AcDbLine
 10
127.07215
 20
1445.7675
 30
0.0
 11
127.48915
 21
1445.6175
 31
0.0
  0
LINE
  5
162D
330
1D
100
AcDbEntity
  8
0
100
AcDbLine
 10
126.52415
 20
1445.9675
 30
0.0
 11
127.07215
 21
1445.7675
 31
0.0
  0
LINE
  5
162E
330
1D
100
AcDbEntity
  8
0
100
AcDbLine
 10
126.78615
 20
1446.6875
 30
0.0
 11
127.33415
 21
1446.4875
 31
0.0
  0
LINE
  5
162F
330
1D
100
AcDbEntity
  8
0
100
AcDbLine
 10
125.84915
 20
1446.2075
 30
0.0
 11
126.52415
 21
1445.9675
 31
0.0
  0
LINE
  5
1630
330
1D
100
AcDbEntity
  8
0
100
AcDbLine
 10
127.75115
 20
1446.3375
 30
0.0
 11
128.03415
 21
1446.2375
 31
0.0
  0
LINE
  5
1631
330
1D
100
AcDbEntity
  8
0
100
AcDbLine
 10
127.33415
 20
1446.4875
 30
0.0
 11
127.75115
 21
1446.3375
 31
0.0
  0
LINE
  5
1632
330
1D
100
AcDbEntity
  8
0
100
AcDbLine
 10
126.45815
 20
1445.8475
 30
0.0
 11
127.09315
 21
1445.6175
 31
0.0
  0
LINE
  5
1633
330
1D
100
AcDbEntity
  8
0
100
AcDbLine
 10
125.70515
 20
1446.1175
 30
0.0
 11
126.45815
 21
1445.8475
 31
0.0
  0
LINE
  5
1634
330
1D
100
AcDbEntity
  8
0
100
AcDbLine
 10
127.48915
 20
1445.6175
 30
0.0
 11
127.77215
 21
1445.5075
 31
0.0
  0
LINE
  5
1635
330
1D
100
AcDbEntity
  8
0
100
AcDbLine
 10
127.77215
 20
1445.5075
 30
0.0
 11
127.91615
 21
1445.4575
 31
0.0
  0
LINE
  5
1636
330
1D
100
AcDbEntity
  8
0
100
AcDbLine
 10
127.98815
 20
1445.2875
 30
0.0
 11
128.23815
 21
1445.1975
 31
0.0
  0
LINE
  5
1637
330
1D
100
AcDbEntity
  8
0
100
AcDbLine
 10
127.91815
 20
1445.4575
 30
0.0
 11
128.18115
 21
1446.1775
 31
0.0
  0
LINE
  5
1638
330
1D
100
AcDbEntity
  8
0
100
AcDbLine
 10
128.03415
 20
1446.2375
 30
0.0
 11
128.17915
 21
1446.1775
 31
0.0
  0
LINE
  5
1639
330
1D
100
AcDbEntity
  8
0
100
AcDbLine
 10
127.91615
 20
1445.4575
 30
0.0
 11
128.35415
 21
1445.1575
 31
0.0
  0
LINE
  5
163A
330
1D
100
AcDbEntity
  8
0
100
AcDbLine
 10
123.63215
 20
1452.0475
 30
0.0
 11
123.97115
 21
1452.2775
 31
0.0
  0
LINE
  5
163B
330
1D
100
AcDbEntity
  8
0
100
AcDbLine
 10
123.50315
 20
1450.9075
 30
0.0
 11
123.76915
 21
1450.3375
 31
0.0
  0
LINE
  5
163C
330
1D
100
AcDbEntity
  8
0
100
AcDbLine
 10
125.31915
 20
1447.2175
 30
0.0
 11
126.11115
 21
1446.9375
 31
0.0
  0
LINE
  5
163D
330
1D
100
AcDbEntity
  8
0
100
AcDbLine
 10
126.11115
 20
1446.9375
 30
0.0
 11
126.78615
 21
1446.6875
 31
0.0
  0
LINE
  5
163E
330
1D
100
AcDbEntity
  8
0
100
AcDbLine
 10
124.41615
 20
1447.5475
 30
0.0
 11
125.31915
 21
1447.2175
 31
0.0
  0
LINE
  5
163F
330
1D
100
AcDbEntity
  8
0
100
AcDbLine
 10
123.76915
 20
1450.3375
 30
0.0
 11
124.571135810922
 21
1448.02823915196
 31
0.0
  0
LINE
  5
1640
330
1D
100
AcDbEntity
  8
0
100
AcDbLine
 10
123.97115
 20
1452.2775
 30
0.0
 11
127.22615
 21
1453.7875
 31
0.0
  0
LINE
  5
1641
330
1D
100
AcDbEntity
  8
0
100
AcDbLine
 10
128.01015
 20
1454.4575
 30
0.0
 11
128.22815
 21
1454.8375
 31
0.0
  0
LINE
  5
1642
330
1D
100
AcDbEntity
  8
0
100
AcDbLine
 10
127.65615
 20
1454.0775
 30
0.0
 11
128.01015
 21
1454.4575
 31
0.0
  0
LINE
  5
1643
330
1D
100
AcDbEntity
  8
0
100
AcDbLine
 10
127.22615
 20
1453.7875
 30
0.0
 11
127.65615
 21
1454.0775
 31
0.0
  0
LINE
  5
1644
330
1D
100
AcDbEntity
  8
0
100
AcDbLine
 10
127.87915
 20
1446.8275
 30
0.0
 11
128.18115
 21
1446.1775
 31
0.0
  0
LINE
  5
1645
330
1D
100
AcDbEntity
  8
0
100
AcDbLine
 10
128.23815
 20
1445.1975
 30
0.0
 11
128.35415
 21
1445.1575
 31
0.0
  0
LINE
  5
1646
330
1D
100
AcDbEntity
  8
0
100
AcDbLine
 10
130.97515
 20
1456.4575
 30
0.0
 11
131.62115
 21
1456.7575
 31
0.0
  0
LINE
  5
1647
330
1D
100
AcDbEntity
  8
0
100
AcDbLine
 10
128.26415
 20
1454.9175
 30
0.0
 11
129.081837271537
 21
1457.15174409406
 31
0.0
  0
LINE
  5
1648
330
1D
100
AcDbEntity
  8
0
100
AcDbLine
 10
128.22815
 20
1454.8375
 30
0.0
 11
128.26415
 21
1454.9175
 31
0.0
  0
LINE
  5
1649
330
1D
100
AcDbEntity
  8
0
100
AcDbLine
 10
133.16315
 20
1460.9975
 30
0.0
 11
134.87615
 21
1465.7075
 31
0.0
  0
LINE
  5
164A
330
1D
100
AcDbEntity
  8
0
100
AcDbLine
 10
131.62115
 20
1456.7575
 30
0.0
 11
133.16315
 21
1460.9975
 31
0.0
  0
LINE
  5
164B
330
1D
100
AcDbEntity
  8
0
100
AcDbLine
 10
134.57315
 20
1466.3475
 30
0.0
 11
134.87615
 21
1465.7075
 31
0.0
  0
LINE
  5
164C
330
1D
100
AcDbEntity
  8
0
100
AcDbLine
 10
106.67015
 20
1470.6375
 30
0.0
 11
108.38315
 21
1475.3475
 31
0.0
  0
LINE
  5
164D
330
1D
100
AcDbEntity
  8
0
100
AcDbLine
 10
108.38315
 20
1475.3475
 30
0.0
 11
109.02915
 21
1475.6475
 31
0.0
  0
LINE
  5
164E
330
1D
100
AcDbEntity
  8
0
100
AcDbLine
 10
111.714192729744
 20
1474.66620669579
 30
0.0
 11
125.45815
 21
1512.4475
 31
0.0
  0
LINE
  5
164F
330
1D
100
AcDbEntity
  8
0
100
AcDbLine
 10
132.382478799452
 20
1467.14695778464
 30
0.0
 11
146.70815
 21
1506.7575
 31
0.0
  0
LINE
  5
1650
330
1D
100
AcDbEntity
  8
0
100
AcDbLine
 10
146.70815
 20
1506.7575
 30
0.0
 11
148.50715
 21
1511.0975
 31
0.0
  0
LINE
  5
1651
330
1D
100
AcDbEntity
  8
0
100
AcDbLine
 10
125.45815
 20
1512.4475
 30
0.0
 11
129.45415
 21
1522.0975
 31
0.0
  0
LINE
  5
1652
330
1D
100
AcDbEntity
  8
0
100
AcDbLine
 10
148.50715
 20
1511.0975
 30
0.0
 11
151.36715
 21
1514.8275
 31
0.0
  0
LINE
  5
1653
330
1D
100
AcDbEntity
  8
0
100
AcDbLine
 10
168.75415
 20
1519.4875
 30
0.0
 11
426.79515
 21
1470.6875
 31
0.0
  0
LINE
  5
1654
330
1D
100
AcDbEntity
  8
0
100
AcDbLine
 10
155.09515
 20
1517.6875
 30
0.0
 11
159.43615
 21
1519.4875
 31
0.0
  0
LINE
  5
1655
330
1D
100
AcDbEntity
  8
0
100
AcDbLine
 10
159.43615
 20
1519.4875
 30
0.0
 11
164.09515
 21
1520.0975
 31
0.0
  0
LINE
  5
1656
330
1D
100
AcDbEntity
  8
0
100
AcDbLine
 10
151.36715
 20
1514.8275
 30
0.0
 11
155.09515
 21
1517.6875
 31
0.0
  0
LINE
  5
1657
330
1D
100
AcDbEntity
  8
0
100
AcDbLine
 10
129.45415
 20
1522.0975
 30
0.0
 11
135.81115
 21
1530.3775
 31
0.0
  0
LINE
  5
1658
330
1D
100
AcDbEntity
  8
0
100
AcDbLine
 10
135.81115
 20
1530.3775
 30
0.0
 11
144.09515
 21
1536.7375
 31
0.0
  0
LINE
  5
1659
330
1D
100
AcDbEntity
  8
0
100
AcDbLine
 10
153.74215
 20
1540.7375
 30
0.0
 11
164.09515
 21
1542.0975
 31
0.0
  0
LINE
  5
165A
330
1D
100
AcDbEntity
  8
0
100
AcDbLine
 10
144.09515
 20
1536.7375
 30
0.0
 11
153.74215
 21
1540.7375
 31
0.0
  0
LINE
  5
165B
330
1D
100
AcDbEntity
  8
0
100
AcDbLine
 10
164.09515
 20
1542.0975
 30
0.0
 11
174.44815
 21
1540.7375
 31
0.0
  0
LINE
  5
165C
330
1D
100
AcDbEntity
  8
0
100
AcDbLine
 10
164.09515
 20
1520.0975
 30
0.0
 11
168.75415
 21
1519.4875
 31
0.0
  0
LINE
  5
165D
330
1D
100
AcDbEntity
  8
0
100
AcDbLine
 10
196.88915
 20
1380.2475
 30
0.0
 11
197.68715
 21
1379.9675
 31
0.0
  0
LINE
  5
165E
330
1D
100
AcDbEntity
  8
0
100
AcDbLine
 10
200.04915
 20
1379.5075
 30
0.0
 11
202.38315
 21
1379.8075
 31
0.0
  0
LINE
  5
165F
330
1D
100
AcDbEntity
  8
0
100
AcDbLine
 10
197.68715
 20
1379.9675
 30
0.0
 11
200.05115
 21
1379.5075
 31
0.0
  0
LINE
  5
1660
330
1D
100
AcDbEntity
  8
0
100
AcDbLine
 10
202.38315
 20
1379.8075
 30
0.0
 11
204.51815
 21
1380.8275
 31
0.0
  0
LINE
  5
1661
330
1D
100
AcDbEntity
  8
0
100
AcDbLine
 10
202.38515
 20
1379.8075
 30
0.0
 11
204.52015
 21
1380.8275
 31
0.0
  0
LINE
  5
1662
330
1D
100
AcDbEntity
  8
0
100
AcDbLine
 10
204.51815
 20
1380.8275
 30
0.0
 11
206.24215
 21
1382.4475
 31
0.0
  0
LINE
  5
1663
330
1D
100
AcDbEntity
  8
0
100
AcDbLine
 10
204.52015
 20
1380.8275
 30
0.0
 11
206.24415
 21
1382.4475
 31
0.0
  0
LINE
  5
1664
330
1D
100
AcDbEntity
  8
0
100
AcDbLine
 10
200.05115
 20
1379.5075
 30
0.0
 11
202.38515
 21
1379.8075
 31
0.0
  0
LINE
  5
1665
330
1D
100
AcDbEntity
  8
0
100
AcDbLine
 10
299.77115
 20
1045.8075
 30
0.0
 11
300.418336664049
 21
1046.73092487431
 31
0.0
  0
LINE
  5
1666
330
1D
100
AcDbEntity
  8
0
100
AcDbLine
 10
300.26915
 20
1045.4585
 30
0.0
 11
300.915891354652
 21
1046.38265787295
 31
0.0
  0
LINE
  5
1667
330
1D
100
AcDbEntity
  8
0
100
AcDbLine
 10
300.02315
 20
1045.6315
 30
0.0
 11
300.26915
 21
1045.4585
 31
0.0
  0
LINE
  5
1668
330
1D
100
AcDbEntity
  8
0
100
AcDbLine
 10
300.02315
 20
1045.6315
 30
0.0
 11
300.65934892004
 21
1046.53924723957
 31
0.0
  0
LINE
  5
1669
330
1D
100
AcDbEntity
  8
0
100
AcDbLine
 10
299.771162051144
 20
1045.80751719492
 30
0.0
 11
300.26915
 21
1045.4585
 31
0.0
  0
LINE
  5
166A
330
1D
100
AcDbEntity
  8
0
100
AcDbLine
 10
299.326574778691
 20
1046.11907079651
 30
0.0
 11
299.43015
 21
1046.0465
 31
0.0
  0
LINE
  5
166B
330
1D
100
AcDbEntity
  8
0
100
AcDbLine
 10
299.10715
 20
1046.2725
 30
0.0
 11
299.326574778691
 21
1046.11907079651
 31
0.0
  0
LINE
  5
166C
330
1D
100
AcDbEntity
  8
0
100
AcDbLine
 10
299.43015
 20
1046.0465
 30
0.0
 11
299.77115
 21
1045.8075
 31
0.0
  0
LINE
  5
166D
330
1D
100
AcDbEntity
  8
0
100
AcDbLine
 10
299.43015
 20
1046.0465
 30
0.0
 11
300.076538217846
 21
1046.97015325985
 31
0.0
  0
LINE
  5
166E
330
1D
100
AcDbEntity
  8
0
100
AcDbLine
 10
299.771317408905
 20
1045.80773886393
 30
0.0
 11
300.02315
 21
1045.6315
 31
0.0
  0
LINE
  5
166F
330
1D
100
AcDbEntity
  8
0
100
AcDbLine
 10
302.895186599601
 20
1045.29856697241
 30
0.0
 11
305.73015
 21
1043.3665
 31
0.0
  0
LINE
  5
1670
330
1D
100
AcDbEntity
  8
0
100
AcDbLine
 10
322.90315
 20
1038.7475
 30
0.0
 11
324.51315
 21
1040.3885
 31
0.0
  0
LINE
  5
1671
330
1D
100
AcDbEntity
  8
0
100
AcDbLine
 10
320.39415
 20
1037.9645
 30
0.0
 11
322.90315
 21
1038.7475
 31
0.0
  0
LINE
  5
1672
330
1D
100
AcDbEntity
  8
0
100
AcDbLine
 10
317.48415
 20
1037.9255
 30
0.0
 11
320.39415
 21
1037.9645
 31
0.0
  0
LINE
  5
1673
330
1D
100
AcDbEntity
  8
0
100
AcDbLine
 10
324.51315
 20
1040.3885
 30
0.0
 11
324.82715
 21
1041.5485
 31
0.0
  0
LINE
  5
1674
330
1D
100
AcDbEntity
  8
0
100
AcDbLine
 10
314.33115
 20
1038.8505
 30
0.0
 11
317.48415
 21
1037.9255
 31
0.0
  0
LINE
  5
1675
330
1D
100
AcDbEntity
  8
0
100
AcDbLine
 10
311.52515
 20
1040.1695
 30
0.0
 11
314.33115
 21
1038.8505
 31
0.0
  0
LINE
  5
1676
330
1D
100
AcDbEntity
  8
0
100
AcDbLine
 10
308.93015
 20
1041.4835
 30
0.0
 11
311.52515
 21
1040.1695
 31
0.0
  0
LINE
  5
1677
330
1D
100
AcDbEntity
  8
0
100
AcDbLine
 10
305.73015
 20
1043.3665
 30
0.0
 11
308.93015
 21
1041.4835
 31
0.0
  0
LINE
  5
1678
330
1D
100
AcDbEntity
  8
0
100
AcDbLine
 10
302.21585766734
 20
1045.76153908459
 30
0.0
 11
305.73015
 21
1043.3665
 31
0.0
  0
LINE
  5
1679
330
1D
100
AcDbEntity
  8
0
100
AcDbLine
 10
302.14415
 20
1045.5215
 30
0.0
 11
302.895186599601
 21
1045.29856697241
 31
0.0
  0
LINE
  5
167A
330
1D
100
AcDbEntity
  8
0
100
AcDbLine
 10
295.95315
 20
1048.4815
 30
0.0
 11
296.599330261366
 21
1049.40429273594
 31
0.0
  0
LINE
  5
167B
330
1D
100
AcDbEntity
  8
0
100
AcDbLine
 10
295.879451725319
 20
1048.53293114891
 30
0.0
 11
295.95315
 21
1048.4815
 31
0.0
  0
LINE
  5
167C
330
1D
100
AcDbEntity
  8
0
100
AcDbLine
 10
295.879521356033
 20
1048.53303064737
 30
0.0
 11
295.95315
 21
1048.4815
 31
0.0
  0
LINE
  5
167D
330
1D
100
AcDbEntity
  8
0
100
AcDbLine
 10
295.87915
 20
1048.5325
 30
0.0
 11
295.95315
 21
1048.4815
 31
0.0
  0
LINE
  5
167E
330
1D
100
AcDbEntity
  8
0
100
AcDbLine
 10
295.87915
 20
1048.5325
 30
0.0
 11
296.525452966695
 21
1049.45603144064
 31
0.0
  0
LINE
  5
167F
330
1D
100
AcDbEntity
  8
0
100
AcDbLine
 10
295.38015
 20
1048.8825
 30
0.0
 11
295.87915
 21
1048.5325
 31
0.0
  0
LINE
  5
1680
330
1D
100
AcDbEntity
  8
0
100
AcDbLine
 10
295.38015
 20
1048.8825
 30
0.0
 11
296.02646688379
 21
1049.80548784276
 31
0.0
  0
LINE
  5
1681
330
1D
100
AcDbEntity
  8
0
100
AcDbLine
 10
294.76015
 20
1049.3165
 30
0.0
 11
295.38015
 21
1048.8825
 31
0.0
  0
LINE
  5
1682
330
1D
100
AcDbEntity
  8
0
100
AcDbLine
 10
294.76015
 20
1049.3165
 30
0.0
 11
295.406563875282
 21
1050.23962635372
 31
0.0
  0
LINE
  5
1683
330
1D
100
AcDbEntity
  8
0
100
AcDbLine
 10
294.38715
 20
1049.5775
 30
0.0
 11
294.76015
 21
1049.3165
 31
0.0
  0
LINE
  5
1684
330
1D
100
AcDbEntity
  8
0
100
AcDbLine
 10
294.38715
 20
1049.5775
 30
0.0
 11
294.731666132
 21
1050.06979462977
 31
0.0
  0
LINE
  5
1685
330
1D
100
AcDbEntity
  8
0
100
AcDbLine
 10
294.38715
 20
1049.5775
 30
0.0
 11
295.033404490806
 21
1050.50096217126
 31
0.0
  0
LINE
  5
1686
330
1D
100
AcDbEntity
  8
0
100
AcDbLine
 10
294.96015
 20
1049.1765
 30
0.0
 11
295.57915
 21
1048.7425
 31
0.0
  0
LINE
  5
1687
330
1D
100
AcDbEntity
  8
0
100
AcDbLine
 10
295.57915
 20
1048.7425
 30
0.0
 11
295.697969969756
 21
1048.65958018153
 31
0.0
  0
LINE
  5
1688
330
1D
100
AcDbEntity
  8
0
100
AcDbLine
 10
295.697969969756
 20
1048.65958018153
 30
0.0
 11
295.87915
 21
1048.5325
 31
0.0
  0
LINE
  5
1689
330
1D
100
AcDbEntity
  8
0
100
AcDbLine
 10
296.78815
 20
1047.8965
 30
0.0
 11
297.24315
 21
1047.5775
 31
0.0
  0
LINE
  5
168A
330
1D
100
AcDbEntity
  8
0
100
AcDbLine
 10
296.78815
 20
1047.8965
 30
0.0
 11
297.42877206705
 21
1048.81055831518
 31
0.0
  0
LINE
  5
168B
330
1D
100
AcDbEntity
  8
0
100
AcDbLine
 10
296.75415
 20
1047.9205
 30
0.0
 11
297.209427636961
 21
1048.57066980762
 31
0.0
  0
LINE
  5
168C
330
1D
100
AcDbEntity
  8
0
100
AcDbLine
 10
296.75415
 20
1047.9205
 30
0.0
 11
297.392608425674
 21
1048.83226538906
 31
0.0
  0
LINE
  5
168D
330
1D
100
AcDbEntity
  8
0
100
AcDbLine
 10
298.047190685258
 20
1047.01472912203
 30
0.0
 11
298.25815
 21
1046.8665
 31
0.0
  0
LINE
  5
168E
330
1D
100
AcDbEntity
  8
0
100
AcDbLine
 10
298.29315
 20
1046.8425
 30
0.0
 11
298.939708331328
 21
1047.76583264753
 31
0.0
  0
LINE
  5
168F
330
1D
100
AcDbEntity
  8
0
100
AcDbLine
 10
298.30015
 20
1046.8375
 30
0.0
 11
298.82215
 21
1046.4725
 31
0.0
  0
LINE
  5
1690
330
1D
100
AcDbEntity
  8
0
100
AcDbLine
 10
298.30015
 20
1046.8375
 30
0.0
 11
298.87201408119
 21
1047.65345240853
 31
0.0
  0
LINE
  5
1691
330
1D
100
AcDbEntity
  8
0
100
AcDbLine
 10
298.82215
 20
1046.4725
 30
0.0
 11
299.43015
 21
1046.0465
 31
0.0
  0
LINE
  5
1692
330
1D
100
AcDbEntity
  8
0
100
AcDbLine
 10
298.82215
 20
1046.4725
 30
0.0
 11
299.468967668599
 21
1047.39539838081
 31
0.0
  0
LINE
  5
1693
330
1D
100
AcDbEntity
  8
0
100
AcDbLine
 10
298.836422300582
 20
1046.46249999992
 30
0.0
 11
299.10715
 21
1046.2725
 31
0.0
  0
LINE
  5
1694
330
1D
100
AcDbEntity
  8
0
100
AcDbLine
 10
297.86615
 20
1047.1415
 30
0.0
 11
298.047190685258
 21
1047.01472912203
 31
0.0
  0
LINE
  5
1695
330
1D
100
AcDbEntity
  8
0
100
AcDbLine
 10
297.86615
 20
1047.1415
 30
0.0
 11
298.047190685258
 21
1047.01472912203
 31
0.0
  0
LINE
  5
1696
330
1D
100
AcDbEntity
  8
0
100
AcDbLine
 10
297.86615
 20
1047.1415
 30
0.0
 11
298.29315
 21
1046.8425
 31
0.0
  0
LINE
  5
1697
330
1D
100
AcDbEntity
  8
0
100
AcDbLine
 10
297.86615
 20
1047.1415
 30
0.0
 11
298.512643417139
 21
1048.06473994531
 31
0.0
  0
LINE
  5
1698
330
1D
100
AcDbEntity
  8
0
100
AcDbLine
 10
297.24315
 20
1047.5775
 30
0.0
 11
297.86615
 21
1047.1415
 31
0.0
  0
LINE
  5
1699
330
1D
100
AcDbEntity
  8
0
100
AcDbLine
 10
297.24315
 20
1047.5775
 30
0.0
 11
297.889399492624
 21
1048.50095502913
 31
0.0
  0
LINE
  5
169A
330
1D
100
AcDbEntity
  8
0
100
AcDbLine
 10
296.363986229375
 20
1049.06820422294
 30
0.0
 11
297.199030372789
 21
1048.55582175295
 31
0.0
  0
LINE
  5
169B
330
1D
100
AcDbEntity
  8
0
100
AcDbLine
 10
300.732077149003
 20
1046.38794685903
 30
0.0
 11
302.14415
 21
1045.5215
 31
0.0
  0
LINE
  5
169C
330
1D
100
AcDbEntity
  8
0
100
AcDbLine
 10
325.02715
 20
1041.8425
 30
0.0
 11
333.49515
 21
1033.8335
 31
0.0
  0
LINE
  5
169D
330
1D
100
AcDbEntity
  8
0
100
AcDbLine
 10
333.49515
 20
1033.8335
 30
0.0
 11
341.83715
 21
1025.2285
 31
0.0
  0
LINE
  5
169E
330
1D
100
AcDbEntity
  8
0
100
AcDbLine
 10
346.79615
 20
1049.3185
 30
0.0
 11
356.40615
 21
1040.1175
 31
0.0
  0
LINE
  5
169F
330
1D
100
AcDbEntity
  8
0
100
AcDbLine
 10
341.83715
 20
1025.2285
 30
0.0
 11
352.20815
 21
1013.5855
 31
0.0
  0
LINE
  5
16A0
330
1D
100
AcDbEntity
  8
0
100
AcDbLine
 10
356.40615
 20
1040.1175
 30
0.0
 11
368.65715
 21
1027.8895
 31
0.0
  0
LINE
  5
16A1
330
1D
100
AcDbEntity
  8
0
100
AcDbLine
 10
368.65715
 20
1027.8895
 30
0.0
 11
380.61115
 21
1015.0315
 31
0.0
  0
LINE
  5
16A2
330
1D
100
AcDbEntity
  8
0
100
AcDbLine
 10
352.20815
 20
1013.5855
 30
0.0
 11
362.60715
 21
1000.6565
 31
0.0
  0
LINE
  5
16A3
330
1D
100
AcDbEntity
  8
0
100
AcDbLine
 10
362.60715
 20
1000.6565
 30
0.0
 11
372.86415
 21
986.5385
 31
0.0
  0
LINE
  5
16A4
330
1D
100
AcDbEntity
  8
0
100
AcDbLine
 10
380.61115
 20
1015.0315
 30
0.0
 11
393.06915
 21
1000.3845
 31
0.0
  0
LINE
  5
16A5
330
1D
100
AcDbEntity
  8
0
100
AcDbLine
 10
372.86415
 20
986.5385
 30
0.0
 11
384.19815
 21
969.3145
 31
0.0
  0
LINE
  5
16A6
330
1D
100
AcDbEntity
  8
0
100
AcDbLine
 10
393.06915
 20
1000.3845
 30
0.0
 11
405.44615
 21
984.2985
 31
0.0
  0
LINE
  5
16A7
330
1D
100
AcDbEntity
  8
0
100
AcDbLine
 10
384.19815
 20
969.3145
 30
0.0
 11
393.01615
 21
955.7865
 31
0.0
  0
LINE
  5
16A8
330
1D
100
AcDbEntity
  8
0
100
AcDbLine
 10
393.01615
 20
955.7865
 30
0.0
 11
401.91015
 21
942.2315
 31
0.0
  0
LINE
  5
16A9
330
1D
100
AcDbEntity
  8
0
100
AcDbLine
 10
406.03115
 20
938.8375
 30
0.0
 11
407.65215
 21
939.7735
 31
0.0
  0
LINE
  5
16AA
330
1D
100
AcDbEntity
  8
0
100
AcDbLine
 10
407.65215
 20
939.7735
 30
0.0
 11
409.77215
 21
940.9975
 31
0.0
  0
LINE
  5
16AB
330
1D
100
AcDbEntity
  8
0
100
AcDbLine
 10
405.44615
 20
984.2985
 30
0.0
 11
414.57615
 21
970.3185
 31
0.0
  0
LINE
  5
16AC
330
1D
100
AcDbEntity
  8
0
100
AcDbLine
 10
401.91015
 20
942.2315
 30
0.0
 11
404.11015
 21
938.4205
 31
0.0
  0
LINE
  5
16AD
330
1D
100
AcDbEntity
  8
0
100
AcDbLine
 10
262.35115
 20
1070.5775
 30
0.0
 11
262.809780902166
 21
1071.23285836848
 31
0.0
  0
LINE
  5
16AE
330
1D
100
AcDbEntity
  8
0
100
AcDbLine
 10
262.20815
 20
1070.6775
 30
0.0
 11
262.35115
 21
1070.5775
 31
0.0
  0
LINE
  5
16AF
330
1D
100
AcDbEntity
  8
0
100
AcDbLine
 10
262.20815
 20
1070.6775
 30
0.0
 11
262.666827873787
 21
1071.33292548835
 31
0.0
  0
LINE
  5
16B0
330
1D
100
AcDbEntity
  8
0
100
AcDbLine
 10
262.95515
 20
1070.1545
 30
0.0
 11
263.413832665052
 21
1070.8099323348
 31
0.0
  0
LINE
  5
16B1
330
1D
100
AcDbEntity
  8
0
100
AcDbLine
 10
262.95515
 20
1070.1545
 30
0.0
 11
263.23615
 21
1069.9575
 31
0.0
  0
LINE
  5
16B2
330
1D
100
AcDbEntity
  8
0
100
AcDbLine
 10
263.23615
 20
1069.9575
 30
0.0
 11
263.83315
 21
1069.5395
 31
0.0
  0
LINE
  5
16B3
330
1D
100
AcDbEntity
  8
0
100
AcDbLine
 10
263.23615
 20
1069.9575
 30
0.0
 11
263.747102844052
 21
1070.68762354961
 31
0.0
  0
LINE
  5
16B4
330
1D
100
AcDbEntity
  8
0
100
AcDbLine
 10
263.83315
 20
1069.5395
 30
0.0
 11
264.39015
 21
1069.1495
 31
0.0
  0
LINE
  5
16B5
330
1D
100
AcDbEntity
  8
0
100
AcDbLine
 10
263.83315
 20
1069.5395
 30
0.0
 11
264.304098368516
 21
1070.21245935135
 31
0.0
  0
LINE
  5
16B6
330
1D
100
AcDbEntity
  8
0
100
AcDbLine
 10
258.57615
 20
1073.4925
 30
0.0
 11
258.919674635408
 21
1073.98307833723
 31
0.0
  0
LINE
  5
16B7
330
1D
100
AcDbEntity
  8
0
100
AcDbLine
 10
258.11315
 20
1073.8175
 30
0.0
 11
258.574956342864
 21
1074.47699327778
 31
0.0
  0
LINE
  5
16B8
330
1D
100
AcDbEntity
  8
0
100
AcDbLine
 10
257.88115
 20
1073.9795
 30
0.0
 11
258.11315
 21
1073.8175
 31
0.0
  0
LINE
  5
16B9
330
1D
100
AcDbEntity
  8
0
100
AcDbLine
 10
257.88115
 20
1073.9795
 30
0.0
 11
258.349560382254
 21
1074.64842432967
 31
0.0
  0
LINE
  5
16BA
330
1D
100
AcDbEntity
  8
0
100
AcDbLine
 10
258.34415
 20
1073.6545
 30
0.0
 11
258.57615
 21
1073.4925
 31
0.0
  0
LINE
  5
16BB
330
1D
100
AcDbEntity
  8
0
100
AcDbLine
 10
258.34415
 20
1073.6545
 30
0.0
 11
258.693546206849
 21
1074.15333308626
 31
0.0
  0
LINE
  5
16BC
330
1D
100
AcDbEntity
  8
0
100
AcDbLine
 10
257.76515
 20
1074.0605
 30
0.0
 11
258.34415
 21
1073.6545
 31
0.0
  0
LINE
  5
16BD
330
1D
100
AcDbEntity
  8
0
100
AcDbLine
 10
249.23815
 20
1080.3325
 30
0.0
 11
249.38015
 21
1080.2325
 31
0.0
  0
LINE
  5
16BE
330
1D
100
AcDbEntity
  8
0
100
AcDbLine
 10
249.23815
 20
1080.3325
 30
0.0
 11
249.439693815806
 21
1080.62031932894
 31
0.0
  0
LINE
  5
16BF
330
1D
100
AcDbEntity
  8
0
100
AcDbLine
 10
250.39815
 20
1079.5195
 30
0.0
 11
250.598150000028
 21
1079.37949999998
 31
0.0
  0
LINE
  5
16C0
330
1D
100
AcDbEntity
  8
0
100
AcDbLine
 10
250.17615
 20
1080.1045
 30
0.0
 11
250.740075433685
 21
1080.90912531392
 31
0.0
  0
LINE
  5
16C1
330
1D
100
AcDbEntity
  8
0
100
AcDbLine
 10
250.02515
 20
1079.7815
 30
0.0
 11
250.09815
 21
1079.7295
 31
0.0
  0
LINE
  5
16C2
330
1D
100
AcDbEntity
  8
0
100
AcDbLine
 10
250.02515
 20
1079.7815
 30
0.0
 11
250.437060390621
 21
1080.36973820387
 31
0.0
  0
LINE
  5
16C3
330
1D
100
AcDbEntity
  8
0
100
AcDbLine
 10
250.02515
 20
1079.7815
 30
0.0
 11
250.098489961612
 21
1079.72998506718
 31
0.0
  0
LINE
  5
16C4
330
1D
100
AcDbEntity
  8
0
100
AcDbLine
 10
250.02515
 20
1079.7815
 30
0.0
 11
250.501392351365
 21
1080.46160895513
 31
0.0
  0
LINE
  5
16C5
330
1D
100
AcDbEntity
  8
0
100
AcDbLine
 10
250.09815
 20
1079.7295
 30
0.0
 11
250.39815
 21
1079.5195
 31
0.0
  0
LINE
  5
16C6
330
1D
100
AcDbEntity
  8
0
100
AcDbLine
 10
250.09815
 20
1079.7295
 30
0.0
 11
250.59815
 21
1079.3795
 31
0.0
  0
LINE
  5
16C7
330
1D
100
AcDbEntity
  8
0
100
AcDbLine
 10
250.09815
 20
1079.7295
 30
0.0
 11
250.575093009569
 21
1080.41001624536
 31
0.0
  0
LINE
  5
16C8
330
1D
100
AcDbEntity
  8
0
100
AcDbLine
 10
251.59115
 20
1078.6845
 30
0.0
 11
251.994669363933
 21
1079.26075520324
 31
0.0
  0
LINE
  5
16C9
330
1D
100
AcDbEntity
  8
0
100
AcDbLine
 10
251.51715
 20
1078.7355
 30
0.0
 11
251.59115
 21
1078.6845
 31
0.0
  0
LINE
  5
16CA
330
1D
100
AcDbEntity
  8
0
100
AcDbLine
 10
250.82015
 20
1080.0835
 30
0.0
 11
251.120150000128
 21
1079.87349999991
 31
0.0
  0
LINE
  5
16CB
330
1D
100
AcDbEntity
  8
0
100
AcDbLine
 10
250.82015
 20
1080.0835
 30
0.0
 11
251.120150000128
 21
1079.87349999991
 31
0.0
  0
LINE
  5
16CC
330
1D
100
AcDbEntity
  8
0
100
AcDbLine
 10
250.74615
 20
1080.1355
 30
0.0
 11
251.12015
 21
1079.8735
 31
0.0
  0
LINE
  5
16CD
330
1D
100
AcDbEntity
  8
0
100
AcDbLine
 10
250.74615
 20
1080.1355
 30
0.0
 11
250.82015
 21
1080.0835
 31
0.0
  0
LINE
  5
16CE
330
1D
100
AcDbEntity
  8
0
100
AcDbLine
 10
250.74615
 20
1080.1355
 30
0.0
 11
251.392408558762
 21
1081.05840455035
 31
0.0
  0
LINE
  5
16CF
330
1D
100
AcDbEntity
  8
0
100
AcDbLine
 10
251.12015
 20
1079.8735
 30
0.0
 11
251.73915
 21
1079.4395
 31
0.0
  0
LINE
  5
16D0
330
1D
100
AcDbEntity
  8
0
100
AcDbLine
 10
251.12015
 20
1079.8735
 30
0.0
 11
251.766480866038
 21
1080.79650781044
 31
0.0
  0
LINE
  5
16D1
330
1D
100
AcDbEntity
  8
0
100
AcDbLine
 10
250.598150000028
 20
1079.37949999998
 30
0.0
 11
251.21715
 21
1078.9455
 31
0.0
  0
LINE
  5
16D2
330
1D
100
AcDbEntity
  8
0
100
AcDbLine
 10
251.93915
 20
1079.2995
 30
0.0
 11
252.31315
 21
1079.0385
 31
0.0
  0
LINE
  5
16D3
330
1D
100
AcDbEntity
  8
0
100
AcDbLine
 10
251.811389422153
 20
1079.38907688334
 30
0.0
 11
251.93915
 21
1079.2995
 31
0.0
  0
LINE
  5
16D4
330
1D
100
AcDbEntity
  8
0
100
AcDbLine
 10
251.73915
 20
1079.4395
 30
0.0
 11
252.23915
 21
1079.0905
 31
0.0
  0
LINE
  5
16D5
330
1D
100
AcDbEntity
  8
0
100
AcDbLine
 10
251.73915
 20
1079.4395
 30
0.0
 11
252.385887235366
 21
1080.36284697628
 31
0.0
  0
LINE
  5
16D6
330
1D
100
AcDbEntity
  8
0
100
AcDbLine
 10
251.21715
 20
1078.9455
 30
0.0
 11
251.33596996979
 21
1078.86258018151
 31
0.0
  0
LINE
  5
16D7
330
1D
100
AcDbEntity
  8
0
100
AcDbLine
 10
251.21715
 20
1078.9455
 30
0.0
 11
251.33596996979
 21
1078.86258018151
 31
0.0
  0
LINE
  5
16D8
330
1D
100
AcDbEntity
  8
0
100
AcDbLine
 10
251.21715
 20
1078.9455
 30
0.0
 11
251.59115
 21
1078.6845
 31
0.0
  0
LINE
  5
16D9
330
1D
100
AcDbEntity
  8
0
100
AcDbLine
 10
251.21715
 20
1078.9455
 30
0.0
 11
251.621122989999
 21
1079.52225237858
 31
0.0
  0
LINE
  5
16DA
330
1D
100
AcDbEntity
  8
0
100
AcDbLine
 10
251.33596996979
 20
1078.86258018151
 30
0.0
 11
251.51715
 21
1078.7355
 31
0.0
  0
LINE
  5
16DB
330
1D
100
AcDbEntity
  8
0
100
AcDbLine
 10
250.59815
 20
1079.3795
 30
0.0
 11
251.21715
 21
1078.9455
 31
0.0
  0
LINE
  5
16DC
330
1D
100
AcDbEntity
  8
0
100
AcDbLine
 10
250.59815
 20
1079.3795
 30
0.0
 11
251.001989485436
 21
1079.9562123602
 31
0.0
  0
LINE
  5
16DD
330
1D
100
AcDbEntity
  8
0
100
AcDbLine
 10
249.94515
 20
1080.2665
 30
0.0
 11
250.17615
 21
1080.1045
 31
0.0
  0
LINE
  5
16DE
330
1D
100
AcDbEntity
  8
0
100
AcDbLine
 10
249.94515
 20
1080.2665
 30
0.0
 11
250.517995837698
 21
1081.085065238
 31
0.0
  0
LINE
  5
16DF
330
1D
100
AcDbEntity
  8
0
100
AcDbLine
 10
249.38015
 20
1080.2325
 30
0.0
 11
249.58197576099
 21
1080.52072196731
 31
0.0
  0
LINE
  5
16E0
330
1D
100
AcDbEntity
  8
0
100
AcDbLine
 10
247.32215
 20
1082.1035
 30
0.0
 11
247.523836014883
 21
1082.39152239963
 31
0.0
  0
LINE
  5
16E1
330
1D
100
AcDbEntity
  8
0
100
AcDbLine
 10
246.99315
 20
1082.3335
 30
0.0
 11
247.32215
 21
1082.1035
 31
0.0
  0
LINE
  5
16E2
330
1D
100
AcDbEntity
  8
0
100
AcDbLine
 10
246.99315
 20
1082.3335
 30
0.0
 11
247.195199187884
 21
1082.62204103728
 31
0.0
  0
LINE
  5
16E3
330
1D
100
AcDbEntity
  8
0
100
AcDbLine
 10
247.19415
 20
1082.1925
 30
0.0
 11
247.32215
 21
1082.1035
 31
0.0
  0
LINE
  5
16E4
330
1D
100
AcDbEntity
  8
0
100
AcDbLine
 10
247.59515
 20
1082.3415
 30
0.0
 11
247.77615
 21
1082.2155
 31
0.0
  0
LINE
  5
16E5
330
1D
100
AcDbEntity
  8
0
100
AcDbLine
 10
247.59515
 20
1082.3415
 30
0.0
 11
248.242072500706
 21
1083.26454795832
 31
0.0
  0
LINE
  5
16E6
330
1D
100
AcDbEntity
  8
0
100
AcDbLine
 10
245.07515
 20
1083.6765
 30
0.0
 11
245.423957408374
 21
1084.17492662801
 31
0.0
  0
LINE
  5
16E7
330
1D
100
AcDbEntity
  8
0
100
AcDbLine
 10
245.07515
 20
1083.6765
 30
0.0
 11
245.569104062009
 21
1084.38233322374
 31
0.0
  0
LINE
  5
16E8
330
1D
100
AcDbEntity
  8
0
100
AcDbLine
 10
244.65915
 20
1083.9675
 30
0.0
 11
245.07515
 21
1083.6765
 31
0.0
  0
LINE
  5
16E9
330
1D
100
AcDbEntity
  8
0
100
AcDbLine
 10
244.65915
 20
1083.9675
 30
0.0
 11
245.173743687761
 21
1084.70282611529
 31
0.0
  0
LINE
  5
16EA
330
1D
100
AcDbEntity
  8
0
100
AcDbLine
 10
246.16015
 20
1083.3465
 30
0.0
 11
246.44115
 21
1083.1495
 31
0.0
  0
LINE
  5
16EB
330
1D
100
AcDbEntity
  8
0
100
AcDbLine
 10
246.16015
 20
1083.3465
 30
0.0
 11
246.80665813575
 21
1084.26976096457
 31
0.0
  0
LINE
  5
16EC
330
1D
100
AcDbEntity
  8
0
100
AcDbLine
 10
245.72515
 20
1083.2215
 30
0.0
 11
245.85215
 21
1083.1325
 31
0.0
  0
LINE
  5
16ED
330
1D
100
AcDbEntity
  8
0
100
AcDbLine
 10
245.72515
 20
1083.2215
 30
0.0
 11
246.046444775711
 21
1083.68033246958
 31
0.0
  0
LINE
  5
16EE
330
1D
100
AcDbEntity
  8
0
100
AcDbLine
 10
245.72515
 20
1083.2215
 30
0.0
 11
246.272219742512
 21
1084.0027556567
 31
0.0
  0
LINE
  5
16EF
330
1D
100
AcDbEntity
  8
0
100
AcDbLine
 10
245.85215
 20
1083.1325
 30
0.0
 11
246.38315
 21
1082.7605
 31
0.0
  0
LINE
  5
16F0
330
1D
100
AcDbEntity
  8
0
100
AcDbLine
 10
245.85215
 20
1083.1325
 30
0.0
 11
246.39467265175
 21
1083.90658719823
 31
0.0
  0
LINE
  5
16F1
330
1D
100
AcDbEntity
  8
0
100
AcDbLine
 10
246.66415
 20
1082.5635
 30
0.0
 11
247.19415
 21
1082.1925
 31
0.0
  0
LINE
  5
16F2
330
1D
100
AcDbEntity
  8
0
100
AcDbLine
 10
246.679439340184
 20
1082.98293654817
 30
0.0
 11
246.89715
 21
1082.8305
 31
0.0
  0
LINE
  5
16F3
330
1D
100
AcDbEntity
  8
0
100
AcDbLine
 10
246.89715
 20
1082.8305
 30
0.0
 11
247.144598275814
 21
1082.65753448279
 31
0.0
  0
LINE
  5
16F4
330
1D
100
AcDbEntity
  8
0
100
AcDbLine
 10
246.679439340184
 20
1082.98293654817
 30
0.0
 11
246.89715
 21
1082.8305
 31
0.0
  0
LINE
  5
16F5
330
1D
100
AcDbEntity
  8
0
100
AcDbLine
 10
246.44115
 20
1083.1495
 30
0.0
 11
247.03915
 21
1082.7315
 31
0.0
  0
LINE
  5
16F6
330
1D
100
AcDbEntity
  8
0
100
AcDbLine
 10
246.44115
 20
1083.1495
 30
0.0
 11
247.088138331787
 21
1084.07264188804
 31
0.0
  0
LINE
  5
16F7
330
1D
100
AcDbEntity
  8
0
100
AcDbLine
 10
247.03915
 20
1082.7315
 30
0.0
 11
247.59515
 21
1082.3415
 31
0.0
  0
LINE
  5
16F8
330
1D
100
AcDbEntity
  8
0
100
AcDbLine
 10
247.03915
 20
1082.7315
 30
0.0
 11
247.685395492724
 21
1083.65438589109
 31
0.0
  0
LINE
  5
16F9
330
1D
100
AcDbEntity
  8
0
100
AcDbLine
 10
246.481149999998
 20
1082.6919
 30
0.0
 11
246.66415
 21
1082.5635
 31
0.0
  0
LINE
  5
16FA
330
1D
100
AcDbEntity
  8
0
100
AcDbLine
 10
246.38315
 20
1082.7605
 30
0.0
 11
246.481149999998
 21
1082.6919
 31
0.0
  0
LINE
  5
16FB
330
1D
100
AcDbEntity
  8
0
100
AcDbLine
 10
246.38315
 20
1082.7605
 30
0.0
 11
246.481149999998
 21
1082.6919
 31
0.0
  0
LINE
  5
16FC
330
1D
100
AcDbEntity
  8
0
100
AcDbLine
 10
246.38315
 20
1082.7605
 30
0.0
 11
246.99315
 21
1082.3335
 31
0.0
  0
LINE
  5
16FD
330
1D
100
AcDbEntity
  8
0
100
AcDbLine
 10
246.38315
 20
1082.7605
 30
0.0
 11
246.585007879866
 21
1083.0489438231
 31
0.0
  0
LINE
  5
16FE
330
1D
100
AcDbEntity
  8
0
100
AcDbLine
 10
247.523836014883
 20
1082.39152239963
 30
0.0
 11
247.59515
 21
1082.3415
 31
0.0
  0
LINE
  5
16FF
330
1D
100
AcDbEntity
  8
0
100
AcDbLine
 10
247.83124487561
 20
1082.29417951722
 30
0.0
 11
248.216793799852
 21
1082.00462427564
 31
0.0
  0
LINE
  5
1700
330
1D
100
AcDbEntity
  8
0
100
AcDbLine
 10
247.77615
 20
1082.2155
 30
0.0
 11
248.422340445805
 21
1083.13830728006
 31
0.0
  0
LINE
  5
1701
330
1D
100
AcDbEntity
  8
0
100
AcDbLine
 10
247.76715
 20
1081.3625
 30
0.0
 11
247.90915
 21
1081.2625
 31
0.0
  0
LINE
  5
1702
330
1D
100
AcDbEntity
  8
0
100
AcDbLine
 10
247.76715
 20
1081.3625
 30
0.0
 11
248.234247101133
 21
1082.02954886805
 31
0.0
  0
LINE
  5
1703
330
1D
100
AcDbEntity
  8
0
100
AcDbLine
 10
247.76715
 20
1081.3625
 30
0.0
 11
248.10815
 21
1081.1225
 31
0.0
  0
LINE
  5
1704
330
1D
100
AcDbEntity
  8
0
100
AcDbLine
 10
247.76715
 20
1081.3625
 30
0.0
 11
248.243512094552
 21
1082.04277995717
 31
0.0
  0
LINE
  5
1705
330
1D
100
AcDbEntity
  8
0
100
AcDbLine
 10
242.819925193807
 20
1085.25588242893
 30
0.0
 11
243.01315
 21
1085.1205
 31
0.0
  0
LINE
  5
1706
330
1D
100
AcDbEntity
  8
0
100
AcDbLine
 10
243.503278578344
 20
1084.77766394779
 30
0.0
 11
243.551468900529
 21
1084.74395569134
 31
0.0
  0
LINE
  5
1707
330
1D
100
AcDbEntity
  8
0
100
AcDbLine
 10
243.57015
 20
1084.7305
 30
0.0
 11
244.03515
 21
1084.4045
 31
0.0
  0
LINE
  5
1708
330
1D
100
AcDbEntity
  8
0
100
AcDbLine
 10
243.57015
 20
1084.7305
 30
0.0
 11
243.772140825688
 21
1085.01870642202
 31
0.0
  0
LINE
  5
1709
330
1D
100
AcDbEntity
  8
0
100
AcDbLine
 10
243.83815
 20
1084.9725
 30
0.0
 11
244.464394782169
 21
1085.86682341168
 31
0.0
  0
LINE
  5
170A
330
1D
100
AcDbEntity
  8
0
100
AcDbLine
 10
243.65815
 20
1085.0985
 30
0.0
 11
243.83815
 21
1084.9725
 31
0.0
  0
LINE
  5
170B
330
1D
100
AcDbEntity
  8
0
100
AcDbLine
 10
243.55115
 20
1084.7435
 30
0.0
 11
243.757076910259
 21
1084.59945016614
 31
0.0
  0
LINE
  5
170C
330
1D
100
AcDbEntity
  8
0
100
AcDbLine
 10
243.55115
 20
1084.7435
 30
0.0
 11
243.757076910259
 21
1084.59945016614
 31
0.0
  0
LINE
  5
170D
330
1D
100
AcDbEntity
  8
0
100
AcDbLine
 10
243.55115
 20
1084.7435
 30
0.0
 11
243.753080996355
 21
1085.03204830255
 31
0.0
  0
LINE
  5
170E
330
1D
100
AcDbEntity
  8
0
100
AcDbLine
 10
243.757076910259
 20
1084.59945016614
 30
0.0
 11
244.03515
 21
1084.4045
 31
0.0
  0
LINE
  5
170F
330
1D
100
AcDbEntity
  8
0
100
AcDbLine
 10
244.03515
 20
1084.4045
 30
0.0
 11
244.65915
 21
1083.9675
 31
0.0
  0
LINE
  5
1710
330
1D
100
AcDbEntity
  8
0
100
AcDbLine
 10
244.03515
 20
1084.4045
 30
0.0
 11
244.580995548724
 21
1085.18332840489
 31
0.0
  0
LINE
  5
1711
330
1D
100
AcDbEntity
  8
0
100
AcDbLine
 10
243.50315
 20
1084.7775
 30
0.0
 11
243.551414303984
 21
1084.74387767588
 31
0.0
  0
LINE
  5
1712
330
1D
100
AcDbEntity
  8
0
100
AcDbLine
 10
243.50315
 20
1084.7775
 30
0.0
 11
243.70497576099
 21
1085.06572196731
 31
0.0
  0
LINE
  5
1713
330
1D
100
AcDbEntity
  8
0
100
AcDbLine
 10
243.55715
 20
1085.1695
 30
0.0
 11
243.83815
 21
1084.9725
 31
0.0
  0
LINE
  5
1714
330
1D
100
AcDbEntity
  8
0
100
AcDbLine
 10
243.55715
 20
1085.1695
 30
0.0
 11
244.200250770984
 21
1086.08789499814
 31
0.0
  0
LINE
  5
1715
330
1D
100
AcDbEntity
  8
0
100
AcDbLine
 10
243.01315
 20
1085.1205
 30
0.0
 11
243.50315
 21
1084.7775
 31
0.0
  0
LINE
  5
1716
330
1D
100
AcDbEntity
  8
0
100
AcDbLine
 10
243.01315
 20
1085.1205
 30
0.0
 11
243.214930486424
 21
1085.40883323213
 31
0.0
  0
LINE
  5
1717
330
1D
100
AcDbEntity
  8
0
100
AcDbLine
 10
242.819925193807
 20
1085.25588242893
 30
0.0
 11
243.01315
 21
1085.1205
 31
0.0
  0
LINE
  5
1718
330
1D
100
AcDbEntity
  8
0
100
AcDbLine
 10
242.39515
 20
1085.5535
 30
0.0
 11
243.01315
 21
1085.1205
 31
0.0
  0
LINE
  5
1719
330
1D
100
AcDbEntity
  8
0
100
AcDbLine
 10
242.39515
 20
1085.5535
 30
0.0
 11
242.596874480763
 21
1085.84157733173
 31
0.0
  0
LINE
  5
171A
330
1D
100
AcDbEntity
  8
0
100
AcDbLine
 10
242.238435714353
 20
1085.66249999995
 30
0.0
 11
242.65415
 21
1085.3715
 31
0.0
  0
LINE
  5
171B
330
1D
100
AcDbEntity
  8
0
100
AcDbLine
 10
242.58915
 20
1085.4175
 30
0.0
 11
242.742566216375
 21
1085.31008378367
 31
0.0
  0
LINE
  5
171C
330
1D
100
AcDbEntity
  8
0
100
AcDbLine
 10
242.554150000156
 20
1085.44149999989
 30
0.0
 11
242.65415
 21
1085.3715
 31
0.0
  0
LINE
  5
171D
330
1D
100
AcDbEntity
  8
0
100
AcDbLine
 10
243.10115
 20
1085.4885
 30
0.0
 11
243.65815
 21
1085.0985
 31
0.0
  0
LINE
  5
171E
330
1D
100
AcDbEntity
  8
0
100
AcDbLine
 10
242.96015
 20
1085.5875
 30
0.0
 11
243.55715
 21
1085.1695
 31
0.0
  0
LINE
  5
171F
330
1D
100
AcDbEntity
  8
0
100
AcDbLine
 10
242.96015
 20
1085.5875
 30
0.0
 11
243.606593984707
 21
1086.51066935218
 31
0.0
  0
LINE
  5
1720
330
1D
100
AcDbEntity
  8
0
100
AcDbLine
 10
242.65415
 20
1085.3715
 30
0.0
 11
242.819925193807
 21
1085.25588242893
 31
0.0
  0
LINE
  5
1721
330
1D
100
AcDbEntity
  8
0
100
AcDbLine
 10
242.65415
 20
1085.3715
 30
0.0
 11
242.819925193807
 21
1085.25588242893
 31
0.0
  0
LINE
  5
1722
330
1D
100
AcDbEntity
  8
0
100
AcDbLine
 10
242.238435714353
 20
1085.66249999995
 30
0.0
 11
242.65415
 21
1085.3715
 31
0.0
  0
LINE
  5
1723
330
1D
100
AcDbEntity
  8
0
100
AcDbLine
 10
245.423957408374
 20
1084.17492662801
 30
0.0
 11
246.046444775711
 21
1083.68033246958
 31
0.0
  0
LINE
  5
1724
330
1D
100
AcDbEntity
  8
0
100
AcDbLine
 10
249.03815
 20
1080.4715
 30
0.0
 11
249.38015
 21
1080.2325
 31
0.0
  0
LINE
  5
1725
330
1D
100
AcDbEntity
  8
0
100
AcDbLine
 10
248.71615
 20
1080.6975
 30
0.0
 11
249.23815
 21
1080.3325
 31
0.0
  0
LINE
  5
1726
330
1D
100
AcDbEntity
  8
0
100
AcDbLine
 10
248.71615
 20
1080.6975
 30
0.0
 11
248.917772853673
 21
1080.9854322008
 31
0.0
  0
LINE
  5
1727
330
1D
100
AcDbEntity
  8
0
100
AcDbLine
 10
248.43115
 20
1080.8965
 30
0.0
 11
249.03815
 21
1080.4715
 31
0.0
  0
LINE
  5
1728
330
1D
100
AcDbEntity
  8
0
100
AcDbLine
 10
249.36515
 20
1080.6725
 30
0.0
 11
249.94515
 21
1080.2665
 31
0.0
  0
LINE
  5
1729
330
1D
100
AcDbEntity
  8
0
100
AcDbLine
 10
249.36515
 20
1080.6725
 30
0.0
 11
249.962650405027
 21
1081.52503106571
 31
0.0
  0
LINE
  5
172A
330
1D
100
AcDbEntity
  8
0
100
AcDbLine
 10
249.58197576099
 20
1080.52072196731
 30
0.0
 11
249.94515
 21
1080.2665
 31
0.0
  0
LINE
  5
172B
330
1D
100
AcDbEntity
  8
0
100
AcDbLine
 10
248.78615
 20
1081.0775
 30
0.0
 11
249.36515
 21
1080.6725
 31
0.0
  0
LINE
  5
172C
330
1D
100
AcDbEntity
  8
0
100
AcDbLine
 10
248.78615
 20
1081.0775
 30
0.0
 11
249.407260201358
 21
1081.96503236271
 31
0.0
  0
LINE
  5
172D
330
1D
100
AcDbEntity
  8
0
100
AcDbLine
 10
248.328751769854
 20
1080.96829646022
 30
0.0
 11
248.43115
 21
1080.8965
 31
0.0
  0
LINE
  5
172E
330
1D
100
AcDbEntity
  8
0
100
AcDbLine
 10
248.328751769853
 20
1080.96829646022
 30
0.0
 11
248.43115
 21
1080.8965
 31
0.0
  0
LINE
  5
172F
330
1D
100
AcDbEntity
  8
0
100
AcDbLine
 10
248.55515
 20
1081.2405
 30
0.0
 11
248.78615
 21
1081.0775
 31
0.0
  0
LINE
  5
1730
330
1D
100
AcDbEntity
  8
0
100
AcDbLine
 10
248.55515
 20
1081.2405
 30
0.0
 11
249.086107615333
 21
1081.99874635912
 31
0.0
  0
LINE
  5
1731
330
1D
100
AcDbEntity
  8
0
100
AcDbLine
 10
247.931175316509
 20
1081.24705696199
 30
0.0
 11
248.10815
 21
1081.1225
 31
0.0
  0
LINE
  5
1732
330
1D
100
AcDbEntity
  8
0
100
AcDbLine
 10
248.10815
 20
1081.1225
 30
0.0
 11
248.328751769854
 21
1080.96829646022
 31
0.0
  0
LINE
  5
1733
330
1D
100
AcDbEntity
  8
0
100
AcDbLine
 10
248.10815
 20
1081.1225
 30
0.0
 11
248.71615
 21
1080.6975
 31
0.0
  0
LINE
  5
1734
330
1D
100
AcDbEntity
  8
0
100
AcDbLine
 10
248.10815
 20
1081.1225
 30
0.0
 11
248.584862402896
 21
1081.80369583988
 31
0.0
  0
LINE
  5
1735
330
1D
100
AcDbEntity
  8
0
100
AcDbLine
 10
247.83124487561
 20
1082.29417951722
 30
0.0
 11
248.216793799852
 21
1082.00462427564
 31
0.0
  0
LINE
  5
1736
330
1D
100
AcDbEntity
  8
0
100
AcDbLine
 10
250.372952861911
 20
1080.38530408346
 30
0.0
 11
250.422109128836
 21
1080.34838670709
 31
0.0
  0
LINE
  5
1737
330
1D
100
AcDbEntity
  8
0
100
AcDbLine
 10
253.42315
 20
1077.8305
 30
0.0
 11
253.55115
 21
1077.7415
 31
0.0
  0
LINE
  5
1738
330
1D
100
AcDbEntity
  8
0
100
AcDbLine
 10
253.42315
 20
1077.8305
 30
0.0
 11
254.015919289269
 21
1078.67679692083
 31
0.0
  0
LINE
  5
1739
330
1D
100
AcDbEntity
  8
0
100
AcDbLine
 10
255.65615
 20
1075.5375
 30
0.0
 11
255.797263564669
 21
1075.73902050473
 31
0.0
  0
LINE
  5
173A
330
1D
100
AcDbEntity
  8
0
100
AcDbLine
 10
256.49115
 20
1074.9525
 30
0.0
 11
256.72215
 21
1074.7905
 31
0.0
  0
LINE
  5
173B
330
1D
100
AcDbEntity
  8
0
100
AcDbLine
 10
256.49115
 20
1074.9525
 30
0.0
 11
256.834468969824
 21
1075.44278463171
 31
0.0
  0
LINE
  5
173C
330
1D
100
AcDbEntity
  8
0
100
AcDbLine
 10
256.72215
 20
1074.7905
 30
0.0
 11
257.30215
 21
1074.3845
 31
0.0
  0
LINE
  5
173D
330
1D
100
AcDbEntity
  8
0
100
AcDbLine
 10
256.72215
 20
1074.7905
 30
0.0
 11
257.0657026825
 21
1075.28069102259
 31
0.0
  0
LINE
  5
173E
330
1D
100
AcDbEntity
  8
0
100
AcDbLine
 10
257.30215
 20
1074.3845
 30
0.0
 11
257.88115
 21
1073.9795
 31
0.0
  0
LINE
  5
173F
330
1D
100
AcDbEntity
  8
0
100
AcDbLine
 10
257.30215
 20
1074.3845
 30
0.0
 11
257.786530020312
 21
1075.07665244402
 31
0.0
  0
LINE
  5
1740
330
1D
100
AcDbEntity
  8
0
100
AcDbLine
 10
256.85915
 20
1075.4255
 30
0.0
 11
257.32415
 21
1075.0995
 31
0.0
  0
LINE
  5
1741
330
1D
100
AcDbEntity
  8
0
100
AcDbLine
 10
256.85915
 20
1075.4255
 30
0.0
 11
257.060725226477
 21
1075.71336418568
 31
0.0
  0
LINE
  5
1742
330
1D
100
AcDbEntity
  8
0
100
AcDbLine
 10
257.32415
 20
1075.0995
 30
0.0
 11
257.832309079492
 21
1075.8256314135
 31
0.0
  0
LINE
  5
1743
330
1D
100
AcDbEntity
  8
0
100
AcDbLine
 10
257.34415
 20
1075.0865
 30
0.0
 11
257.851072666985
 21
1075.81042269269
 31
0.0
  0
LINE
  5
1744
330
1D
100
AcDbEntity
  8
0
100
AcDbLine
 10
257.34615
 20
1075.5135
 30
0.0
 11
257.992701060452
 21
1076.43738595299
 31
0.0
  0
LINE
  5
1745
330
1D
100
AcDbEntity
  8
0
100
AcDbLine
 10
257.108816666622
 20
1074.51983333336
 30
0.0
 11
257.18615
 21
1074.4655
 31
0.0
  0
LINE
  5
1746
330
1D
100
AcDbEntity
  8
0
100
AcDbLine
 10
257.18615
 20
1074.4655
 30
0.0
 11
257.76515
 21
1074.0605
 31
0.0
  0
LINE
  5
1747
330
1D
100
AcDbEntity
  8
0
100
AcDbLine
 10
256.727149999993
 20
1075.5179423077
 30
0.0
 11
256.834468969824
 21
1075.44278463171
 31
0.0
  0
LINE
  5
1748
330
1D
100
AcDbEntity
  8
0
100
AcDbLine
 10
255.81515
 20
1075.7265
 30
0.0
 11
256.0170268563
 21
1076.01479493515
 31
0.0
  0
LINE
  5
1749
330
1D
100
AcDbEntity
  8
0
100
AcDbLine
 10
253.55115
 20
1077.7415
 30
0.0
 11
254.132625079422
 21
1078.57188899747
 31
0.0
  0
LINE
  5
174A
330
1D
100
AcDbEntity
  8
0
100
AcDbLine
 10
253.97715
 20
1076.7125
 30
0.0
 11
254.39315
 21
1076.4215
 31
0.0
  0
LINE
  5
174B
330
1D
100
AcDbEntity
  8
0
100
AcDbLine
 10
253.97715
 20
1076.7125
 30
0.0
 11
254.466410314092
 21
1077.41059093596
 31
0.0
  0
LINE
  5
174C
330
1D
100
AcDbEntity
  8
0
100
AcDbLine
 10
254.991149999973
 20
1076.00276003212
 30
0.0
 11
255.17115
 21
1075.8765
 31
0.0
  0
LINE
  5
174D
330
1D
100
AcDbEntity
  8
0
100
AcDbLine
 10
254.991149999973
 20
1076.00276003212
 30
0.0
 11
255.17115
 21
1075.8765
 31
0.0
  0
LINE
  5
174E
330
1D
100
AcDbEntity
  8
0
100
AcDbLine
 10
254.883674064066
 20
1076.0779759359
 30
0.0
 11
255.01715
 21
1075.9845
 31
0.0
  0
LINE
  5
174F
330
1D
100
AcDbEntity
  8
0
100
AcDbLine
 10
255.24015
 20
1075.8285
 30
0.0
 11
255.65615
 21
1075.5375
 31
0.0
  0
LINE
  5
1750
330
1D
100
AcDbEntity
  8
0
100
AcDbLine
 10
255.24015
 20
1075.8285
 30
0.0
 11
255.38137895559
 21
1076.03018529142
 31
0.0
  0
LINE
  5
1751
330
1D
100
AcDbEntity
  8
0
100
AcDbLine
 10
255.63515
 20
1075.8525
 30
0.0
 11
255.81515
 21
1075.7265
 31
0.0
  0
LINE
  5
1752
330
1D
100
AcDbEntity
  8
0
100
AcDbLine
 10
255.63515
 20
1075.8525
 30
0.0
 11
255.837034024735
 21
1076.14098118269
 31
0.0
  0
LINE
  5
1753
330
1D
100
AcDbEntity
  8
0
100
AcDbLine
 10
255.17115
 20
1075.8765
 30
0.0
 11
255.63615
 21
1075.5505
 31
0.0
  0
LINE
  5
1754
330
1D
100
AcDbEntity
  8
0
100
AcDbLine
 10
254.13215
 20
1076.6045
 30
0.0
 11
254.273367805219
 21
1076.80616936787
 31
0.0
  0
LINE
  5
1755
330
1D
100
AcDbEntity
  8
0
100
AcDbLine
 10
254.15215
 20
1076.5905
 30
0.0
 11
254.61715
 21
1076.2645
 31
0.0
  0
LINE
  5
1756
330
1D
100
AcDbEntity
  8
0
100
AcDbLine
 10
254.15215
 20
1076.5905
 30
0.0
 11
254.293357776614
 21
1076.79215504629
 31
0.0
  0
LINE
  5
1757
330
1D
100
AcDbEntity
  8
0
100
AcDbLine
 10
254.20015
 20
1076.8575
 30
0.0
 11
254.48115
 21
1076.6605
 31
0.0
  0
LINE
  5
1758
330
1D
100
AcDbEntity
  8
0
100
AcDbLine
 10
254.20015
 20
1076.8575
 30
0.0
 11
254.6766399822
 21
1077.53837801293
 31
0.0
  0
LINE
  5
1759
330
1D
100
AcDbEntity
  8
0
100
AcDbLine
 10
254.61715
 20
1076.2645
 30
0.0
 11
255.24015
 21
1075.8285
 31
0.0
  0
LINE
  5
175A
330
1D
100
AcDbEntity
  8
0
100
AcDbLine
 10
254.61715
 20
1076.2645
 30
0.0
 11
254.758418818989
 21
1076.46636538302
 31
0.0
  0
LINE
  5
175B
330
1D
100
AcDbEntity
  8
0
100
AcDbLine
 10
255.07815
 20
1076.2425
 30
0.0
 11
255.63515
 21
1075.8525
 31
0.0
  0
LINE
  5
175C
330
1D
100
AcDbEntity
  8
0
100
AcDbLine
 10
255.07815
 20
1076.2425
 30
0.0
 11
255.554899564564
 21
1076.92333329273
 31
0.0
  0
LINE
  5
175D
330
1D
100
AcDbEntity
  8
0
100
AcDbLine
 10
255.83915
 20
1076.1395
 30
0.0
 11
256.30415
 21
1075.8135
 31
0.0
  0
LINE
  5
175E
330
1D
100
AcDbEntity
  8
0
100
AcDbLine
 10
255.81915
 20
1076.1535
 30
0.0
 11
256.23515
 21
1075.8625
 31
0.0
  0
LINE
  5
175F
330
1D
100
AcDbEntity
  8
0
100
AcDbLine
 10
255.81915
 20
1076.1535
 30
0.0
 11
256.021117265062
 21
1076.44167280503
 31
0.0
  0
LINE
  5
1760
330
1D
100
AcDbEntity
  8
0
100
AcDbLine
 10
254.48115
 20
1076.6605
 30
0.0
 11
255.07815
 21
1076.2425
 31
0.0
  0
LINE
  5
1761
330
1D
100
AcDbEntity
  8
0
100
AcDbLine
 10
254.48115
 20
1076.6605
 30
0.0
 11
254.957741355658
 21
1077.34152287003
 31
0.0
  0
LINE
  5
1762
330
1D
100
AcDbEntity
  8
0
100
AcDbLine
 10
255.80715
 20
1076.5915
 30
0.0
 11
256.23415
 21
1076.2925
 31
0.0
  0
LINE
  5
1763
330
1D
100
AcDbEntity
  8
0
100
AcDbLine
 10
255.80715
 20
1076.5915
 30
0.0
 11
256.453461409023
 21
1077.51504350426
 31
0.0
  0
LINE
  5
1764
330
1D
100
AcDbEntity
  8
0
100
AcDbLine
 10
255.84215
 20
1076.5675
 30
0.0
 11
256.29615
 21
1076.2495
 31
0.0
  0
LINE
  5
1765
330
1D
100
AcDbEntity
  8
0
100
AcDbLine
 10
255.84215
 20
1076.5675
 30
0.0
 11
256.488489209185
 21
1077.49051972506
 31
0.0
  0
LINE
  5
1766
330
1D
100
AcDbEntity
  8
0
100
AcDbLine
 10
254.39315
 20
1076.4215
 30
0.0
 11
254.44728698634
 21
1076.38358675796
 31
0.0
  0
LINE
  5
1767
330
1D
100
AcDbEntity
  8
0
100
AcDbLine
 10
254.39315
 20
1076.4215
 30
0.0
 11
254.44728698634
 21
1076.38358675796
 31
0.0
  0
LINE
  5
1768
330
1D
100
AcDbEntity
  8
0
100
AcDbLine
 10
254.883674064066
 20
1076.0779759359
 30
0.0
 11
255.01715
 21
1075.9845
 31
0.0
  0
LINE
  5
1769
330
1D
100
AcDbEntity
  8
0
100
AcDbLine
 10
256.91915
 20
1075.8125
 30
0.0
 11
257.34615
 21
1075.5135
 31
0.0
  0
LINE
  5
176A
330
1D
100
AcDbEntity
  8
0
100
AcDbLine
 10
256.91915
 20
1075.8125
 30
0.0
 11
257.56567882117
 21
1076.73635417428
 31
0.0
  0
LINE
  5
176B
330
1D
100
AcDbEntity
  8
0
100
AcDbLine
 10
256.23515
 20
1075.8625
 30
0.0
 11
256.85915
 21
1075.4255
 31
0.0
  0
LINE
  5
176C
330
1D
100
AcDbEntity
  8
0
100
AcDbLine
 10
256.23515
 20
1075.8625
 30
0.0
 11
256.436897071814
 21
1076.1506095934
 31
0.0
  0
LINE
  5
176D
330
1D
100
AcDbEntity
  8
0
100
AcDbLine
 10
256.23415
 20
1076.2925
 30
0.0
 11
256.539149999943
 21
1076.0790489567
 31
0.0
  0
LINE
  5
176E
330
1D
100
AcDbEntity
  8
0
100
AcDbLine
 10
256.29615
 20
1076.2495
 30
0.0
 11
256.91915
 21
1075.8125
 31
0.0
  0
LINE
  5
176F
330
1D
100
AcDbEntity
  8
0
100
AcDbLine
 10
256.29615
 20
1076.2495
 30
0.0
 11
256.94293493792
 21
1077.17235167972
 31
0.0
  0
LINE
  5
1770
330
1D
100
AcDbEntity
  8
0
100
AcDbLine
 10
256.30415
 20
1075.8135
 30
0.0
 11
256.727149999993
 21
1075.5179423077
 31
0.0
  0
LINE
  5
1771
330
1D
100
AcDbEntity
  8
0
100
AcDbLine
 10
256.0170268563
 20
1076.01479493515
 30
0.0
 11
256.30415
 21
1075.8135
 31
0.0
  0
LINE
  5
1772
330
1D
100
AcDbEntity
  8
0
100
AcDbLine
 10
256.58115
 20
1075.6195
 30
0.0
 11
256.834199311432
 21
1075.44239953978
 31
0.0
  0
LINE
  5
1773
330
1D
100
AcDbEntity
  8
0
100
AcDbLine
 10
256.58115
 20
1075.6195
 30
0.0
 11
257.32415
 21
1075.0995
 31
0.0
  0
LINE
  5
1774
330
1D
100
AcDbEntity
  8
0
100
AcDbLine
 10
252.384578571322
 20
1078.55850000007
 30
0.0
 11
252.795150000043
 21
1078.27109999997
 31
0.0
  0
LINE
  5
1775
330
1D
100
AcDbEntity
  8
0
100
AcDbLine
 10
253.25046557375
 20
1077.95170491805
 30
0.0
 11
253.42315
 21
1077.8305
 31
0.0
  0
LINE
  5
1776
330
1D
100
AcDbEntity
  8
0
100
AcDbLine
 10
252.89315
 20
1078.2025
 30
0.0
 11
253.42315
 21
1077.8305
 31
0.0
  0
LINE
  5
1777
330
1D
100
AcDbEntity
  8
0
100
AcDbLine
 10
252.89315
 20
1078.2025
 30
0.0
 11
253.530698700144
 21
1079.11296623438
 31
0.0
  0
LINE
  5
1778
330
1D
100
AcDbEntity
  8
0
100
AcDbLine
 10
252.795150000043
 20
1078.27109999997
 30
0.0
 11
253.22215
 21
1077.9715
 31
0.0
  0
LINE
  5
1779
330
1D
100
AcDbEntity
  8
0
100
AcDbLine
 10
252.795150000043
 20
1078.27109999997
 30
0.0
 11
253.22215
 21
1077.9715
 31
0.0
  0
LINE
  5
177A
330
1D
100
AcDbEntity
  8
0
100
AcDbLine
 10
252.28315
 20
1078.6295
 30
0.0
 11
252.89315
 21
1078.2025
 31
0.0
  0
LINE
  5
177B
330
1D
100
AcDbEntity
  8
0
100
AcDbLine
 10
252.28315
 20
1078.6295
 30
0.0
 11
252.972582894278
 21
1079.61466173821
 31
0.0
  0
LINE
  5
177C
330
1D
100
AcDbEntity
  8
0
100
AcDbLine
 10
252.31315
 20
1079.0385
 30
0.0
 11
252.95936475724
 21
1079.96134199857
 31
0.0
  0
LINE
  5
177D
330
1D
100
AcDbEntity
  8
0
100
AcDbLine
 10
252.23915
 20
1079.0905
 30
0.0
 11
252.31315
 21
1079.0385
 31
0.0
  0
LINE
  5
177E
330
1D
100
AcDbEntity
  8
0
100
AcDbLine
 10
252.23915
 20
1079.0905
 30
0.0
 11
252.885275068407
 21
1080.01321391635
 31
0.0
  0
LINE
  5
177F
330
1D
100
AcDbEntity
  8
0
100
AcDbLine
 10
252.08115
 20
1078.7705
 30
0.0
 11
252.384578571322
 21
1078.55850000007
 31
0.0
  0
LINE
  5
1780
330
1D
100
AcDbEntity
  8
0
100
AcDbLine
 10
252.08115
 20
1078.7705
 30
0.0
 11
252.384578571322
 21
1078.55850000007
 31
0.0
  0
LINE
  5
1781
330
1D
100
AcDbEntity
  8
0
100
AcDbLine
 10
251.95415
 20
1078.8595
 30
0.0
 11
252.08115
 21
1078.7705
 31
0.0
  0
LINE
  5
1782
330
1D
100
AcDbEntity
  8
0
100
AcDbLine
 10
251.95415
 20
1078.8595
 30
0.0
 11
252.28315
 21
1078.6295
 31
0.0
  0
LINE
  5
1783
330
1D
100
AcDbEntity
  8
0
100
AcDbLine
 10
251.95415
 20
1078.8595
 30
0.0
 11
252.156111099487
 21
1079.14809131827
 31
0.0
  0
LINE
  5
1784
330
1D
100
AcDbEntity
  8
0
100
AcDbLine
 10
252.384578571322
 20
1078.55850000007
 30
0.0
 11
252.795150000043
 21
1078.27109999997
 31
0.0
  0
LINE
  5
1785
330
1D
100
AcDbEntity
  8
0
100
AcDbLine
 10
253.25046557375
 20
1077.95170491805
 30
0.0
 11
253.42315
 21
1077.8305
 31
0.0
  0
LINE
  5
1786
330
1D
100
AcDbEntity
  8
0
100
AcDbLine
 10
253.66904858202
 20
1077.90986780937
 30
0.0
 11
254.499925170016
 21
1077.28586225253
 31
0.0
  0
LINE
  5
1787
330
1D
100
AcDbEntity
  8
0
100
AcDbLine
 10
251.951810331071
 20
1079.19954936556
 30
0.0
 11
252.109332352941
 21
1079.08124705882
 31
0.0
  0
LINE
  5
1788
330
1D
100
AcDbEntity
  8
0
100
AcDbLine
 10
258.459512039915
 20
1074.31213035866
 30
0.0
 11
259.09815
 21
1073.8325
 31
0.0
  0
LINE
  5
1789
330
1D
100
AcDbEntity
  8
0
100
AcDbLine
 10
260.88015
 20
1071.6075
 30
0.0
 11
261.237587288021
 21
1071.35756779669
 31
0.0
  0
LINE
  5
178A
330
1D
100
AcDbEntity
  8
0
100
AcDbLine
 10
260.934149999965
 20
1071.56974137933
 30
0.0
 11
261.14415
 21
1071.4225
 31
0.0
  0
LINE
  5
178B
330
1D
100
AcDbEntity
  8
0
100
AcDbLine
 10
261.68615
 20
1071.0435
 30
0.0
 11
262.20815
 21
1070.6775
 31
0.0
  0
LINE
  5
178C
330
1D
100
AcDbEntity
  8
0
100
AcDbLine
 10
261.68615
 20
1071.0435
 30
0.0
 11
262.144733842025
 21
1071.69839131058
 31
0.0
  0
LINE
  5
178D
330
1D
100
AcDbEntity
  8
0
100
AcDbLine
 10
261.76215
 20
1071.2615
 30
0.0
 11
262.202803085946
 21
1071.89078487775
 31
0.0
  0
LINE
  5
178E
330
1D
100
AcDbEntity
  8
0
100
AcDbLine
 10
261.78215
 20
1071.2475
 30
0.0
 11
262.22191263924
 21
1071.87589665712
 31
0.0
  0
LINE
  5
178F
330
1D
100
AcDbEntity
  8
0
100
AcDbLine
 10
261.75115
 20
1070.9975
 30
0.0
 11
261.934541304345
 21
1070.86934057971
 31
0.0
  0
LINE
  5
1790
330
1D
100
AcDbEntity
  8
0
100
AcDbLine
 10
261.75115
 20
1070.9975
 30
0.0
 11
261.934541304345
 21
1070.86934057971
 31
0.0
  0
LINE
  5
1791
330
1D
100
AcDbEntity
  8
0
100
AcDbLine
 10
261.29715
 20
1071.5875
 30
0.0
 11
261.76215
 21
1071.2615
 31
0.0
  0
LINE
  5
1792
330
1D
100
AcDbEntity
  8
0
100
AcDbLine
 10
261.29715
 20
1071.5875
 30
0.0
 11
261.754240735848
 21
1072.24025904561
 31
0.0
  0
LINE
  5
1793
330
1D
100
AcDbEntity
  8
0
100
AcDbLine
 10
261.07915
 20
1071.4685
 30
0.0
 11
261.68615
 21
1071.0435
 31
0.0
  0
LINE
  5
1794
330
1D
100
AcDbEntity
  8
0
100
AcDbLine
 10
261.07915
 20
1071.4685
 30
0.0
 11
261.206722709045
 21
1071.65068317124
 31
0.0
  0
LINE
  5
1795
330
1D
100
AcDbEntity
  8
0
100
AcDbLine
 10
261.14415
 20
1071.4225
 30
0.0
 11
261.75115
 21
1070.9975
 31
0.0
  0
LINE
  5
1796
330
1D
100
AcDbEntity
  8
0
100
AcDbLine
 10
260.934149999965
 20
1071.56974137934
 30
0.0
 11
261.14415
 21
1071.4225
 31
0.0
  0
LINE
  5
1797
330
1D
100
AcDbEntity
  8
0
100
AcDbLine
 10
260.27715
 20
1072.3015
 30
0.0
 11
260.525782652992
 21
1072.12718979597
 31
0.0
  0
LINE
  5
1798
330
1D
100
AcDbEntity
  8
0
100
AcDbLine
 10
260.25815
 20
1072.3155
 30
0.0
 11
260.67315
 21
1072.0235
 31
0.0
  0
LINE
  5
1799
330
1D
100
AcDbEntity
  8
0
100
AcDbLine
 10
260.25815
 20
1072.3155
 30
0.0
 11
260.399076651655
 21
1072.51675357926
 31
0.0
  0
LINE
  5
179A
330
1D
100
AcDbEntity
  8
0
100
AcDbLine
 10
259.93015
 20
1072.8455
 30
0.0
 11
260.38515
 21
1072.5265
 31
0.0
  0
LINE
  5
179B
330
1D
100
AcDbEntity
  8
0
100
AcDbLine
 10
259.93015
 20
1072.8455
 30
0.0
 11
260.132021259653
 21
1073.13378694273
 31
0.0
  0
LINE
  5
179C
330
1D
100
AcDbEntity
  8
0
100
AcDbLine
 10
259.94515
 20
1073.2645
 30
0.0
 11
260.03415
 21
1073.2025
 31
0.0
  0
LINE
  5
179D
330
1D
100
AcDbEntity
  8
0
100
AcDbLine
 10
259.94515
 20
1073.2645
 30
0.0
 11
260.133364876066
 21
1073.13284710742
 31
0.0
  0
LINE
  5
179E
330
1D
100
AcDbEntity
  8
0
100
AcDbLine
 10
259.94515
 20
1073.2645
 30
0.0
 11
260.564246574868
 21
1074.14861524815
 31
0.0
  0
LINE
  5
179F
330
1D
100
AcDbEntity
  8
0
100
AcDbLine
 10
260.03415
 20
1073.2025
 30
0.0
 11
260.52415
 21
1072.8585
 31
0.0
  0
LINE
  5
17A0
330
1D
100
AcDbEntity
  8
0
100
AcDbLine
 10
260.03415
 20
1073.2025
 30
0.0
 11
260.63862488222
 21
1074.06573440024
 31
0.0
  0
LINE
  5
17A1
330
1D
100
AcDbEntity
  8
0
100
AcDbLine
 10
259.89615
 20
1072.8695
 30
0.0
 11
260.085916593584
 21
1073.1405005931
 31
0.0
  0
LINE
  5
17A2
330
1D
100
AcDbEntity
  8
0
100
AcDbLine
 10
259.89615
 20
1072.8695
 30
0.0
 11
260.097918974837
 21
1073.15764087252
 31
0.0
  0
LINE
  5
17A3
330
1D
100
AcDbEntity
  8
0
100
AcDbLine
 10
260.38515
 20
1072.5265
 30
0.0
 11
261.00815
 21
1072.0905
 31
0.0
  0
LINE
  5
17A4
330
1D
100
AcDbEntity
  8
0
100
AcDbLine
 10
260.38515
 20
1072.5265
 30
0.0
 11
260.586910411941
 21
1072.81462864408
 31
0.0
  0
LINE
  5
17A5
330
1D
100
AcDbEntity
  8
0
100
AcDbLine
 10
260.73715
 20
1071.7075
 30
0.0
 11
261.07915
 21
1071.4685
 31
0.0
  0
LINE
  5
17A6
330
1D
100
AcDbEntity
  8
0
100
AcDbLine
 10
260.73715
 20
1071.7075
 30
0.0
 11
260.88015
 21
1071.6075
 31
0.0
  0
LINE
  5
17A7
330
1D
100
AcDbEntity
  8
0
100
AcDbLine
 10
260.73715
 20
1071.7075
 30
0.0
 11
260.864704624741
 21
1071.88965734553
 31
0.0
  0
LINE
  5
17A8
330
1D
100
AcDbEntity
  8
0
100
AcDbLine
 10
262.76215
 20
1071.7215
 30
0.0
 11
263.408937603916
 21
1072.64516006558
 31
0.0
  0
LINE
  5
17A9
330
1D
100
AcDbEntity
  8
0
100
AcDbLine
 10
260.67315
 20
1072.0235
 30
0.0
 11
261.29715
 21
1071.5875
 31
0.0
  0
LINE
  5
17AA
330
1D
100
AcDbEntity
  8
0
100
AcDbLine
 10
260.67315
 20
1072.0235
 30
0.0
 11
260.814837700978
 21
1072.22578758005
 31
0.0
  0
LINE
  5
17AB
330
1D
100
AcDbEntity
  8
0
100
AcDbLine
 10
260.52415
 20
1072.8585
 30
0.0
 11
261.14215
 21
1072.4265
 31
0.0
  0
LINE
  5
17AC
330
1D
100
AcDbEntity
  8
0
100
AcDbLine
 10
260.52415
 20
1072.8585
 30
0.0
 11
261.048986440644
 21
1073.60846244657
 31
0.0
  0
LINE
  5
17AD
330
1D
100
AcDbEntity
  8
0
100
AcDbLine
 10
260.94515
 20
1072.1345
 30
0.0
 11
261.40015
 21
1071.8155
 31
0.0
  0
LINE
  5
17AE
330
1D
100
AcDbEntity
  8
0
100
AcDbLine
 10
261.43515
 20
1071.7915
 30
0.0
 11
261.838928651233
 21
1072.3681254845
 31
0.0
  0
LINE
  5
17AF
330
1D
100
AcDbEntity
  8
0
100
AcDbLine
 10
261.00815
 20
1072.0905
 30
0.0
 11
261.43515
 21
1071.7915
 31
0.0
  0
LINE
  5
17B0
330
1D
100
AcDbEntity
  8
0
100
AcDbLine
 10
261.00815
 20
1072.0905
 30
0.0
 11
261.210075280755
 21
1072.37886408882
 31
0.0
  0
LINE
  5
17B1
330
1D
100
AcDbEntity
  8
0
100
AcDbLine
 10
260.86526009165
 20
1072.19050000007
 30
0.0
 11
260.94515
 21
1072.1345
 31
0.0
  0
LINE
  5
17B2
330
1D
100
AcDbEntity
  8
0
100
AcDbLine
 10
261.52715
 20
1072.1565
 30
0.0
 11
261.729301940265
 21
1072.44493630501
 31
0.0
  0
LINE
  5
17B3
330
1D
100
AcDbEntity
  8
0
100
AcDbLine
 10
262.09815
 20
1072.1865
 30
0.0
 11
262.317574778661
 21
1072.03307079653
 31
0.0
  0
LINE
  5
17B4
330
1D
100
AcDbEntity
  8
0
100
AcDbLine
 10
261.14215
 20
1072.4265
 30
0.0
 11
261.52715
 21
1072.1565
 31
0.0
  0
LINE
  5
17B5
330
1D
100
AcDbEntity
  8
0
100
AcDbLine
 10
261.14215
 20
1072.4265
 30
0.0
 11
261.343900773932
 21
1072.7146148803
 31
0.0
  0
LINE
  5
17B6
330
1D
100
AcDbEntity
  8
0
100
AcDbLine
 10
261.14915
 20
1072.8515
 30
0.0
 11
261.29115
 21
1072.7515
 31
0.0
  0
LINE
  5
17B7
330
1D
100
AcDbEntity
  8
0
100
AcDbLine
 10
261.14915
 20
1072.8515
 30
0.0
 11
261.795644423802
 21
1073.7747413829
 31
0.0
  0
LINE
  5
17B8
330
1D
100
AcDbEntity
  8
0
100
AcDbLine
 10
261.593725221251
 20
1072.53992920353
 30
0.0
 11
262.09815
 21
1072.1865
 31
0.0
  0
LINE
  5
17B9
330
1D
100
AcDbEntity
  8
0
100
AcDbLine
 10
261.593725221251
 20
1072.53992920353
 30
0.0
 11
262.09815
 21
1072.1865
 31
0.0
  0
LINE
  5
17BA
330
1D
100
AcDbEntity
  8
0
100
AcDbLine
 10
261.29115
 20
1072.7515
 30
0.0
 11
261.81315
 21
1072.3865
 31
0.0
  0
LINE
  5
17BB
330
1D
100
AcDbEntity
  8
0
100
AcDbLine
 10
261.29115
 20
1072.7515
 30
0.0
 11
261.93791492789
 21
1073.67512768255
 31
0.0
  0
LINE
  5
17BC
330
1D
100
AcDbEntity
  8
0
100
AcDbLine
 10
261.81315
 20
1072.3865
 30
0.0
 11
262.42115
 21
1071.9605
 31
0.0
  0
LINE
  5
17BD
330
1D
100
AcDbEntity
  8
0
100
AcDbLine
 10
261.81315
 20
1072.3865
 30
0.0
 11
262.459685004776
 21
1073.3097993355
 31
0.0
  0
LINE
  5
17BE
330
1D
100
AcDbEntity
  8
0
100
AcDbLine
 10
262.42115
 20
1071.9605
 30
0.0
 11
262.76215
 21
1071.7215
 31
0.0
  0
LINE
  5
17BF
330
1D
100
AcDbEntity
  8
0
100
AcDbLine
 10
262.42115
 20
1071.9605
 30
0.0
 11
263.067559260109
 21
1072.88418332809
 31
0.0
  0
LINE
  5
17C0
330
1D
100
AcDbEntity
  8
0
100
AcDbLine
 10
263.40015
 20
1084.8585
 30
0.0
 11
273.88515
 21
1077.5165
 31
0.0
  0
LINE
  5
17C1
330
1D
100
AcDbEntity
  8
0
100
AcDbLine
 10
260.62215
 20
1071.7885
 30
0.0
 11
260.737322746655
 21
1071.70774669487
 31
0.0
  0
LINE
  5
17C2
330
1D
100
AcDbEntity
  8
0
100
AcDbLine
 10
260.62215
 20
1071.7885
 30
0.0
 11
260.749400205623
 21
1071.97022261274
 31
0.0
  0
LINE
  5
17C3
330
1D
100
AcDbEntity
  8
0
100
AcDbLine
 10
260.48015
 20
1071.8875
 30
0.0
 11
260.82115
 21
1071.6485
 31
0.0
  0
LINE
  5
17C4
330
1D
100
AcDbEntity
  8
0
100
AcDbLine
 10
260.48015
 20
1071.8875
 30
0.0
 11
260.62215
 21
1071.7885
 31
0.0
  0
LINE
  5
17C5
330
1D
100
AcDbEntity
  8
0
100
AcDbLine
 10
260.48015
 20
1071.8875
 30
0.0
 11
260.607601349559
 21
1072.06962097814
 31
0.0
  0
LINE
  5
17C6
330
1D
100
AcDbEntity
  8
0
100
AcDbLine
 10
260.82115
 20
1071.6485
 30
0.0
 11
261.041751769901
 21
1071.49429646018
 31
0.0
  0
LINE
  5
17C7
330
1D
100
AcDbEntity
  8
0
100
AcDbLine
 10
259.09815
 20
1073.8325
 30
0.0
 11
259.42515
 21
1073.6025
 31
0.0
  0
LINE
  5
17C8
330
1D
100
AcDbEntity
  8
0
100
AcDbLine
 10
263.19315
 20
1070.9645
 30
0.0
 11
263.413832665052
 21
1070.8099323348
 31
0.0
  0
LINE
  5
17C9
330
1D
100
AcDbEntity
  8
0
100
AcDbLine
 10
263.19315
 20
1070.9645
 30
0.0
 11
265.15915
 21
1069.5875
 31
0.0
  0
LINE
  5
17CA
330
1D
100
AcDbEntity
  8
0
100
AcDbLine
 10
272.305267370733
 20
1063.60750000011
 30
0.0
 11
272.51615
 21
1063.4595
 31
0.0
  0
LINE
  5
17CB
330
1D
100
AcDbEntity
  8
0
100
AcDbLine
 10
272.58215
 20
1063.4135
 30
0.0
 11
272.92315
 21
1063.1745
 31
0.0
  0
LINE
  5
17CC
330
1D
100
AcDbEntity
  8
0
100
AcDbLine
 10
272.58215
 20
1063.4135
 30
0.0
 11
272.709697137584
 21
1063.59575785397
 31
0.0
  0
LINE
  5
17CD
330
1D
100
AcDbEntity
  8
0
100
AcDbLine
 10
272.51615
 20
1063.4595
 30
0.0
 11
272.602661278283
 21
1063.39912406009
 31
0.0
  0
LINE
  5
17CE
330
1D
100
AcDbEntity
  8
0
100
AcDbLine
 10
270.42515
 20
1064.9245
 30
0.0
 11
270.70615
 21
1064.7275
 31
0.0
  0
LINE
  5
17CF
330
1D
100
AcDbEntity
  8
0
100
AcDbLine
 10
270.42515
 20
1064.9245
 30
0.0
 11
270.936274469089
 21
1065.65442317382
 31
0.0
  0
LINE
  5
17D0
330
1D
100
AcDbEntity
  8
0
100
AcDbLine
 10
270.186860659824
 20
1065.09106345183
 30
0.0
 11
270.52615
 21
1064.8535
 31
0.0
  0
LINE
  5
17D1
330
1D
100
AcDbEntity
  8
0
100
AcDbLine
 10
270.186860659824
 20
1065.09106345183
 30
0.0
 11
270.52615
 21
1064.8535
 31
0.0
  0
LINE
  5
17D2
330
1D
100
AcDbEntity
  8
0
100
AcDbLine
 10
271.72915
 20
1064.2825
 30
0.0
 11
271.935076910248
 21
1064.13845016615
 31
0.0
  0
LINE
  5
17D3
330
1D
100
AcDbEntity
  8
0
100
AcDbLine
 10
271.72915
 20
1064.2825
 30
0.0
 11
272.154705575086
 21
1064.89059554278
 31
0.0
  0
LINE
  5
17D4
330
1D
100
AcDbEntity
  8
0
100
AcDbLine
 10
271.74815
 20
1064.2695
 30
0.0
 11
272.21315
 21
1063.9435
 31
0.0
  0
LINE
  5
17D5
330
1D
100
AcDbEntity
  8
0
100
AcDbLine
 10
271.74815
 20
1064.2695
 30
0.0
 11
272.174674254315
 21
1064.87807728969
 31
0.0
  0
LINE
  5
17D6
330
1D
100
AcDbEntity
  8
0
100
AcDbLine
 10
271.45215
 20
1064.2045
 30
0.0
 11
271.97415
 21
1063.8395
 31
0.0
  0
LINE
  5
17D7
330
1D
100
AcDbEntity
  8
0
100
AcDbLine
 10
271.45215
 20
1064.2045
 30
0.0
 11
271.91137819946
 21
1064.86014026038
 31
0.0
  0
LINE
  5
17D8
330
1D
100
AcDbEntity
  8
0
100
AcDbLine
 10
270.70615
 20
1064.7275
 30
0.0
 11
271.164963908166
 21
1065.38271986188
 31
0.0
  0
LINE
  5
17D9
330
1D
100
AcDbEntity
  8
0
100
AcDbLine
 10
271.31015
 20
1064.3045
 30
0.0
 11
271.45215
 21
1064.2045
 31
0.0
  0
LINE
  5
17DA
330
1D
100
AcDbEntity
  8
0
100
AcDbLine
 10
271.31015
 20
1064.3045
 30
0.0
 11
271.76901578721
 21
1064.95979394895
 31
0.0
  0
LINE
  5
17DB
330
1D
100
AcDbEntity
  8
0
100
AcDbLine
 10
270.52615
 20
1064.8535
 30
0.0
 11
270.70615
 21
1064.7275
 31
0.0
  0
LINE
  5
17DC
330
1D
100
AcDbEntity
  8
0
100
AcDbLine
 10
271.920149999927
 20
1063.87725862074
 30
0.0
 11
272.23215
 21
1063.6585
 31
0.0
  0
LINE
  5
17DD
330
1D
100
AcDbEntity
  8
0
100
AcDbLine
 10
272.21315
 20
1063.9435
 30
0.0
 11
272.83715
 21
1063.5065
 31
0.0
  0
LINE
  5
17DE
330
1D
100
AcDbEntity
  8
0
100
AcDbLine
 10
272.21315
 20
1063.9435
 30
0.0
 11
272.656470139245
 21
1064.5760421499
 31
0.0
  0
LINE
  5
17DF
330
1D
100
AcDbEntity
  8
0
100
AcDbLine
 10
272.38615
 20
1064.9825
 30
0.0
 11
272.90815
 21
1064.6175
 31
0.0
  0
LINE
  5
17E0
330
1D
100
AcDbEntity
  8
0
100
AcDbLine
 10
272.24415
 20
1065.0825
 30
0.0
 11
272.58515
 21
1064.8435
 31
0.0
  0
LINE
  5
17E1
330
1D
100
AcDbEntity
  8
0
100
AcDbLine
 10
272.24415
 20
1065.0825
 30
0.0
 11
272.38615
 21
1064.9825
 31
0.0
  0
LINE
  5
17E2
330
1D
100
AcDbEntity
  8
0
100
AcDbLine
 10
272.24415
 20
1065.0825
 30
0.0
 11
272.89074897962
 21
1066.00589069627
 31
0.0
  0
LINE
  5
17E3
330
1D
100
AcDbEntity
  8
0
100
AcDbLine
 10
271.97415
 20
1063.8395
 30
0.0
 11
272.58215
 21
1063.4135
 31
0.0
  0
LINE
  5
17E4
330
1D
100
AcDbEntity
  8
0
100
AcDbLine
 10
271.97415
 20
1063.8395
 30
0.0
 11
272.101767092079
 21
1064.02158780211
 31
0.0
  0
LINE
  5
17E5
330
1D
100
AcDbEntity
  8
0
100
AcDbLine
 10
271.920149999927
 20
1063.87725862074
 30
0.0
 11
272.23215
 21
1063.6585
 31
0.0
  0
LINE
  5
17E6
330
1D
100
AcDbEntity
  8
0
100
AcDbLine
 10
272.23215
 20
1063.6585
 30
0.0
 11
272.42314999987
 21
1063.52476853386
 31
0.0
  0
LINE
  5
17E7
330
1D
100
AcDbEntity
  8
0
100
AcDbLine
 10
272.92315
 20
1063.1745
 30
0.0
 11
273.050941859765
 21
1063.35694848271
 31
0.0
  0
LINE
  5
17E8
330
1D
100
AcDbEntity
  8
0
100
AcDbLine
 10
273.81315
 20
1063.1245
 30
0.0
 11
274.26815
 21
1062.8055
 31
0.0
  0
LINE
  5
17E9
330
1D
100
AcDbEntity
  8
0
100
AcDbLine
 10
273.81315
 20
1063.1245
 30
0.0
 11
274.015078004304
 21
1063.41261678663
 31
0.0
  0
LINE
  5
17EA
330
1D
100
AcDbEntity
  8
0
100
AcDbLine
 10
273.18115
 20
1062.9945
 30
0.0
 11
273.450098321875
 21
1063.37857789994
 31
0.0
  0
LINE
  5
17EB
330
1D
100
AcDbEntity
  8
0
100
AcDbLine
 10
273.03915
 20
1063.0945
 30
0.0
 11
273.18115
 21
1062.9945
 31
0.0
  0
LINE
  5
17EC
330
1D
100
AcDbEntity
  8
0
100
AcDbLine
 10
273.03915
 20
1063.0945
 30
0.0
 11
273.166381657284
 21
1063.27619612435
 31
0.0
  0
LINE
  5
17ED
330
1D
100
AcDbEntity
  8
0
100
AcDbLine
 10
272.79815
 20
1063.8345
 30
0.0
 11
273.167068918912
 21
1063.57666216217
 31
0.0
  0
LINE
  5
17EE
330
1D
100
AcDbEntity
  8
0
100
AcDbLine
 10
272.76315
 20
1063.8595
 30
0.0
 11
273.19015
 21
1063.5605
 31
0.0
  0
LINE
  5
17EF
330
1D
100
AcDbEntity
  8
0
100
AcDbLine
 10
272.76315
 20
1063.8595
 30
0.0
 11
273.16719257646
 21
1064.43599977373
 31
0.0
  0
LINE
  5
17F0
330
1D
100
AcDbEntity
  8
0
100
AcDbLine
 10
272.83715
 20
1063.5065
 30
0.0
 11
273.25315
 21
1063.2155
 31
0.0
  0
LINE
  5
17F1
330
1D
100
AcDbEntity
  8
0
100
AcDbLine
 10
272.83715
 20
1063.5065
 30
0.0
 11
272.978486747439
 21
1063.70846244904
 31
0.0
  0
LINE
  5
17F2
330
1D
100
AcDbEntity
  8
0
100
AcDbLine
 10
272.90815
 20
1064.6175
 30
0.0
 11
273.51615
 21
1064.1915
 31
0.0
  0
LINE
  5
17F3
330
1D
100
AcDbEntity
  8
0
100
AcDbLine
 10
272.58515
 20
1064.8435
 30
0.0
 11
273.19315
 21
1064.4185
 31
0.0
  0
LINE
  5
17F4
330
1D
100
AcDbEntity
  8
0
100
AcDbLine
 10
272.58515
 20
1064.8435
 30
0.0
 11
273.23222792116
 21
1065.76676971678
 31
0.0
  0
LINE
  5
17F5
330
1D
100
AcDbEntity
  8
0
100
AcDbLine
 10
273.07515
 20
1064.0705
 30
0.0
 11
273.46115
 21
1063.8005
 31
0.0
  0
LINE
  5
17F6
330
1D
100
AcDbEntity
  8
0
100
AcDbLine
 10
273.07515
 20
1064.0705
 30
0.0
 11
273.27706093733
 21
1064.35901963931
 31
0.0
  0
LINE
  5
17F7
330
1D
100
AcDbEntity
  8
0
100
AcDbLine
 10
273.19015
 20
1063.5605
 30
0.0
 11
273.81315
 21
1063.1245
 31
0.0
  0
LINE
  5
17F8
330
1D
100
AcDbEntity
  8
0
100
AcDbLine
 10
273.19015
 20
1063.5605
 30
0.0
 11
273.392171039494
 21
1063.84874953196
 31
0.0
  0
LINE
  5
17F9
330
1D
100
AcDbEntity
  8
0
100
AcDbLine
 10
273.46115
 20
1063.8005
 30
0.0
 11
274.07815
 21
1063.3685
 31
0.0
  0
LINE
  5
17FA
330
1D
100
AcDbEntity
  8
0
100
AcDbLine
 10
273.46115
 20
1063.8005
 30
0.0
 11
273.66283249479
 21
1064.08869320746
 31
0.0
  0
LINE
  5
17FB
330
1D
100
AcDbEntity
  8
0
100
AcDbLine
 10
273.25315
 20
1063.2155
 30
0.0
 11
273.394560927904
 21
1063.41744516121
 31
0.0
  0
LINE
  5
17FC
330
1D
100
AcDbEntity
  8
0
100
AcDbLine
 10
273.51615
 20
1064.1915
 30
0.0
 11
273.85715
 21
1063.9525
 31
0.0
  0
LINE
  5
17FD
330
1D
100
AcDbEntity
  8
0
100
AcDbLine
 10
273.924733783751
 20
1063.47591621624
 30
0.0
 11
274.27215
 21
1063.2325
 31
0.0
  0
LINE
  5
17FE
330
1D
100
AcDbEntity
  8
0
100
AcDbLine
 10
274.07815
 20
1063.3685
 30
0.0
 11
274.56815
 21
1063.0255
 31
0.0
  0
LINE
  5
17FF
330
1D
100
AcDbEntity
  8
0
100
AcDbLine
 10
274.07815
 20
1063.3685
 30
0.0
 11
274.603008312107
 21
1064.11803610744
 31
0.0
  0
LINE
  5
1800
330
1D
100
AcDbEntity
  8
0
100
AcDbLine
 10
273.85715
 20
1063.9525
 30
0.0
 11
274.5037167435
 21
1064.87640836321
 31
0.0
  0
LINE
  5
1801
330
1D
100
AcDbEntity
  8
0
100
AcDbLine
 10
273.71515
 20
1064.0525
 30
0.0
 11
273.85715
 21
1063.9525
 31
0.0
  0
LINE
  5
1802
330
1D
100
AcDbEntity
  8
0
100
AcDbLine
 10
273.71515
 20
1064.0525
 30
0.0
 11
274.361716437299
 21
1064.97584422345
 31
0.0
  0
LINE
  5
1803
330
1D
100
AcDbEntity
  8
0
100
AcDbLine
 10
273.19315
 20
1064.4185
 30
0.0
 11
273.71515
 21
1064.0525
 31
0.0
  0
LINE
  5
1804
330
1D
100
AcDbEntity
  8
0
100
AcDbLine
 10
273.19315
 20
1064.4185
 30
0.0
 11
273.839496093081
 21
1065.34152955577
 31
0.0
  0
LINE
  5
1805
330
1D
100
AcDbEntity
  8
0
100
AcDbLine
 10
272.923599766772
 20
1063.17514213218
 30
0.0
 11
273.03915
 21
1063.0945
 31
0.0
  0
LINE
  5
1806
330
1D
100
AcDbEntity
  8
0
100
AcDbLine
 10
272.923290249847
 20
1063.17470023476
 30
0.0
 11
273.18115
 21
1062.9945
 31
0.0
  0
LINE
  5
1807
330
1D
100
AcDbEntity
  8
0
100
AcDbLine
 10
272.583704166772
 20
1063.41235416659
 30
0.0
 11
272.662791891961
 21
1063.35697972968
 31
0.0
  0
LINE
  5
1808
330
1D
100
AcDbEntity
  8
0
100
AcDbLine
 10
264.57015
 20
1069.0235
 30
0.0
 11
265.029214997551
 21
1069.67850737455
 31
0.0
  0
LINE
  5
1809
330
1D
100
AcDbEntity
  8
0
100
AcDbLine
 10
264.27415
 20
1070.2335
 30
0.0
 11
264.46915
 21
1070.0965
 31
0.0
  0
LINE
  5
180A
330
1D
100
AcDbEntity
  8
0
100
AcDbLine
 10
264.27415
 20
1070.2335
 30
0.0
 11
264.747398939158
 21
1070.90874543758
 31
0.0
  0
LINE
  5
180B
330
1D
100
AcDbEntity
  8
0
100
AcDbLine
 10
264.46915
 20
1070.0965
 30
0.0
 11
265.01915
 21
1069.7115
 31
0.0
  0
LINE
  5
180C
330
1D
100
AcDbEntity
  8
0
100
AcDbLine
 10
264.46915
 20
1070.0965
 30
0.0
 11
264.929582200301
 21
1070.75403090156
 31
0.0
  0
LINE
  5
180D
330
1D
100
AcDbEntity
  8
0
100
AcDbLine
 10
265.01915
 20
1069.7115
 30
0.0
 11
265.61215
 21
1069.2965
 31
0.0
  0
LINE
  5
180E
330
1D
100
AcDbEntity
  8
0
100
AcDbLine
 10
265.01915
 20
1069.7115
 30
0.0
 11
265.443542289133
 21
1070.31756326905
 31
0.0
  0
LINE
  5
180F
330
1D
100
AcDbEntity
  8
0
100
AcDbLine
 10
264.39015
 20
1069.1495
 30
0.0
 11
264.57015
 21
1069.0235
 31
0.0
  0
LINE
  5
1810
330
1D
100
AcDbEntity
  8
0
100
AcDbLine
 10
264.39015
 20
1069.1495
 30
0.0
 11
264.859853904901
 21
1069.8206810812
 31
0.0
  0
LINE
  5
1811
330
1D
100
AcDbEntity
  8
0
100
AcDbLine
 10
269.27115
 20
1065.7325
 30
0.0
 11
269.82715
 21
1065.3425
 31
0.0
  0
LINE
  5
1812
330
1D
100
AcDbEntity
  8
0
100
AcDbLine
 10
269.27115
 20
1065.7325
 30
0.0
 11
269.741123520062
 21
1066.40365660494
 31
0.0
  0
LINE
  5
1813
330
1D
100
AcDbEntity
  8
0
100
AcDbLine
 10
269.44015
 20
1066.6155
 30
0.0
 11
270.03315
 21
1066.2005
 31
0.0
  0
LINE
  5
1814
330
1D
100
AcDbEntity
  8
0
100
AcDbLine
 10
269.44015
 20
1066.6155
 30
0.0
 11
270.033149999716
 21
1066.2005000002
 31
0.0
  0
LINE
  5
1815
330
1D
100
AcDbEntity
  8
0
100
AcDbLine
 10
269.58315
 20
1066.5155
 30
0.0
 11
270.13315
 21
1066.1305
 31
0.0
  0
LINE
  5
1816
330
1D
100
AcDbEntity
  8
0
100
AcDbLine
 10
269.58315
 20
1066.5155
 30
0.0
 11
270.00748548345
 21
1067.12185209884
 31
0.0
  0
LINE
  5
1817
330
1D
100
AcDbEntity
  8
0
100
AcDbLine
 10
269.09015
 20
1065.8585
 30
0.0
 11
269.37115
 21
1065.6615
 31
0.0
  0
LINE
  5
1818
330
1D
100
AcDbEntity
  8
0
100
AcDbLine
 10
269.09015
 20
1065.8585
 30
0.0
 11
269.27115
 21
1065.7325
 31
0.0
  0
LINE
  5
1819
330
1D
100
AcDbEntity
  8
0
100
AcDbLine
 10
269.09015
 20
1065.8585
 30
0.0
 11
269.549178793594
 21
1066.51442693348
 31
0.0
  0
LINE
  5
181A
330
1D
100
AcDbEntity
  8
0
100
AcDbLine
 10
269.37115
 20
1065.6615
 30
0.0
 11
269.72170172418
 21
1065.41646551721
 31
0.0
  0
LINE
  5
181B
330
1D
100
AcDbEntity
  8
0
100
AcDbLine
 10
270.32815
 20
1065.9945
 30
0.0
 11
270.801090303495
 21
1066.66989338895
 31
0.0
  0
LINE
  5
181C
330
1D
100
AcDbEntity
  8
0
100
AcDbLine
 10
270.13315
 20
1066.1305
 30
0.0
 11
270.32815
 21
1065.9945
 31
0.0
  0
LINE
  5
181D
330
1D
100
AcDbEntity
  8
0
100
AcDbLine
 10
270.13315
 20
1066.1305
 30
0.0
 11
270.593400623787
 21
1066.78817286172
 31
0.0
  0
LINE
  5
181E
330
1D
100
AcDbEntity
  8
0
100
AcDbLine
 10
269.72170172418
 20
1065.41646551721
 30
0.0
 11
269.82715
 21
1065.3425
 31
0.0
  0
LINE
  5
181F
330
1D
100
AcDbEntity
  8
0
100
AcDbLine
 10
269.82715
 20
1065.3425
 30
0.0
 11
270.186860659824
 21
1065.09106345183
 31
0.0
  0
LINE
  5
1820
330
1D
100
AcDbEntity
  8
0
100
AcDbLine
 10
269.82715
 20
1065.3425
 30
0.0
 11
270.42515
 21
1064.9245
 31
0.0
  0
LINE
  5
1821
330
1D
100
AcDbEntity
  8
0
100
AcDbLine
 10
269.82715
 20
1065.3425
 30
0.0
 11
270.298567316807
 21
1066.0151320252
 31
0.0
  0
LINE
  5
1822
330
1D
100
AcDbEntity
  8
0
100
AcDbLine
 10
269.72170172418
 20
1065.41646551721
 30
0.0
 11
269.82715
 21
1065.3425
 31
0.0
  0
LINE
  5
1823
330
1D
100
AcDbEntity
  8
0
100
AcDbLine
 10
267.64915
 20
1066.8675
 30
0.0
 11
267.776914182641
 21
1067.04979767523
 31
0.0
  0
LINE
  5
1824
330
1D
100
AcDbEntity
  8
0
100
AcDbLine
 10
267.53515
 20
1066.7035
 30
0.0
 11
267.777303707552
 21
1067.04952434758
 31
0.0
  0
LINE
  5
1825
330
1D
100
AcDbEntity
  8
0
100
AcDbLine
 10
266.25715
 20
1067.8425
 30
0.0
 11
266.83015
 21
1067.4415
 31
0.0
  0
LINE
  5
1826
330
1D
100
AcDbEntity
  8
0
100
AcDbLine
 10
266.25715
 20
1067.8425
 30
0.0
 11
266.384759640074
 21
1068.02484716659
 31
0.0
  0
LINE
  5
1827
330
1D
100
AcDbEntity
  8
0
100
AcDbLine
 10
266.14215
 20
1067.6785
 30
0.0
 11
266.71615
 21
1067.2775
 31
0.0
  0
LINE
  5
1828
330
1D
100
AcDbEntity
  8
0
100
AcDbLine
 10
266.14215
 20
1067.6785
 30
0.0
 11
266.256995553043
 21
1067.8426079873
 31
0.0
  0
LINE
  5
1829
330
1D
100
AcDbEntity
  8
0
100
AcDbLine
 10
266.01115
 20
1068.0145
 30
0.0
 11
266.25715
 21
1067.8425
 31
0.0
  0
LINE
  5
182A
330
1D
100
AcDbEntity
  8
0
100
AcDbLine
 10
266.01115
 20
1068.0145
 30
0.0
 11
266.469874845407
 21
1068.66999260821
 31
0.0
  0
LINE
  5
182B
330
1D
100
AcDbEntity
  8
0
100
AcDbLine
 10
265.90615
 20
1069.0905
 30
0.0
 11
266.272663860116
 21
1069.61345270285
 31
0.0
  0
LINE
  5
182C
330
1D
100
AcDbEntity
  8
0
100
AcDbLine
 10
265.15915
 20
1069.5875
 30
0.0
 11
266.470056261518
 21
1068.66986561694
 31
0.0
  0
LINE
  5
182D
330
1D
100
AcDbEntity
  8
0
100
AcDbLine
 10
265.61215
 20
1069.2965
 30
0.0
 11
265.90615
 21
1069.0905
 31
0.0
  0
LINE
  5
182E
330
1D
100
AcDbEntity
  8
0
100
AcDbLine
 10
265.61215
 20
1069.2965
 30
0.0
 11
265.997640800495
 21
1069.84700909434
 31
0.0
  0
LINE
  5
182F
330
1D
100
AcDbEntity
  8
0
100
AcDbLine
 10
266.28215
 20
1068.0965
 30
0.0
 11
266.47715
 21
1067.9605
 31
0.0
  0
LINE
  5
1830
330
1D
100
AcDbEntity
  8
0
100
AcDbLine
 10
266.28215
 20
1068.0965
 30
0.0
 11
266.577149999863
 21
1067.8905000001
 31
0.0
  0
LINE
  5
1831
330
1D
100
AcDbEntity
  8
0
100
AcDbLine
 10
266.28215
 20
1068.0965
 30
0.0
 11
266.423401396387
 21
1068.29834048708
 31
0.0
  0
LINE
  5
1832
330
1D
100
AcDbEntity
  8
0
100
AcDbLine
 10
266.47715
 20
1067.9605
 30
0.0
 11
267.02715
 21
1067.5755
 31
0.0
  0
LINE
  5
1833
330
1D
100
AcDbEntity
  8
0
100
AcDbLine
 10
266.47715
 20
1067.9605
 30
0.0
 11
266.618271119383
 21
1068.16203129342
 31
0.0
  0
LINE
  5
1834
330
1D
100
AcDbEntity
  8
0
100
AcDbLine
 10
266.577150000228
 20
1067.89049999984
 30
0.0
 11
267.16915
 21
1067.4755
 31
0.0
  0
LINE
  5
1835
330
1D
100
AcDbEntity
  8
0
100
AcDbLine
 10
266.577150000228
 20
1067.89049999984
 30
0.0
 11
267.16915
 21
1067.4755
 31
0.0
  0
LINE
  5
1836
330
1D
100
AcDbEntity
  8
0
100
AcDbLine
 10
266.52615
 20
1068.2265
 30
0.0
 11
267.09915
 21
1067.8255
 31
0.0
  0
LINE
  5
1837
330
1D
100
AcDbEntity
  8
0
100
AcDbLine
 10
266.52615
 20
1068.2265
 30
0.0
 11
266.930011939988
 21
1068.80359652976
 31
0.0
  0
LINE
  5
1838
330
1D
100
AcDbEntity
  8
0
100
AcDbLine
 10
266.28015
 20
1068.3985
 30
0.0
 11
266.52615
 21
1068.2265
 31
0.0
  0
LINE
  5
1839
330
1D
100
AcDbEntity
  8
0
100
AcDbLine
 10
266.28015
 20
1068.3985
 30
0.0
 11
266.757071933402
 21
1069.07999524747
 31
0.0
  0
LINE
  5
183A
330
1D
100
AcDbEntity
  8
0
100
AcDbLine
 10
266.68415
 20
1068.9755
 30
0.0
 11
266.93015
 21
1068.8035
 31
0.0
  0
LINE
  5
183B
330
1D
100
AcDbEntity
  8
0
100
AcDbLine
 10
266.68415
 20
1068.9755
 30
0.0
 11
267.330904152757
 21
1069.89911229487
 31
0.0
  0
LINE
  5
183C
330
1D
100
AcDbEntity
  8
0
100
AcDbLine
 10
266.160211012817
 20
1068.22750000001
 30
0.0
 11
266.469874845407
 21
1068.66999260821
 31
0.0
  0
LINE
  5
183D
330
1D
100
AcDbEntity
  8
0
100
AcDbLine
 10
266.160211012817
 20
1068.22750000001
 30
0.0
 11
266.469874845407
 21
1068.66999260821
 31
0.0
  0
LINE
  5
183E
330
1D
100
AcDbEntity
  8
0
100
AcDbLine
 10
265.89615
 20
1067.8505
 30
0.0
 11
266.14215
 21
1067.6785
 31
0.0
  0
LINE
  5
183F
330
1D
100
AcDbEntity
  8
0
100
AcDbLine
 10
265.89615
 20
1067.8505
 30
0.0
 11
266.160211012817
 21
1068.22750000001
 31
0.0
  0
LINE
  5
1840
330
1D
100
AcDbEntity
  8
0
100
AcDbLine
 10
265.89615
 20
1067.8505
 30
0.0
 11
266.160211012817
 21
1068.22750000001
 31
0.0
  0
LINE
  5
1841
330
1D
100
AcDbEntity
  8
0
100
AcDbLine
 10
267.40415
 20
1067.0395
 30
0.0
 11
267.64915
 21
1066.8675
 31
0.0
  0
LINE
  5
1842
330
1D
100
AcDbEntity
  8
0
100
AcDbLine
 10
267.40415
 20
1067.0395
 30
0.0
 11
267.531677949547
 21
1067.22173043532
 31
0.0
  0
LINE
  5
1843
330
1D
100
AcDbEntity
  8
0
100
AcDbLine
 10
267.91415
 20
1066.9535
 30
0.0
 11
268.532407308429
 21
1067.83695573541
 31
0.0
  0
LINE
  5
1844
330
1D
100
AcDbEntity
  8
0
100
AcDbLine
 10
267.61915
 20
1067.1605
 30
0.0
 11
267.91415
 21
1066.9535
 31
0.0
  0
LINE
  5
1845
330
1D
100
AcDbEntity
  8
0
100
AcDbLine
 10
267.61915
 20
1067.1605
 30
0.0
 11
267.760414832257
 21
1067.36223652593
 31
0.0
  0
LINE
  5
1846
330
1D
100
AcDbEntity
  8
0
100
AcDbLine
 10
267.91815
 20
1067.2515
 30
0.0
 11
268.395406757148
 21
1067.93287963847
 31
0.0
  0
LINE
  5
1847
330
1D
100
AcDbEntity
  8
0
100
AcDbLine
 10
266.83015
 20
1067.4415
 30
0.0
 11
267.40415
 21
1067.0395
 31
0.0
  0
LINE
  5
1848
330
1D
100
AcDbEntity
  8
0
100
AcDbLine
 10
266.83015
 20
1067.4415
 30
0.0
 11
266.957736901441
 21
1067.62370343902
 31
0.0
  0
LINE
  5
1849
330
1D
100
AcDbEntity
  8
0
100
AcDbLine
 10
267.02715
 20
1067.5755
 30
0.0
 11
267.61915
 21
1067.1605
 31
0.0
  0
LINE
  5
184A
330
1D
100
AcDbEntity
  8
0
100
AcDbLine
 10
267.02715
 20
1067.5755
 30
0.0
 11
267.168299233643
 21
1067.77707144264
 31
0.0
  0
LINE
  5
184B
330
1D
100
AcDbEntity
  8
0
100
AcDbLine
 10
268.245534782342
 20
1067.42703065236
 30
0.0
 11
269.41915
 21
1066.6055
 31
0.0
  0
LINE
  5
184C
330
1D
100
AcDbEntity
  8
0
100
AcDbLine
 10
267.16915
 20
1067.4755
 30
0.0
 11
267.619150000029
 21
1067.16049999998
 31
0.0
  0
LINE
  5
184D
330
1D
100
AcDbEntity
  8
0
100
AcDbLine
 10
267.09915
 20
1067.8255
 30
0.0
 11
267.67315
 21
1067.4235
 31
0.0
  0
LINE
  5
184E
330
1D
100
AcDbEntity
  8
0
100
AcDbLine
 10
267.09915
 20
1067.8255
 30
0.0
 11
267.503177428647
 21
1068.40248075687
 31
0.0
  0
LINE
  5
184F
330
1D
100
AcDbEntity
  8
0
100
AcDbLine
 10
267.67315
 20
1067.4235
 30
0.0
 11
267.91815
 21
1067.2515
 31
0.0
  0
LINE
  5
1850
330
1D
100
AcDbEntity
  8
0
100
AcDbLine
 10
267.67315
 20
1067.4235
 30
0.0
 11
268.076683395062
 21
1068.00012705711
 31
0.0
  0
LINE
  5
1851
330
1D
100
AcDbEntity
  8
0
100
AcDbLine
 10
268.89115
 20
1067.0005
 30
0.0
 11
269.44015
 21
1066.6155
 31
0.0
  0
LINE
  5
1852
330
1D
100
AcDbEntity
  8
0
100
AcDbLine
 10
268.99115
 20
1066.9305
 30
0.0
 11
269.58315
 21
1066.5155
 31
0.0
  0
LINE
  5
1853
330
1D
100
AcDbEntity
  8
0
100
AcDbLine
 10
268.99115
 20
1066.9305
 30
0.0
 11
269.376527499121
 21
1067.48118327904
 31
0.0
  0
LINE
  5
1854
330
1D
100
AcDbEntity
  8
0
100
AcDbLine
 10
268.69615
 20
1067.1375
 30
0.0
 11
268.99115
 21
1066.9305
 31
0.0
  0
LINE
  5
1855
330
1D
100
AcDbEntity
  8
0
100
AcDbLine
 10
268.69615
 20
1067.1375
 30
0.0
 11
268.89115
 21
1067.0005
 31
0.0
  0
LINE
  5
1856
330
1D
100
AcDbEntity
  8
0
100
AcDbLine
 10
268.69615
 20
1067.1375
 30
0.0
 11
269.06217341037
 21
1067.66020823556
 31
0.0
  0
LINE
  5
1857
330
1D
100
AcDbEntity
  8
0
100
AcDbLine
 10
268.32215
 20
1067.8285
 30
0.0
 11
268.968929651155
 21
1068.75214870845
 31
0.0
  0
LINE
  5
1858
330
1D
100
AcDbEntity
  8
0
100
AcDbLine
 10
266.93015
 20
1068.8035
 30
0.0
 11
267.50315
 21
1068.4025
 31
0.0
  0
LINE
  5
1859
330
1D
100
AcDbEntity
  8
0
100
AcDbLine
 10
266.93015
 20
1068.8035
 30
0.0
 11
267.576790397371
 21
1069.72694984385
 31
0.0
  0
LINE
  5
185A
330
1D
100
AcDbEntity
  8
0
100
AcDbLine
 10
273.88515
 20
1077.5165
 30
0.0
 11
284.37015
 21
1070.1755
 31
0.0
  0
LINE
  5
185B
330
1D
100
AcDbEntity
  8
0
100
AcDbLine
 10
267.50315
 20
1068.4025
 30
0.0
 11
268.07615
 21
1068.0005
 31
0.0
  0
LINE
  5
185C
330
1D
100
AcDbEntity
  8
0
100
AcDbLine
 10
267.50315
 20
1068.4025
 30
0.0
 11
268.14969733453
 21
1069.3258169433
 31
0.0
  0
LINE
  5
185D
330
1D
100
AcDbEntity
  8
0
100
AcDbLine
 10
268.07615
 20
1068.0005
 30
0.0
 11
268.32215
 21
1067.8285
 31
0.0
  0
LINE
  5
185E
330
1D
100
AcDbEntity
  8
0
100
AcDbLine
 10
268.07615
 20
1068.0005
 30
0.0
 11
268.723430960237
 21
1068.92405941888
 31
0.0
  0
LINE
  5
185F
330
1D
100
AcDbEntity
  8
0
100
AcDbLine
 10
266.71615
 20
1067.2775
 30
0.0
 11
267.28915
 21
1066.8755
 31
0.0
  0
LINE
  5
1860
330
1D
100
AcDbEntity
  8
0
100
AcDbLine
 10
266.71615
 20
1067.2775
 30
0.0
 11
266.83071363421
 21
1067.44110525966
 31
0.0
  0
LINE
  5
1861
330
1D
100
AcDbEntity
  8
0
100
AcDbLine
 10
267.28915
 20
1066.8755
 30
0.0
 11
267.53515
 21
1066.7035
 31
0.0
  0
LINE
  5
1862
330
1D
100
AcDbEntity
  8
0
100
AcDbLine
 10
267.28915
 20
1066.8755
 30
0.0
 11
267.403995637287
 21
1067.03960810768
 31
0.0
  0
LINE
  5
1863
330
1D
100
AcDbEntity
  8
0
100
AcDbLine
 10
265.029214997551
 20
1069.67850737455
 30
0.0
 11
265.15915
 21
1069.5875
 31
0.0
  0
LINE
  5
1864
330
1D
100
AcDbEntity
  8
0
100
AcDbLine
 10
271.38515
 20
1065.2285
 30
0.0
 11
271.76901578721
 21
1064.95979394895
 31
0.0
  0
LINE
  5
1865
330
1D
100
AcDbEntity
  8
0
100
AcDbLine
 10
271.38515
 20
1065.2285
 30
0.0
 11
272.06039386748
 21
1064.75582929276
 31
0.0
  0
LINE
  5
1866
330
1D
100
AcDbEntity
  8
0
100
AcDbLine
 10
274.30315
 20
1062.7815
 30
0.0
 11
274.504739836439
 21
1063.06938504977
 31
0.0
  0
LINE
  5
1867
330
1D
100
AcDbEntity
  8
0
100
AcDbLine
 10
274.27215
 20
1063.2325
 30
0.0
 11
274.65715
 21
1062.9625
 31
0.0
  0
LINE
  5
1868
330
1D
100
AcDbEntity
  8
0
100
AcDbLine
 10
274.26815
 20
1062.8055
 30
0.0
 11
274.469995993917
 21
1063.09375086141
 31
0.0
  0
LINE
  5
1869
330
1D
100
AcDbEntity
  8
0
100
AcDbLine
 10
282.32015
 20
1057.5975
 30
0.0
 11
282.64815
 21
1057.3675
 31
0.0
  0
LINE
  5
186A
330
1D
100
AcDbEntity
  8
0
100
AcDbLine
 10
282.32015
 20
1057.5975
 30
0.0
 11
283.00990038283
 21
1058.58251406022
 31
0.0
  0
LINE
  5
186B
330
1D
100
AcDbEntity
  8
0
100
AcDbLine
 10
282.32015
 20
1057.5975
 30
0.0
 11
283.00990038283
 21
1058.58251406022
 31
0.0
  0
LINE
  5
186C
330
1D
100
AcDbEntity
  8
0
100
AcDbLine
 10
281.17915
 20
1058.3965
 30
0.0
 11
281.70915
 21
1058.0255
 31
0.0
  0
LINE
  5
186D
330
1D
100
AcDbEntity
  8
0
100
AcDbLine
 10
281.17915
 20
1058.3965
 30
0.0
 11
281.771400592007
 21
1059.24227721858
 31
0.0
  0
LINE
  5
186E
330
1D
100
AcDbEntity
  8
0
100
AcDbLine
 10
279.78415
 20
1058.6425
 30
0.0
 11
279.925394548166
 21
1058.84420755876
 31
0.0
  0
LINE
  5
186F
330
1D
100
AcDbEntity
  8
0
100
AcDbLine
 10
279.93815
 20
1058.5345
 30
0.0
 11
280.427280691758
 21
1059.23301444908
 31
0.0
  0
LINE
  5
1870
330
1D
100
AcDbEntity
  8
0
100
AcDbLine
 10
279.71815
 20
1058.9895
 30
0.0
 11
279.99915
 21
1058.7925
 31
0.0
  0
LINE
  5
1871
330
1D
100
AcDbEntity
  8
0
100
AcDbLine
 10
279.71815
 20
1058.9895
 30
0.0
 11
280.194517327592
 21
1059.67020274623
 31
0.0
  0
LINE
  5
1872
330
1D
100
AcDbEntity
  8
0
100
AcDbLine
 10
279.99915
 20
1058.7925
 30
0.0
 11
280.475639995396
 21
1059.47337803178
 31
0.0
  0
LINE
  5
1873
330
1D
100
AcDbEntity
  8
0
100
AcDbLine
 10
279.76415
 20
1058.6565
 30
0.0
 11
279.905404576772
 21
1058.85822188034
 31
0.0
  0
LINE
  5
1874
330
1D
100
AcDbEntity
  8
0
100
AcDbLine
 10
279.29915
 20
1058.9815
 30
0.0
 11
279.76415
 21
1058.6565
 31
0.0
  0
LINE
  5
1875
330
1D
100
AcDbEntity
  8
0
100
AcDbLine
 10
279.29915
 20
1058.9815
 30
0.0
 11
279.440544660612
 21
1059.18354520379
 31
0.0
  0
LINE
  5
1876
330
1D
100
AcDbEntity
  8
0
100
AcDbLine
 10
279.775572680407
 20
1058.6485
 30
0.0
 11
279.93815
 21
1058.5345
 31
0.0
  0
LINE
  5
1877
330
1D
100
AcDbEntity
  8
0
100
AcDbLine
 10
281.05115
 20
1058.4855
 30
0.0
 11
281.169020285514
 21
1058.65393016387
 31
0.0
  0
LINE
  5
1878
330
1D
100
AcDbEntity
  8
0
100
AcDbLine
 10
281.05115
 20
1058.4855
 30
0.0
 11
281.38015
 21
1058.2555
 31
0.0
  0
LINE
  5
1879
330
1D
100
AcDbEntity
  8
0
100
AcDbLine
 10
281.05115
 20
1058.4855
 30
0.0
 11
281.17915
 21
1058.3965
 31
0.0
  0
LINE
  5
187A
330
1D
100
AcDbEntity
  8
0
100
AcDbLine
 10
281.05115
 20
1058.4855
 30
0.0
 11
281.632527502827
 21
1059.31625651886
 31
0.0
  0
LINE
  5
187B
330
1D
100
AcDbEntity
  8
0
100
AcDbLine
 10
281.70915
 20
1058.0255
 30
0.0
 11
282.32015
 21
1057.5975
 31
0.0
  0
LINE
  5
187C
330
1D
100
AcDbEntity
  8
0
100
AcDbLine
 10
281.70915
 20
1058.0255
 30
0.0
 11
282.346618645606
 21
1058.93585191064
 31
0.0
  0
LINE
  5
187D
330
1D
100
AcDbEntity
  8
0
100
AcDbLine
 10
281.38015
 20
1058.2555
 30
0.0
 11
281.99115
 21
1057.8275
 31
0.0
  0
LINE
  5
187E
330
1D
100
AcDbEntity
  8
0
100
AcDbLine
 10
281.99115
 20
1057.8275
 30
0.0
 11
282.52115
 21
1057.4565
 31
0.0
  0
LINE
  5
187F
330
1D
100
AcDbEntity
  8
0
100
AcDbLine
 10
282.69315
 20
1057.7655
 30
0.0
 11
283.067149999996
 21
1057.5045
 31
0.0
  0
LINE
  5
1880
330
1D
100
AcDbEntity
  8
0
100
AcDbLine
 10
282.69315
 20
1057.7655
 30
0.0
 11
282.76715
 21
1057.7145
 31
0.0
  0
LINE
  5
1881
330
1D
100
AcDbEntity
  8
0
100
AcDbLine
 10
282.69315
 20
1057.7655
 30
0.0
 11
283.339533722381
 21
1058.68914683608
 31
0.0
  0
LINE
  5
1882
330
1D
100
AcDbEntity
  8
0
100
AcDbLine
 10
282.76715
 20
1057.7145
 30
0.0
 11
283.26715
 21
1057.3645
 31
0.0
  0
LINE
  5
1883
330
1D
100
AcDbEntity
  8
0
100
AcDbLine
 10
282.76715
 20
1057.7145
 30
0.0
 11
283.413414047623
 21
1058.63741238885
 31
0.0
  0
LINE
  5
1884
330
1D
100
AcDbEntity
  8
0
100
AcDbLine
 10
282.64815
 20
1057.3675
 30
0.0
 11
282.850251810927
 21
1057.65586477901
 31
0.0
  0
LINE
  5
1885
330
1D
100
AcDbEntity
  8
0
100
AcDbLine
 10
282.60715
 20
1056.9665
 30
0.0
 11
282.68115
 21
1056.9145
 31
0.0
  0
LINE
  5
1886
330
1D
100
AcDbEntity
  8
0
100
AcDbLine
 10
282.60715
 20
1056.9665
 30
0.0
 11
282.981736100661
 21
1057.50143638438
 31
0.0
  0
LINE
  5
1887
330
1D
100
AcDbEntity
  8
0
100
AcDbLine
 10
282.60715
 20
1056.9665
 30
0.0
 11
282.98115
 21
1056.7045
 31
0.0
  0
LINE
  5
1888
330
1D
100
AcDbEntity
  8
0
100
AcDbLine
 10
282.60715
 20
1056.9665
 30
0.0
 11
283.011215207642
 21
1057.54353470804
 31
0.0
  0
LINE
  5
1889
330
1D
100
AcDbEntity
  8
0
100
AcDbLine
 10
282.68115
 20
1056.9145
 30
0.0
 11
283.18115
 21
1056.5645
 31
0.0
  0
LINE
  5
188A
330
1D
100
AcDbEntity
  8
0
100
AcDbLine
 10
282.52115
 20
1057.4565
 30
0.0
 11
282.64815
 21
1057.3675
 31
0.0
  0
LINE
  5
188B
330
1D
100
AcDbEntity
  8
0
100
AcDbLine
 10
277.42515
 20
1060.2945
 30
0.0
 11
277.768010320956
 21
1060.78412964754
 31
0.0
  0
LINE
  5
188C
330
1D
100
AcDbEntity
  8
0
100
AcDbLine
 10
277.19315
 20
1060.4565
 30
0.0
 11
277.42515
 21
1060.2945
 31
0.0
  0
LINE
  5
188D
330
1D
100
AcDbEntity
  8
0
100
AcDbLine
 10
277.19315
 20
1060.4565
 30
0.0
 11
277.536488427598
 21
1060.94638531743
 31
0.0
  0
LINE
  5
188E
330
1D
100
AcDbEntity
  8
0
100
AcDbLine
 10
278.26015
 20
1059.7095
 30
0.0
 11
278.67615
 21
1059.4185
 31
0.0
  0
LINE
  5
188F
330
1D
100
AcDbEntity
  8
0
100
AcDbLine
 10
278.26015
 20
1059.7095
 30
0.0
 11
278.401567210758
 21
1059.91157742671
 31
0.0
  0
LINE
  5
1890
330
1D
100
AcDbEntity
  8
0
100
AcDbLine
 10
275.34015
 20
1061.7545
 30
0.0
 11
275.57115
 21
1061.5925
 31
0.0
  0
LINE
  5
1891
330
1D
100
AcDbEntity
  8
0
100
AcDbLine
 10
275.34015
 20
1061.7545
 30
0.0
 11
275.68393830535
 21
1062.24545487721
 31
0.0
  0
LINE
  5
1892
330
1D
100
AcDbEntity
  8
0
100
AcDbLine
 10
278.14915
 20
1060.9475
 30
0.0
 11
278.77215
 21
1060.5115
 31
0.0
  0
LINE
  5
1893
330
1D
100
AcDbEntity
  8
0
100
AcDbLine
 10
278.08715
 20
1060.9915
 30
0.0
 11
278.71015
 21
1060.5555
 31
0.0
  0
LINE
  5
1894
330
1D
100
AcDbEntity
  8
0
100
AcDbLine
 10
278.08715
 20
1060.9915
 30
0.0
 11
278.73348646658
 21
1061.91451580842
 31
0.0
  0
LINE
  5
1895
330
1D
100
AcDbEntity
  8
0
100
AcDbLine
 10
277.74315
 20
1060.8015
 30
0.0
 11
278.36715
 21
1060.3655
 31
0.0
  0
LINE
  5
1896
330
1D
100
AcDbEntity
  8
0
100
AcDbLine
 10
277.74315
 20
1060.8015
 30
0.0
 11
277.945382314253
 21
1061.09022714552
 31
0.0
  0
LINE
  5
1897
330
1D
100
AcDbEntity
  8
0
100
AcDbLine
 10
277.69515
 20
1061.2655
 30
0.0
 11
278.14915
 21
1060.9475
 31
0.0
  0
LINE
  5
1898
330
1D
100
AcDbEntity
  8
0
100
AcDbLine
 10
277.25915
 20
1061.1415
 30
0.0
 11
277.766421600783
 21
1061.86592099571
 31
0.0
  0
LINE
  5
1899
330
1D
100
AcDbEntity
  8
0
100
AcDbLine
 10
277.27815
 20
1061.1275
 30
0.0
 11
277.74315
 21
1060.8015
 31
0.0
  0
LINE
  5
189A
330
1D
100
AcDbEntity
  8
0
100
AcDbLine
 10
277.27815
 20
1061.1275
 30
0.0
 11
277.787013233265
 21
1061.85356095478
 31
0.0
  0
LINE
  5
189B
330
1D
100
AcDbEntity
  8
0
100
AcDbLine
 10
276.61415
 20
1060.8625
 30
0.0
 11
277.19315
 21
1060.4565
 31
0.0
  0
LINE
  5
189C
330
1D
100
AcDbEntity
  8
0
100
AcDbLine
 10
276.61415
 20
1060.8625
 30
0.0
 11
277.098460337183
 21
1061.55413062974
 31
0.0
  0
LINE
  5
189D
330
1D
100
AcDbEntity
  8
0
100
AcDbLine
 10
277.66015
 20
1061.2905
 30
0.0
 11
278.08715
 21
1060.9915
 31
0.0
  0
LINE
  5
189E
330
1D
100
AcDbEntity
  8
0
100
AcDbLine
 10
277.66015
 20
1061.2905
 30
0.0
 11
278.306488957792
 21
1062.21351936605
 31
0.0
  0
LINE
  5
189F
330
1D
100
AcDbEntity
  8
0
100
AcDbLine
 10
275.80315
 20
1061.4295
 30
0.0
 11
276.03515
 21
1061.2675
 31
0.0
  0
LINE
  5
18A0
330
1D
100
AcDbEntity
  8
0
100
AcDbLine
 10
275.80315
 20
1061.4295
 30
0.0
 11
276.265333502001
 21
1062.08993483852
 31
0.0
  0
LINE
  5
18A1
330
1D
100
AcDbEntity
  8
0
100
AcDbLine
 10
276.03515
 20
1061.2675
 30
0.0
 11
276.61415
 21
1060.8625
 31
0.0
  0
LINE
  5
18A2
330
1D
100
AcDbEntity
  8
0
100
AcDbLine
 10
276.03515
 20
1061.2675
 30
0.0
 11
276.503705701927
 21
1061.93663185681
 31
0.0
  0
LINE
  5
18A3
330
1D
100
AcDbEntity
  8
0
100
AcDbLine
 10
275.57115
 20
1061.5925
 30
0.0
 11
275.803431829723
 21
1061.42990271919
 31
0.0
  0
LINE
  5
18A4
330
1D
100
AcDbEntity
  8
0
100
AcDbLine
 10
275.57115
 20
1061.5925
 30
0.0
 11
275.920843006095
 21
1062.09145221601
 31
0.0
  0
LINE
  5
18A5
330
1D
100
AcDbEntity
  8
0
100
AcDbLine
 10
278.220568867914
 20
1060.46791886793
 30
0.0
 11
278.29815
 21
1060.4135
 31
0.0
  0
LINE
  5
18A6
330
1D
100
AcDbEntity
  8
0
100
AcDbLine
 10
279.12015
 20
1059.4075
 30
0.0
 11
279.71815
 21
1058.9895
 31
0.0
  0
LINE
  5
18A7
330
1D
100
AcDbEntity
  8
0
100
AcDbLine
 10
279.12015
 20
1059.4075
 30
0.0
 11
279.597116800415
 21
1060.08846566714
 31
0.0
  0
LINE
  5
18A8
330
1D
100
AcDbEntity
  8
0
100
AcDbLine
 10
278.74415
 20
1059.3705
 30
0.0
 11
279.012598512399
 21
1059.18250000013
 31
0.0
  0
LINE
  5
18A9
330
1D
100
AcDbEntity
  8
0
100
AcDbLine
 10
278.74415
 20
1059.3705
 30
0.0
 11
279.012598512399
 21
1059.18250000013
 31
0.0
  0
LINE
  5
18AA
330
1D
100
AcDbEntity
  8
0
100
AcDbLine
 10
278.466076910492
 20
1059.56545016598
 30
0.0
 11
278.74415
 21
1059.3705
 31
0.0
  0
LINE
  5
18AB
330
1D
100
AcDbEntity
  8
0
100
AcDbLine
 10
278.67615
 20
1059.4185
 30
0.0
 11
279.29915
 21
1058.9815
 31
0.0
  0
LINE
  5
18AC
330
1D
100
AcDbEntity
  8
0
100
AcDbLine
 10
278.67615
 20
1059.4185
 30
0.0
 11
278.81723342059
 21
1059.61997745678
 31
0.0
  0
LINE
  5
18AD
330
1D
100
AcDbEntity
  8
0
100
AcDbLine
 10
278.56415
 20
1059.7975
 30
0.0
 11
279.12015
 21
1059.4075
 31
0.0
  0
LINE
  5
18AE
330
1D
100
AcDbEntity
  8
0
100
AcDbLine
 10
278.56415
 20
1059.7975
 30
0.0
 11
278.765862880837
 21
1060.08573662746
 31
0.0
  0
LINE
  5
18AF
330
1D
100
AcDbEntity
  8
0
100
AcDbLine
 10
278.450323912924
 20
1059.57619565226
 30
0.0
 11
278.642189867224
 21
1059.44198172749
 31
0.0
  0
LINE
  5
18B0
330
1D
100
AcDbEntity
  8
0
100
AcDbLine
 10
278.43415
 20
1059.5875
 30
0.0
 11
278.589150000074
 21
1059.47916666662
 31
0.0
  0
LINE
  5
18B1
330
1D
100
AcDbEntity
  8
0
100
AcDbLine
 10
279.19915
 20
1060.2125
 30
0.0
 11
279.845639531287
 21
1061.13573439603
 31
0.0
  0
LINE
  5
18B2
330
1D
100
AcDbEntity
  8
0
100
AcDbLine
 10
279.16515
 20
1060.2365
 30
0.0
 11
279.81154950004
 21
1061.15960582482
 31
0.0
  0
LINE
  5
18B3
330
1D
100
AcDbEntity
  8
0
100
AcDbLine
 10
278.78315
 20
1060.0745
 30
0.0
 11
278.984858370948
 21
1060.36255432573
 31
0.0
  0
LINE
  5
18B4
330
1D
100
AcDbEntity
  8
0
100
AcDbLine
 10
278.77215
 20
1060.5115
 30
0.0
 11
279.19915
 21
1060.2125
 31
0.0
  0
LINE
  5
18B5
330
1D
100
AcDbEntity
  8
0
100
AcDbLine
 10
278.71015
 20
1060.5555
 30
0.0
 11
279.16515
 21
1060.2365
 31
0.0
  0
LINE
  5
18B6
330
1D
100
AcDbEntity
  8
0
100
AcDbLine
 10
278.71015
 20
1060.5555
 30
0.0
 11
279.356367293945
 21
1061.47834562117
 31
0.0
  0
LINE
  5
18B7
330
1D
100
AcDbEntity
  8
0
100
AcDbLine
 10
278.36715
 20
1060.3655
 30
0.0
 11
278.78315
 21
1060.0745
 31
0.0
  0
LINE
  5
18B8
330
1D
100
AcDbEntity
  8
0
100
AcDbLine
 10
278.36715
 20
1060.3655
 30
0.0
 11
278.568960435062
 21
1060.65370008076
 31
0.0
  0
LINE
  5
18B9
330
1D
100
AcDbEntity
  8
0
100
AcDbLine
 10
278.38315
 20
1059.9245
 30
0.0
 11
278.584830907403
 21
1060.21251510578
 31
0.0
  0
LINE
  5
18BA
330
1D
100
AcDbEntity
  8
0
100
AcDbLine
 10
278.38315
 20
1059.9245
 30
0.0
 11
278.56415
 21
1059.7975
 31
0.0
  0
LINE
  5
18BB
330
1D
100
AcDbEntity
  8
0
100
AcDbLine
 10
278.29815
 20
1060.4135
 30
0.0
 11
278.584830907403
 21
1060.21251510578
 31
0.0
  0
LINE
  5
18BC
330
1D
100
AcDbEntity
  8
0
100
AcDbLine
 10
278.29815
 20
1060.4135
 30
0.0
 11
278.76315
 21
1060.0875
 31
0.0
  0
LINE
  5
18BD
330
1D
100
AcDbEntity
  8
0
100
AcDbLine
 10
280.298961685182
 20
1059.2209144307
 30
0.0
 11
281.169020285514
 21
1058.65393016387
 31
0.0
  0
LINE
  5
18BE
330
1D
100
AcDbEntity
  8
0
100
AcDbLine
 10
280.298961685182
 20
1059.2209144307
 30
0.0
 11
281.169020285514
 21
1058.65393016387
 31
0.0
  0
LINE
  5
18BF
330
1D
100
AcDbEntity
  8
0
100
AcDbLine
 10
284.17415
 20
1055.8695
 30
0.0
 11
284.650929361626
 21
1056.55037584511
 31
0.0
  0
LINE
  5
18C0
330
1D
100
AcDbEntity
  8
0
100
AcDbLine
 10
284.10015
 20
1055.9215
 30
0.0
 11
284.17415
 21
1055.8695
 31
0.0
  0
LINE
  5
18C1
330
1D
100
AcDbEntity
  8
0
100
AcDbLine
 10
284.10015
 20
1055.9215
 30
0.0
 11
284.57683644236
 21
1056.6022431496
 31
0.0
  0
LINE
  5
18C2
330
1D
100
AcDbEntity
  8
0
100
AcDbLine
 10
283.60015
 20
1056.2715
 30
0.0
 11
284.10015
 21
1055.9215
 31
0.0
  0
LINE
  5
18C3
330
1D
100
AcDbEntity
  8
0
100
AcDbLine
 10
283.60015
 20
1056.2715
 30
0.0
 11
284.004101994114
 21
1056.84787052819
 31
0.0
  0
LINE
  5
18C4
330
1D
100
AcDbEntity
  8
0
100
AcDbLine
 10
283.80015
 20
1056.1315
 30
0.0
 11
284.17415
 21
1055.8695
 31
0.0
  0
LINE
  5
18C5
330
1D
100
AcDbEntity
  8
0
100
AcDbLine
 10
284.42615
 20
1056.1225
 30
0.0
 11
284.65815
 21
1055.9605
 31
0.0
  0
LINE
  5
18C6
330
1D
100
AcDbEntity
  8
0
100
AcDbLine
 10
284.42615
 20
1056.1225
 30
0.0
 11
284.637779088455
 21
1056.42490634349
 31
0.0
  0
LINE
  5
18C7
330
1D
100
AcDbEntity
  8
0
100
AcDbLine
 10
284.42615
 20
1056.1225
 30
0.0
 11
284.989431904478
 21
1056.92739890274
 31
0.0
  0
LINE
  5
18C8
330
1D
100
AcDbEntity
  8
0
100
AcDbLine
 10
284.81815
 20
1055.4185
 30
0.0
 11
285.020123138021
 21
1055.70668118474
 31
0.0
  0
LINE
  5
18C9
330
1D
100
AcDbEntity
  8
0
100
AcDbLine
 10
284.81815
 20
1055.4185
 30
0.0
 11
284.96115
 21
1055.3185
 31
0.0
  0
LINE
  5
18CA
330
1D
100
AcDbEntity
  8
0
100
AcDbLine
 10
284.65815
 20
1055.9605
 30
0.0
 11
285.020123138021
 21
1055.70668118474
 31
0.0
  0
LINE
  5
18CB
330
1D
100
AcDbEntity
  8
0
100
AcDbLine
 10
284.65815
 20
1055.9605
 30
0.0
 11
285.23715
 21
1055.5545
 31
0.0
  0
LINE
  5
18CC
330
1D
100
AcDbEntity
  8
0
100
AcDbLine
 10
284.65815
 20
1055.9605
 30
0.0
 11
285.231071768151
 21
1056.77867424257
 31
0.0
  0
LINE
  5
18CD
330
1D
100
AcDbEntity
  8
0
100
AcDbLine
 10
283.68615
 20
1057.0705
 30
0.0
 11
283.886149999932
 21
1056.93050000005
 31
0.0
  0
LINE
  5
18CE
330
1D
100
AcDbEntity
  8
0
100
AcDbLine
 10
284.26015
 20
1056.6685
 30
0.0
 11
284.906399194099
 21
1057.59195460255
 31
0.0
  0
LINE
  5
18CF
330
1D
100
AcDbEntity
  8
0
100
AcDbLine
 10
283.88615
 20
1056.9305
 30
0.0
 11
284.26015
 21
1056.6685
 31
0.0
  0
LINE
  5
18D0
330
1D
100
AcDbEntity
  8
0
100
AcDbLine
 10
283.88615
 20
1056.9305
 30
0.0
 11
284.532613286657
 21
1057.85369691678
 31
0.0
  0
LINE
  5
18D1
330
1D
100
AcDbEntity
  8
0
100
AcDbLine
 10
283.067150000007
 20
1057.50449999999
 30
0.0
 11
283.68615
 21
1057.0705
 31
0.0
  0
LINE
  5
18D2
330
1D
100
AcDbEntity
  8
0
100
AcDbLine
 10
283.26715
 20
1057.3645
 30
0.0
 11
283.88615
 21
1056.9305
 31
0.0
  0
LINE
  5
18D3
330
1D
100
AcDbEntity
  8
0
100
AcDbLine
 10
283.26715
 20
1057.3645
 30
0.0
 11
283.913356112458
 21
1058.28732965319
 31
0.0
  0
LINE
  5
18D4
330
1D
100
AcDbEntity
  8
0
100
AcDbLine
 10
282.98115
 20
1056.7045
 30
0.0
 11
283.60015
 21
1056.2715
 31
0.0
  0
LINE
  5
18D5
330
1D
100
AcDbEntity
  8
0
100
AcDbLine
 10
282.98115
 20
1056.7045
 30
0.0
 11
283.385031026675
 21
1057.28162380359
 31
0.0
  0
LINE
  5
18D6
330
1D
100
AcDbEntity
  8
0
100
AcDbLine
 10
283.18115
 20
1056.5645
 30
0.0
 11
283.80015
 21
1056.1315
 31
0.0
  0
LINE
  5
18D7
330
1D
100
AcDbEntity
  8
0
100
AcDbLine
 10
284.571364398129
 20
1056.43675125034
 30
0.0
 11
284.622670502275
 21
1056.40331700369
 31
0.0
  0
LINE
  5
18D8
330
1D
100
AcDbEntity
  8
0
100
AcDbLine
 10
282.80332855633
 20
1057.58891330598
 30
0.0
 11
282.967895626448
 21
1057.4816711736
 31
0.0
  0
LINE
  5
18D9
330
1D
100
AcDbEntity
  8
0
100
AcDbLine
 10
274.65715
 20
1062.9625
 30
0.0
 11
275.276304547814
 21
1063.84723784121
 31
0.0
  0
LINE
  5
18DA
330
1D
100
AcDbEntity
  8
0
100
AcDbLine
 10
274.56815
 20
1063.0255
 30
0.0
 11
274.65715
 21
1062.9625
 31
0.0
  0
LINE
  5
18DB
330
1D
100
AcDbEntity
  8
0
100
AcDbLine
 10
274.56815
 20
1063.0255
 30
0.0
 11
275.172735890152
 21
1063.8888929277
 31
0.0
  0
LINE
  5
18DC
330
1D
100
AcDbEntity
  8
0
100
AcDbLine
 10
284.37015
 20
1070.1755
 30
0.0
 11
294.28215
 21
1063.2345
 31
0.0
  0
LINE
  5
18DD
330
1D
100
AcDbEntity
  8
0
100
AcDbLine
 10
275.48115
 20
1062.3605
 30
0.0
 11
276.149762648774
 21
1061.92479043709
 31
0.0
  0
LINE
  5
18DE
330
1D
100
AcDbEntity
  8
0
100
AcDbLine
 10
274.493035179355
 20
1063.05266994227
 30
0.0
 11
275.15315
 21
1062.5905
 31
0.0
  0
LINE
  5
18DF
330
1D
100
AcDbEntity
  8
0
100
AcDbLine
 10
284.49315
 20
1070.6995
 30
0.0
 11
294.15915
 21
1063.9315
 31
0.0
  0
LINE
  5
18E0
330
1D
100
AcDbEntity
  8
0
100
AcDbLine
 10
274.17215
 20
1077.9265
 30
0.0
 11
284.49315
 21
1070.6995
 31
0.0
  0
LINE
  5
18E1
330
1D
100
AcDbEntity
  8
0
100
AcDbLine
 10
274.45915
 20
1078.3355
 30
0.0
 11
284.94415
 21
1070.9945
 31
0.0
  0
LINE
  5
18E2
330
1D
100
AcDbEntity
  8
0
100
AcDbLine
 10
263.85115
 20
1085.1535
 30
0.0
 11
274.17215
 21
1077.9265
 31
0.0
  0
LINE
  5
18E3
330
1D
100
AcDbEntity
  8
0
100
AcDbLine
 10
240.24615
 20
1087.4875
 30
0.0
 11
240.62015
 21
1087.2265
 31
0.0
  0
LINE
  5
18E4
330
1D
100
AcDbEntity
  8
0
100
AcDbLine
 10
240.24615
 20
1087.4875
 30
0.0
 11
240.892423974462
 21
1088.41099001233
 31
0.0
  0
LINE
  5
18E5
330
1D
100
AcDbEntity
  8
0
100
AcDbLine
 10
240.62015
 20
1087.2265
 30
0.0
 11
241.266286818288
 21
1088.14923069604
 31
0.0
  0
LINE
  5
18E6
330
1D
100
AcDbEntity
  8
0
100
AcDbLine
 10
240.54615
 20
1087.2775
 30
0.0
 11
240.62015
 21
1087.2265
 31
0.0
  0
LINE
  5
18E7
330
1D
100
AcDbEntity
  8
0
100
AcDbLine
 10
240.246150000068
 20
1087.48749999995
 30
0.0
 11
240.54615
 21
1087.2775
 31
0.0
  0
LINE
  5
18E8
330
1D
100
AcDbEntity
  8
0
100
AcDbLine
 10
241.21715
 20
1086.3785
 30
0.0
 11
241.41215
 21
1086.2415
 31
0.0
  0
LINE
  5
18E9
330
1D
100
AcDbEntity
  8
0
100
AcDbLine
 10
241.21715
 20
1086.3785
 30
0.0
 11
241.51215
 21
1086.1715
 31
0.0
  0
LINE
  5
18EA
330
1D
100
AcDbEntity
  8
0
100
AcDbLine
 10
241.21715
 20
1086.3785
 30
0.0
 11
241.770984679545
 21
1087.16941648221
 31
0.0
  0
LINE
  5
18EB
330
1D
100
AcDbEntity
  8
0
100
AcDbLine
 10
242.00915
 20
1085.8235
 30
0.0
 11
242.39515
 21
1085.5535
 31
0.0
  0
LINE
  5
18EC
330
1D
100
AcDbEntity
  8
0
100
AcDbLine
 10
242.00915
 20
1085.8235
 30
0.0
 11
242.09815
 21
1085.7605
 31
0.0
  0
LINE
  5
18ED
330
1D
100
AcDbEntity
  8
0
100
AcDbLine
 10
242.00915
 20
1085.8235
 30
0.0
 11
242.571382008293
 21
1086.62640848264
 31
0.0
  0
LINE
  5
18EE
330
1D
100
AcDbEntity
  8
0
100
AcDbLine
 10
242.09815
 20
1085.7605
 30
0.0
 11
242.196081694043
 21
1085.69208743166
 31
0.0
  0
LINE
  5
18EF
330
1D
100
AcDbEntity
  8
0
100
AcDbLine
 10
242.09815
 20
1085.7605
 30
0.0
 11
242.196081694043
 21
1085.69208743166
 31
0.0
  0
LINE
  5
18F0
330
1D
100
AcDbEntity
  8
0
100
AcDbLine
 10
242.09815
 20
1085.7605
 30
0.0
 11
242.58915
 21
1085.4175
 31
0.0
  0
LINE
  5
18F1
330
1D
100
AcDbEntity
  8
0
100
AcDbLine
 10
242.196081694043
 20
1085.69208743166
 30
0.0
 11
242.55415
 21
1085.4415
 31
0.0
  0
LINE
  5
18F2
330
1D
100
AcDbEntity
  8
0
100
AcDbLine
 10
242.196081694043
 20
1085.69208743166
 30
0.0
 11
242.55415
 21
1085.4415
 31
0.0
  0
LINE
  5
18F3
330
1D
100
AcDbEntity
  8
0
100
AcDbLine
 10
242.50415
 20
1085.9065
 30
0.0
 11
243.10115
 21
1085.4885
 31
0.0
  0
LINE
  5
18F4
330
1D
100
AcDbEntity
  8
0
100
AcDbLine
 10
242.22215
 20
1086.1035
 30
0.0
 11
242.40315
 21
1085.9775
 31
0.0
  0
LINE
  5
18F5
330
1D
100
AcDbEntity
  8
0
100
AcDbLine
 10
242.22215
 20
1086.1035
 30
0.0
 11
242.50415
 21
1085.9065
 31
0.0
  0
LINE
  5
18F6
330
1D
100
AcDbEntity
  8
0
100
AcDbLine
 10
242.22215
 20
1086.1035
 30
0.0
 11
242.869040568208
 21
1087.02706588963
 31
0.0
  0
LINE
  5
18F7
330
1D
100
AcDbEntity
  8
0
100
AcDbLine
 10
242.40315
 20
1085.9775
 30
0.0
 11
242.96015
 21
1085.5875
 31
0.0
  0
LINE
  5
18F8
330
1D
100
AcDbEntity
  8
0
100
AcDbLine
 10
242.40315
 20
1085.9775
 30
0.0
 11
243.049585727545
 21
1086.90065756035
 31
0.0
  0
LINE
  5
18F9
330
1D
100
AcDbEntity
  8
0
100
AcDbLine
 10
241.51215
 20
1086.1715
 30
0.0
 11
242.068072437669
 21
1085.78179085873
 31
0.0
  0
LINE
  5
18FA
330
1D
100
AcDbEntity
  8
0
100
AcDbLine
 10
241.51215
 20
1086.1715
 30
0.0
 11
242.052978920929
 21
1086.9443148225
 31
0.0
  0
LINE
  5
18FB
330
1D
100
AcDbEntity
  8
0
100
AcDbLine
 10
241.51215
 20
1086.1715
 30
0.0
 11
242.068072437669
 21
1085.78179085873
 31
0.0
  0
LINE
  5
18FC
330
1D
100
AcDbEntity
  8
0
100
AcDbLine
 10
241.96115
 20
1085.8565
 30
0.0
 11
242.082826886782
 21
1085.77134669812
 31
0.0
  0
LINE
  5
18FD
330
1D
100
AcDbEntity
  8
0
100
AcDbLine
 10
241.41215
 20
1086.2415
 30
0.0
 11
241.96115
 21
1085.8565
 31
0.0
  0
LINE
  5
18FE
330
1D
100
AcDbEntity
  8
0
100
AcDbLine
 10
241.41215
 20
1086.2415
 30
0.0
 11
241.603226923245
 21
1086.10765384604
 31
0.0
  0
LINE
  5
18FF
330
1D
100
AcDbEntity
  8
0
100
AcDbLine
 10
235.57615
 20
1090.7575
 30
0.0
 11
236.18415
 21
1090.3325
 31
0.0
  0
LINE
  5
1900
330
1D
100
AcDbEntity
  8
0
100
AcDbLine
 10
235.57615
 20
1090.7575
 30
0.0
 11
236.222615092016
 21
1091.68069949496
 31
0.0
  0
LINE
  5
1901
330
1D
100
AcDbEntity
  8
0
100
AcDbLine
 10
235.37715
 20
1090.8965
 30
0.0
 11
235.89915
 21
1090.5315
 31
0.0
  0
LINE
  5
1902
330
1D
100
AcDbEntity
  8
0
100
AcDbLine
 10
235.23515
 20
1090.9965
 30
0.0
 11
235.37715
 21
1090.8965
 31
0.0
  0
LINE
  5
1903
330
1D
100
AcDbEntity
  8
0
100
AcDbLine
 10
235.23515
 20
1090.9965
 30
0.0
 11
235.57615
 21
1090.7575
 31
0.0
  0
LINE
  5
1904
330
1D
100
AcDbEntity
  8
0
100
AcDbLine
 10
235.23515
 20
1090.9965
 30
0.0
 11
235.881507522989
 21
1091.91954587851
 31
0.0
  0
LINE
  5
1905
330
1D
100
AcDbEntity
  8
0
100
AcDbLine
 10
238.037831724763
 20
1089.03392094462
 30
0.0
 11
238.21815
 21
1088.9075
 31
0.0
  0
LINE
  5
1906
330
1D
100
AcDbEntity
  8
0
100
AcDbLine
 10
238.21815
 20
1088.9075
 30
0.0
 11
238.85834714044
 21
1089.82230655029
 31
0.0
  0
LINE
  5
1907
330
1D
100
AcDbEntity
  8
0
100
AcDbLine
 10
237.76315
 20
1089.2265
 30
0.0
 11
238.21815
 21
1088.9075
 31
0.0
  0
LINE
  5
1908
330
1D
100
AcDbEntity
  8
0
100
AcDbLine
 10
237.76315
 20
1089.2265
 30
0.0
 11
238.409447933385
 21
1090.1494607802
 31
0.0
  0
LINE
  5
1909
330
1D
100
AcDbEntity
  8
0
100
AcDbLine
 10
237.28303990826
 20
1089.5625
 30
0.0
 11
237.82515
 21
1089.1825
 31
0.0
  0
LINE
  5
190A
330
1D
100
AcDbEntity
  8
0
100
AcDbLine
 10
237.82515
 20
1089.1825
 30
0.0
 11
238.037831724763
 21
1089.03392094462
 31
0.0
  0
LINE
  5
190B
330
1D
100
AcDbEntity
  8
0
100
AcDbLine
 10
237.82515
 20
1089.1825
 30
0.0
 11
238.037831724763
 21
1089.03392094462
 31
0.0
  0
LINE
  5
190C
330
1D
100
AcDbEntity
  8
0
100
AcDbLine
 10
238.25315
 20
1088.8835
 30
0.0
 11
238.891643448005
 21
1089.79531540352
 31
0.0
  0
LINE
  5
190D
330
1D
100
AcDbEntity
  8
0
100
AcDbLine
 10
237.28303990826
 20
1089.5625
 30
0.0
 11
237.82515
 21
1089.1825
 31
0.0
  0
LINE
  5
190E
330
1D
100
AcDbEntity
  8
0
100
AcDbLine
 10
237.14015
 20
1089.6625
 30
0.0
 11
237.28303990826
 21
1089.5625
 31
0.0
  0
LINE
  5
190F
330
1D
100
AcDbEntity
  8
0
100
AcDbLine
 10
237.14015
 20
1089.6625
 30
0.0
 11
237.28303990826
 21
1089.5625
 31
0.0
  0
LINE
  5
1910
330
1D
100
AcDbEntity
  8
0
100
AcDbLine
 10
237.14015
 20
1089.6625
 30
0.0
 11
237.76315
 21
1089.2265
 31
0.0
  0
LINE
  5
1911
330
1D
100
AcDbEntity
  8
0
100
AcDbLine
 10
237.14015
 20
1089.6625
 30
0.0
 11
237.786555922057
 21
1090.58561499593
 31
0.0
  0
LINE
  5
1912
330
1D
100
AcDbEntity
  8
0
100
AcDbLine
 10
236.730794628091
 20
1089.94914462811
 30
0.0
 11
236.84815
 21
1089.8665
 31
0.0
  0
LINE
  5
1913
330
1D
100
AcDbEntity
  8
0
100
AcDbLine
 10
236.730794628091
 20
1089.94914462811
 30
0.0
 11
236.84815
 21
1089.8665
 31
0.0
  0
LINE
  5
1914
330
1D
100
AcDbEntity
  8
0
100
AcDbLine
 10
236.70615
 20
1089.9665
 30
0.0
 11
237.277130514666
 21
1090.78190199043
 31
0.0
  0
LINE
  5
1915
330
1D
100
AcDbEntity
  8
0
100
AcDbLine
 10
236.71315
 20
1089.9615
 30
0.0
 11
237.14015
 21
1089.6625
 31
0.0
  0
LINE
  5
1916
330
1D
100
AcDbEntity
  8
0
100
AcDbLine
 10
236.71315
 20
1089.9615
 30
0.0
 11
237.359550746434
 21
1090.88460760476
 31
0.0
  0
LINE
  5
1917
330
1D
100
AcDbEntity
  8
0
100
AcDbLine
 10
236.848369983391
 20
1089.86681434418
 30
0.0
 11
237.14015
 21
1089.6625
 31
0.0
  0
LINE
  5
1918
330
1D
100
AcDbEntity
  8
0
100
AcDbLine
 10
236.50715
 20
1090.1055
 30
0.0
 11
236.84815
 21
1089.8665
 31
0.0
  0
LINE
  5
1919
330
1D
100
AcDbEntity
  8
0
100
AcDbLine
 10
236.375378606981
 20
1090.19782666682
 30
0.0
 11
236.50715
 21
1090.1055
 31
0.0
  0
LINE
  5
191A
330
1D
100
AcDbEntity
  8
0
100
AcDbLine
 10
236.18415
 20
1090.3325
 30
0.0
 11
236.70615
 21
1089.9665
 31
0.0
  0
LINE
  5
191B
330
1D
100
AcDbEntity
  8
0
100
AcDbLine
 10
236.18415
 20
1090.3325
 30
0.0
 11
236.830273640788
 21
1091.2552118776
 31
0.0
  0
LINE
  5
191C
330
1D
100
AcDbEntity
  8
0
100
AcDbLine
 10
235.89915
 20
1090.5315
 30
0.0
 11
236.286059090909
 21
1090.26040909091
 31
0.0
  0
LINE
  5
191D
330
1D
100
AcDbEntity
  8
0
100
AcDbLine
 10
235.89915
 20
1090.5315
 30
0.0
 11
236.50715
 21
1090.1055
 31
0.0
  0
LINE
  5
191E
330
1D
100
AcDbEntity
  8
0
100
AcDbLine
 10
236.286059090909
 20
1090.26040909091
 30
0.0
 11
236.37515
 21
1090.1975
 31
0.0
  0
LINE
  5
191F
330
1D
100
AcDbEntity
  8
0
100
AcDbLine
 10
235.656604545477
 20
1090.70109595958
 30
0.0
 11
236.37515
 21
1090.1975
 31
0.0
  0
LINE
  5
1920
330
1D
100
AcDbEntity
  8
0
100
AcDbLine
 10
234.73715
 20
1091.3455
 30
0.0
 11
234.98315
 21
1091.1735
 31
0.0
  0
LINE
  5
1921
330
1D
100
AcDbEntity
  8
0
100
AcDbLine
 10
234.73715
 20
1091.3455
 30
0.0
 11
235.242757142821
 21
1090.99114285717
 31
0.0
  0
LINE
  5
1922
330
1D
100
AcDbEntity
  8
0
100
AcDbLine
 10
234.73715
 20
1091.3455
 30
0.0
 11
235.383358725611
 21
1092.26833338496
 31
0.0
  0
LINE
  5
1923
330
1D
100
AcDbEntity
  8
0
100
AcDbLine
 10
234.98315
 20
1091.1735
 30
0.0
 11
235.235245879166
 21
1090.99663692247
 31
0.0
  0
LINE
  5
1924
330
1D
100
AcDbEntity
  8
0
100
AcDbLine
 10
234.98315
 20
1091.1735
 30
0.0
 11
235.61841274226
 21
1092.08070171911
 31
0.0
  0
LINE
  5
1925
330
1D
100
AcDbEntity
  8
0
100
AcDbLine
 10
239.05315
 20
1088.3235
 30
0.0
 11
239.464070393796
 21
1088.9103244159
 31
0.0
  0
LINE
  5
1926
330
1D
100
AcDbEntity
  8
0
100
AcDbLine
 10
239.05315
 20
1088.3235
 30
0.0
 11
239.12715
 21
1088.2715
 31
0.0
  0
LINE
  5
1927
330
1D
100
AcDbEntity
  8
0
100
AcDbLine
 10
239.05315
 20
1088.3235
 30
0.0
 11
239.127225367474
 21
1088.27160763027
 31
0.0
  0
LINE
  5
1928
330
1D
100
AcDbEntity
  8
0
100
AcDbLine
 10
239.05315
 20
1088.3235
 30
0.0
 11
239.69934879046
 21
1089.24631919684
 31
0.0
  0
LINE
  5
1929
330
1D
100
AcDbEntity
  8
0
100
AcDbLine
 10
253.48815
 20
1091.7985
 30
0.0
 11
263.40015
 21
1084.8585
 31
0.0
  0
LINE
  5
192A
330
1D
100
AcDbEntity
  8
0
100
AcDbLine
 10
239.12715
 20
1088.2715
 30
0.0
 11
239.62615
 21
1087.9215
 31
0.0
  0
LINE
  5
192B
330
1D
100
AcDbEntity
  8
0
100
AcDbLine
 10
239.12715
 20
1088.2715
 30
0.0
 11
239.773437620138
 21
1089.19444605212
 31
0.0
  0
LINE
  5
192C
330
1D
100
AcDbEntity
  8
0
100
AcDbLine
 10
239.62615
 20
1087.9215
 30
0.0
 11
240.24615
 21
1087.4875
 31
0.0
  0
LINE
  5
192D
330
1D
100
AcDbEntity
  8
0
100
AcDbLine
 10
239.62615
 20
1087.9215
 30
0.0
 11
240.27273183585
 21
1088.84486621371
 31
0.0
  0
LINE
  5
192E
330
1D
100
AcDbEntity
  8
0
100
AcDbLine
 10
238.698100492424
 20
1089.51892188892
 30
0.0
 11
239.464070393796
 21
1088.9103244159
 31
0.0
  0
LINE
  5
192F
330
1D
100
AcDbEntity
  8
0
100
AcDbLine
 10
240.964458930093
 20
1087.71819836747
 30
0.0
 11
241.729574493698
 21
1087.11027970417
 31
0.0
  0
LINE
  5
1930
330
1D
100
AcDbEntity
  8
0
100
AcDbLine
 10
240.964458930093
 20
1087.71819836747
 30
0.0
 11
241.729574493698
 21
1087.11027970417
 31
0.0
  0
LINE
  5
1931
330
1D
100
AcDbEntity
  8
0
100
AcDbLine
 10
254.18515
 20
1091.9215
 30
0.0
 11
263.85115
 21
1085.1535
 31
0.0
  0
LINE
  5
1932
330
1D
100
AcDbEntity
  8
0
100
AcDbLine
 10
263.97415
 20
1085.6775
 30
0.0
 11
274.45915
 21
1078.3355
 31
0.0
  0
LINE
  5
1933
330
1D
100
AcDbEntity
  8
0
100
AcDbLine
 10
285.931712711708
 20
1054.6384322035
 30
0.0
 11
286.09015
 21
1054.5275
 31
0.0
  0
LINE
  5
1934
330
1D
100
AcDbEntity
  8
0
100
AcDbLine
 10
286.43215
 20
1054.2885
 30
0.0
 11
286.968538387825
 21
1055.05450189996
 31
0.0
  0
LINE
  5
1935
330
1D
100
AcDbEntity
  8
0
100
AcDbLine
 10
286.09015
 20
1054.5275
 30
0.0
 11
286.43215
 21
1054.2885
 31
0.0
  0
LINE
  5
1936
330
1D
100
AcDbEntity
  8
0
100
AcDbLine
 10
286.09015
 20
1054.5275
 30
0.0
 11
286.613678933822
 21
1055.27513765789
 31
0.0
  0
LINE
  5
1937
330
1D
100
AcDbEntity
  8
0
100
AcDbLine
 10
285.23715
 20
1055.5545
 30
0.0
 11
285.81615
 21
1055.1495
 31
0.0
  0
LINE
  5
1938
330
1D
100
AcDbEntity
  8
0
100
AcDbLine
 10
285.23715
 20
1055.5545
 30
0.0
 11
285.834106492272
 21
1056.40751803909
 31
0.0
  0
LINE
  5
1939
330
1D
100
AcDbEntity
  8
0
100
AcDbLine
 10
284.96115
 20
1055.3185
 30
0.0
 11
285.48315
 21
1054.9525
 31
0.0
  0
LINE
  5
193A
330
1D
100
AcDbEntity
  8
0
100
AcDbLine
 10
284.96115
 20
1055.3185
 30
0.0
 11
285.162876983687
 21
1055.60658090608
 31
0.0
  0
LINE
  5
193B
330
1D
100
AcDbEntity
  8
0
100
AcDbLine
 10
286.04815
 20
1054.9875
 30
0.0
 11
286.579089663614
 21
1055.74572072275
 31
0.0
  0
LINE
  5
193C
330
1D
100
AcDbEntity
  8
0
100
AcDbLine
 10
285.81615
 20
1055.1495
 30
0.0
 11
286.04815
 21
1054.9875
 31
0.0
  0
LINE
  5
193D
330
1D
100
AcDbEntity
  8
0
100
AcDbLine
 10
285.81615
 20
1055.1495
 30
0.0
 11
286.437161230838
 21
1056.0363495171
 31
0.0
  0
LINE
  5
193E
330
1D
100
AcDbEntity
  8
0
100
AcDbLine
 10
285.81615
 20
1055.1495
 30
0.0
 11
286.437161230838
 21
1056.0363495171
 31
0.0
  0
LINE
  5
193F
330
1D
100
AcDbEntity
  8
0
100
AcDbLine
 10
285.674150000058
 20
1054.81876853373
 30
0.0
 11
285.76715
 21
1054.7535
 31
0.0
  0
LINE
  5
1940
330
1D
100
AcDbEntity
  8
0
100
AcDbLine
 10
285.76715
 20
1054.7535
 30
0.0
 11
285.931712711708
 21
1054.6384322035
 31
0.0
  0
LINE
  5
1941
330
1D
100
AcDbEntity
  8
0
100
AcDbLine
 10
285.76715
 20
1054.7535
 30
0.0
 11
285.931712711708
 21
1054.6384322035
 31
0.0
  0
LINE
  5
1942
330
1D
100
AcDbEntity
  8
0
100
AcDbLine
 10
285.48315
 20
1054.9525
 30
0.0
 11
285.674150000057
 21
1054.81876853373
 31
0.0
  0
LINE
  5
1943
330
1D
100
AcDbEntity
  8
0
100
AcDbLine
 10
285.48315
 20
1054.9525
 30
0.0
 11
285.674150000058
 21
1054.81876853373
 31
0.0
  0
LINE
  5
1944
330
1D
100
AcDbEntity
  8
0
100
AcDbLine
 10
285.48315
 20
1054.9525
 30
0.0
 11
286.09015
 21
1054.5275
 31
0.0
  0
LINE
  5
1945
330
1D
100
AcDbEntity
  8
0
100
AcDbLine
 10
285.48315
 20
1054.9525
 30
0.0
 11
285.685143055614
 21
1055.24113698182
 31
0.0
  0
LINE
  5
1946
330
1D
100
AcDbEntity
  8
0
100
AcDbLine
 10
285.931712711708
 20
1054.6384322035
 30
0.0
 11
286.09015
 21
1054.5275
 31
0.0
  0
LINE
  5
1947
330
1D
100
AcDbEntity
  8
0
100
AcDbLine
 10
291.05215
 20
1051.4835
 30
0.0
 11
291.253791823452
 21
1051.77145929103
 31
0.0
  0
LINE
  5
1948
330
1D
100
AcDbEntity
  8
0
100
AcDbLine
 10
291.03215
 20
1051.4975
 30
0.0
 11
291.233801852057
 21
1051.78547361262
 31
0.0
  0
LINE
  5
1949
330
1D
100
AcDbEntity
  8
0
100
AcDbLine
 10
291.09915
 20
1051.4495
 30
0.0
 11
291.59015
 21
1051.1065
 31
0.0
  0
LINE
  5
194A
330
1D
100
AcDbEntity
  8
0
100
AcDbLine
 10
291.09915
 20
1051.4495
 30
0.0
 11
291.301320303547
 21
1051.73813861282
 31
0.0
  0
LINE
  5
194B
330
1D
100
AcDbEntity
  8
0
100
AcDbLine
 10
289.844115909022
 20
1052.32894318187
 30
0.0
 11
289.94315
 21
1052.2595
 31
0.0
  0
LINE
  5
194C
330
1D
100
AcDbEntity
  8
0
100
AcDbLine
 10
289.844115909022
 20
1052.32894318187
 30
0.0
 11
289.94315
 21
1052.2595
 31
0.0
  0
LINE
  5
194D
330
1D
100
AcDbEntity
  8
0
100
AcDbLine
 10
288.87715
 20
1053.0055
 30
0.0
 11
289.424454370127
 21
1053.78688663993
 31
0.0
  0
LINE
  5
194E
330
1D
100
AcDbEntity
  8
0
100
AcDbLine
 10
288.75015
 20
1053.0955
 30
0.0
 11
288.87715
 21
1053.0055
 31
0.0
  0
LINE
  5
194F
330
1D
100
AcDbEntity
  8
0
100
AcDbLine
 10
288.75015
 20
1053.0955
 30
0.0
 11
289.291945301687
 21
1053.86922336893
 31
0.0
  0
LINE
  5
1950
330
1D
100
AcDbEntity
  8
0
100
AcDbLine
 10
289.52815
 20
1052.5505
 30
0.0
 11
289.876966124323
 21
1053.04863497092
 31
0.0
  0
LINE
  5
1951
330
1D
100
AcDbEntity
  8
0
100
AcDbLine
 10
289.52815
 20
1052.5505
 30
0.0
 11
289.94315
 21
1052.2595
 31
0.0
  0
LINE
  5
1952
330
1D
100
AcDbEntity
  8
0
100
AcDbLine
 10
289.52815
 20
1052.5505
 30
0.0
 11
290.022339285773
 21
1053.2562384918
 31
0.0
  0
LINE
  5
1953
330
1D
100
AcDbEntity
  8
0
100
AcDbLine
 10
289.54715
 20
1052.5365
 30
0.0
 11
289.844115909022
 21
1052.32894318187
 31
0.0
  0
LINE
  5
1954
330
1D
100
AcDbEntity
  8
0
100
AcDbLine
 10
289.54715
 20
1052.5365
 30
0.0
 11
289.844115909022
 21
1052.32894318187
 31
0.0
  0
LINE
  5
1955
330
1D
100
AcDbEntity
  8
0
100
AcDbLine
 10
291.44915
 20
1051.6345
 30
0.0
 11
292.04715
 21
1051.2165
 31
0.0
  0
LINE
  5
1956
330
1D
100
AcDbEntity
  8
0
100
AcDbLine
 10
291.44915
 20
1051.6345
 30
0.0
 11
292.092323955952
 21
1052.55356025615
 31
0.0
  0
LINE
  5
1957
330
1D
100
AcDbEntity
  8
0
100
AcDbLine
 10
291.16815
 20
1051.8315
 30
0.0
 11
291.44915
 21
1051.6345
 31
0.0
  0
LINE
  5
1958
330
1D
100
AcDbEntity
  8
0
100
AcDbLine
 10
291.16815
 20
1051.8315
 30
0.0
 11
291.794513222226
 21
1052.72599255275
 31
0.0
  0
LINE
  5
1959
330
1D
100
AcDbEntity
  8
0
100
AcDbLine
 10
290.56715
 20
1051.8225
 30
0.0
 11
291.010327040281
 21
1051.51275260626
 31
0.0
  0
LINE
  5
195A
330
1D
100
AcDbEntity
  8
0
100
AcDbLine
 10
290.56715
 20
1051.8225
 30
0.0
 11
291.03215
 21
1051.4975
 31
0.0
  0
LINE
  5
195B
330
1D
100
AcDbEntity
  8
0
100
AcDbLine
 10
290.56715
 20
1051.8225
 30
0.0
 11
291.112548740912
 21
1052.60184484425
 31
0.0
  0
LINE
  5
195C
330
1D
100
AcDbEntity
  8
0
100
AcDbLine
 10
289.94315
 20
1052.2595
 30
0.0
 11
290.56715
 21
1051.8225
 31
0.0
  0
LINE
  5
195D
330
1D
100
AcDbEntity
  8
0
100
AcDbLine
 10
289.94315
 20
1052.2595
 30
0.0
 11
290.531157666941
 21
1053.09921801085
 31
0.0
  0
LINE
  5
195E
330
1D
100
AcDbEntity
  8
0
100
AcDbLine
 10
291.01015
 20
1051.5125
 30
0.0
 11
291.09915
 21
1051.4495
 31
0.0
  0
LINE
  5
195F
330
1D
100
AcDbEntity
  8
0
100
AcDbLine
 10
291.01015
 20
1051.5125
 30
0.0
 11
291.099473593446
 21
1051.45001976624
 31
0.0
  0
LINE
  5
1960
330
1D
100
AcDbEntity
  8
0
100
AcDbLine
 10
292.50415
 20
1050.4665
 30
0.0
 11
292.59315
 21
1050.4045
 31
0.0
  0
LINE
  5
1961
330
1D
100
AcDbEntity
  8
0
100
AcDbLine
 10
292.048150000292
 20
1050.7854999998
 30
0.0
 11
292.49815
 21
1050.4705
 31
0.0
  0
LINE
  5
1962
330
1D
100
AcDbEntity
  8
0
100
AcDbLine
 10
292.04815
 20
1050.7855
 30
0.0
 11
292.56915
 21
1050.4205
 31
0.0
  0
LINE
  5
1963
330
1D
100
AcDbEntity
  8
0
100
AcDbLine
 10
291.94815
 20
1050.8555
 30
0.0
 11
292.56915
 21
1050.4205
 31
0.0
  0
LINE
  5
1964
330
1D
100
AcDbEntity
  8
0
100
AcDbLine
 10
291.94815
 20
1050.8555
 30
0.0
 11
292.49815
 21
1050.4705
 31
0.0
  0
LINE
  5
1965
330
1D
100
AcDbEntity
  8
0
100
AcDbLine
 10
292.01415
 20
1050.8095
 30
0.0
 11
292.50415
 21
1050.4665
 31
0.0
  0
LINE
  5
1966
330
1D
100
AcDbEntity
  8
0
100
AcDbLine
 10
291.75315
 20
1050.9915
 30
0.0
 11
292.56915
 21
1050.4205
 31
0.0
  0
LINE
  5
1967
330
1D
100
AcDbEntity
  8
0
100
AcDbLine
 10
291.75315
 20
1050.9915
 30
0.0
 11
292.04815
 21
1050.7855
 31
0.0
  0
LINE
  5
1968
330
1D
100
AcDbEntity
  8
0
100
AcDbLine
 10
291.75315
 20
1050.9915
 30
0.0
 11
291.94815
 21
1050.8555
 31
0.0
  0
LINE
  5
1969
330
1D
100
AcDbEntity
  8
0
100
AcDbLine
 10
292.025969548907
 20
1050.80098872178
 30
0.0
 11
292.56915
 21
1050.4205
 31
0.0
  0
LINE
  5
196A
330
1D
100
AcDbEntity
  8
0
100
AcDbLine
 10
292.20715
 20
1050.6745
 30
0.0
 11
292.59315
 21
1050.4045
 31
0.0
  0
LINE
  5
196B
330
1D
100
AcDbEntity
  8
0
100
AcDbLine
 10
292.20715
 20
1050.6745
 30
0.0
 11
292.408966081493
 21
1050.96270814428
 31
0.0
  0
LINE
  5
196C
330
1D
100
AcDbEntity
  8
0
100
AcDbLine
 10
292.048150000292
 20
1050.7854999998
 30
0.0
 11
292.49815
 21
1050.4705
 31
0.0
  0
LINE
  5
196D
330
1D
100
AcDbEntity
  8
0
100
AcDbLine
 10
292.49815
 20
1050.4705
 30
0.0
 11
292.56915
 21
1050.4205
 31
0.0
  0
LINE
  5
196E
330
1D
100
AcDbEntity
  8
0
100
AcDbLine
 10
292.49815
 20
1050.4705
 30
0.0
 11
293.09115
 21
1050.0555
 31
0.0
  0
LINE
  5
196F
330
1D
100
AcDbEntity
  8
0
100
AcDbLine
 10
293.091150000096
 20
1050.05549999993
 30
0.0
 11
293.19115
 21
1049.9855
 31
0.0
  0
LINE
  5
1970
330
1D
100
AcDbEntity
  8
0
100
AcDbLine
 10
293.38615
 20
1049.8495
 30
0.0
 11
293.940093768662
 21
1050.64057226946
 31
0.0
  0
LINE
  5
1971
330
1D
100
AcDbEntity
  8
0
100
AcDbLine
 10
293.19115
 20
1049.9855
 30
0.0
 11
293.38615
 21
1049.8495
 31
0.0
  0
LINE
  5
1972
330
1D
100
AcDbEntity
  8
0
100
AcDbLine
 10
292.78415
 20
1050.7005
 30
0.0
 11
293.430497128449
 21
1051.62353103435
 31
0.0
  0
LINE
  5
1973
330
1D
100
AcDbEntity
  8
0
100
AcDbLine
 10
292.60315
 20
1050.8265
 30
0.0
 11
292.78415
 21
1050.7005
 31
0.0
  0
LINE
  5
1974
330
1D
100
AcDbEntity
  8
0
100
AcDbLine
 10
292.60315
 20
1050.8265
 30
0.0
 11
293.249854328297
 21
1051.75004114189
 31
0.0
  0
LINE
  5
1975
330
1D
100
AcDbEntity
  8
0
100
AcDbLine
 10
292.59315
 20
1050.4045
 30
0.0
 11
293.155572464699
 21
1051.20768046833
 31
0.0
  0
LINE
  5
1976
330
1D
100
AcDbEntity
  8
0
100
AcDbLine
 10
293.09115
 20
1050.0555
 30
0.0
 11
293.38615
 21
1049.8495
 31
0.0
  0
LINE
  5
1977
330
1D
100
AcDbEntity
  8
0
100
AcDbLine
 10
293.09115
 20
1050.0555
 30
0.0
 11
293.632370049718
 21
1050.82840186699
 31
0.0
  0
LINE
  5
1978
330
1D
100
AcDbEntity
  8
0
100
AcDbLine
 10
293.091150000096
 20
1050.05549999993
 30
0.0
 11
293.19115
 21
1049.9855
 31
0.0
  0
LINE
  5
1979
330
1D
100
AcDbEntity
  8
0
100
AcDbLine
 10
292.56915
 20
1050.4205
 30
0.0
 11
292.627063043436
 21
1050.38028260873
 31
0.0
  0
LINE
  5
197A
330
1D
100
AcDbEntity
  8
0
100
AcDbLine
 10
292.56915
 20
1050.4205
 30
0.0
 11
293.19115
 21
1049.9855
 31
0.0
  0
LINE
  5
197B
330
1D
100
AcDbEntity
  8
0
100
AcDbLine
 10
292.56915
 20
1050.4205
 30
0.0
 11
292.903541592816
 21
1050.18679424786
 31
0.0
  0
LINE
  5
197C
330
1D
100
AcDbEntity
  8
0
100
AcDbLine
 10
292.56915
 20
1050.4205
 30
0.0
 11
293.09115
 21
1050.0555
 31
0.0
  0
LINE
  5
197D
330
1D
100
AcDbEntity
  8
0
100
AcDbLine
 10
292.56915
 20
1050.4205
 30
0.0
 11
292.903541592816
 21
1050.18679424786
 31
0.0
  0
LINE
  5
197E
330
1D
100
AcDbEntity
  8
0
100
AcDbLine
 10
291.687439340105
 20
1051.46793654822
 30
0.0
 11
291.90515
 21
1051.3155
 31
0.0
  0
LINE
  5
197F
330
1D
100
AcDbEntity
  8
0
100
AcDbLine
 10
291.687439340105
 20
1051.46793654822
 30
0.0
 11
291.90515
 21
1051.3155
 31
0.0
  0
LINE
  5
1980
330
1D
100
AcDbEntity
  8
0
100
AcDbLine
 10
291.90515
 20
1051.3155
 30
0.0
 11
292.380486492952
 21
1050.98268483408
 31
0.0
  0
LINE
  5
1981
330
1D
100
AcDbEntity
  8
0
100
AcDbLine
 10
291.90515
 20
1051.3155
 30
0.0
 11
292.380486492952
 21
1050.98268483408
 31
0.0
  0
LINE
  5
1982
330
1D
100
AcDbEntity
  8
0
100
AcDbLine
 10
292.04715
 20
1051.2165
 30
0.0
 11
292.60315
 21
1050.8265
 31
0.0
  0
LINE
  5
1983
330
1D
100
AcDbEntity
  8
0
100
AcDbLine
 10
292.04715
 20
1051.2165
 30
0.0
 11
292.69356543966
 21
1052.13962858776
 31
0.0
  0
LINE
  5
1984
330
1D
100
AcDbEntity
  8
0
100
AcDbLine
 10
291.743566216091
 20
1050.99908378387
 30
0.0
 11
292.01415
 21
1050.8095
 31
0.0
  0
LINE
  5
1985
330
1D
100
AcDbEntity
  8
0
100
AcDbLine
 10
291.743566216091
 20
1050.99908378387
 30
0.0
 11
292.01415
 21
1050.8095
 31
0.0
  0
LINE
  5
1986
330
1D
100
AcDbEntity
  8
0
100
AcDbLine
 10
291.59015
 20
1051.1065
 30
0.0
 11
291.743566216091
 21
1050.99908378387
 31
0.0
  0
LINE
  5
1987
330
1D
100
AcDbEntity
  8
0
100
AcDbLine
 10
291.59015
 20
1051.1065
 30
0.0
 11
291.743566216091
 21
1050.99908378387
 31
0.0
  0
LINE
  5
1988
330
1D
100
AcDbEntity
  8
0
100
AcDbLine
 10
291.59015
 20
1051.1065
 30
0.0
 11
292.20715
 21
1050.6745
 31
0.0
  0
LINE
  5
1989
330
1D
100
AcDbEntity
  8
0
100
AcDbLine
 10
291.59015
 20
1051.1065
 30
0.0
 11
291.791985308039
 21
1051.39473560119
 31
0.0
  0
LINE
  5
198A
330
1D
100
AcDbEntity
  8
0
100
AcDbLine
 10
288.84615
 20
1053.4575
 30
0.0
 11
289.492702143761
 21
1054.38082381123
 31
0.0
  0
LINE
  5
198B
330
1D
100
AcDbEntity
  8
0
100
AcDbLine
 10
288.54915
 20
1053.2355
 30
0.0
 11
288.87715
 21
1053.0055
 31
0.0
  0
LINE
  5
198C
330
1D
100
AcDbEntity
  8
0
100
AcDbLine
 10
293.898427232034
 20
1050.58106940372
 30
0.0
 11
294.731666132
 21
1050.06979462977
 31
0.0
  0
LINE
  5
198D
330
1D
100
AcDbEntity
  8
0
100
AcDbLine
 10
288.66615
 20
1053.5835
 30
0.0
 11
288.84615
 21
1053.4575
 31
0.0
  0
LINE
  5
198E
330
1D
100
AcDbEntity
  8
0
100
AcDbLine
 10
288.56515
 20
1053.6545
 30
0.0
 11
288.84615
 21
1053.4575
 31
0.0
  0
LINE
  5
198F
330
1D
100
AcDbEntity
  8
0
100
AcDbLine
 10
288.56515
 20
1053.6545
 30
0.0
 11
289.211581559985
 21
1054.57765160877
 31
0.0
  0
LINE
  5
1990
330
1D
100
AcDbEntity
  8
0
100
AcDbLine
 10
288.22015
 20
1053.4665
 30
0.0
 11
288.75015
 21
1053.0955
 31
0.0
  0
LINE
  5
1991
330
1D
100
AcDbEntity
  8
0
100
AcDbLine
 10
288.22015
 20
1053.4665
 30
0.0
 11
288.421855398118
 21
1053.75455008031
 31
0.0
  0
LINE
  5
1992
330
1D
100
AcDbEntity
  8
0
100
AcDbLine
 10
287.28015
 20
1054.1245
 30
0.0
 11
287.40815
 21
1054.0345
 31
0.0
  0
LINE
  5
1993
330
1D
100
AcDbEntity
  8
0
100
AcDbLine
 10
287.28015
 20
1054.1245
 30
0.0
 11
287.48190861312
 21
1054.41262607523
 31
0.0
  0
LINE
  5
1994
330
1D
100
AcDbEntity
  8
0
100
AcDbLine
 10
287.28015
 20
1054.1245
 30
0.0
 11
287.60915
 21
1053.8935
 31
0.0
  0
LINE
  5
1995
330
1D
100
AcDbEntity
  8
0
100
AcDbLine
 10
287.41115
 20
1054.4625
 30
0.0
 11
287.96715
 21
1054.0725
 31
0.0
  0
LINE
  5
1996
330
1D
100
AcDbEntity
  8
0
100
AcDbLine
 10
287.41115
 20
1054.4625
 30
0.0
 11
288.057571275092
 21
1055.38563692119
 31
0.0
  0
LINE
  5
1997
330
1D
100
AcDbEntity
  8
0
100
AcDbLine
 10
288.326860659823
 20
1053.82106345183
 30
0.0
 11
288.66615
 21
1053.5835
 31
0.0
  0
LINE
  5
1998
330
1D
100
AcDbEntity
  8
0
100
AcDbLine
 10
288.326860659823
 20
1053.82106345183
 30
0.0
 11
288.66615
 21
1053.5835
 31
0.0
  0
LINE
  5
1999
330
1D
100
AcDbEntity
  8
0
100
AcDbLine
 10
287.51215
 20
1054.3915
 30
0.0
 11
287.633813507055
 21
1054.30631516592
 31
0.0
  0
LINE
  5
199A
330
1D
100
AcDbEntity
  8
0
100
AcDbLine
 10
302.80115
 20
1057.2695
 30
0.0
 11
309.35515
 21
1052.6805
 31
0.0
  0
LINE
  5
199B
330
1D
100
AcDbEntity
  8
0
100
AcDbLine
 10
287.96715
 20
1054.0725
 30
0.0
 11
288.56515
 21
1053.6545
 31
0.0
  0
LINE
  5
199C
330
1D
100
AcDbEntity
  8
0
100
AcDbLine
 10
287.96715
 20
1054.0725
 30
0.0
 11
288.614020190612
 21
1054.99603679653
 31
0.0
  0
LINE
  5
199D
330
1D
100
AcDbEntity
  8
0
100
AcDbLine
 10
287.60915
 20
1053.8935
 30
0.0
 11
288.22015
 21
1053.4665
 31
0.0
  0
LINE
  5
199E
330
1D
100
AcDbEntity
  8
0
100
AcDbLine
 10
287.60915
 20
1053.8935
 30
0.0
 11
287.811045584765
 21
1054.18199770133
 31
0.0
  0
LINE
  5
199F
330
1D
100
AcDbEntity
  8
0
100
AcDbLine
 10
287.468150000003
 20
1053.9925
 30
0.0
 11
287.60915
 21
1053.8935
 31
0.0
  0
LINE
  5
19A0
330
1D
100
AcDbEntity
  8
0
100
AcDbLine
 10
287.871007142821
 20
1053.71050000003
 30
0.0
 11
287.93815
 21
1053.6635
 31
0.0
  0
LINE
  5
19A1
330
1D
100
AcDbEntity
  8
0
100
AcDbLine
 10
287.40815
 20
1054.0345
 30
0.0
 11
287.468150000003
 21
1053.9925
 31
0.0
  0
LINE
  5
19A2
330
1D
100
AcDbEntity
  8
0
100
AcDbLine
 10
287.93815
 20
1053.6635
 30
0.0
 11
288.54915
 21
1053.2355
 31
0.0
  0
LINE
  5
19A3
330
1D
100
AcDbEntity
  8
0
100
AcDbLine
 10
287.23015
 20
1054.5885
 30
0.0
 11
287.48190861312
 21
1054.41262607523
 31
0.0
  0
LINE
  5
19A4
330
1D
100
AcDbEntity
  8
0
100
AcDbLine
 10
287.23015
 20
1054.5885
 30
0.0
 11
287.51215
 21
1054.3915
 31
0.0
  0
LINE
  5
19A5
330
1D
100
AcDbEntity
  8
0
100
AcDbLine
 10
287.23015
 20
1054.5885
 30
0.0
 11
287.41115
 21
1054.4625
 31
0.0
  0
LINE
  5
19A6
330
1D
100
AcDbEntity
  8
0
100
AcDbLine
 10
287.23015
 20
1054.5885
 30
0.0
 11
287.876648472221
 21
1055.5123108073
 31
0.0
  0
LINE
  5
19A7
330
1D
100
AcDbEntity
  8
0
100
AcDbLine
 10
289.198818315356
 20
1053.46474596591
 30
0.0
 11
289.876966124323
 21
1053.04863497092
 31
0.0
  0
LINE
  5
19A8
330
1D
100
AcDbEntity
  8
0
100
AcDbLine
 10
286.882037850232
 20
1054.93097279745
 30
0.0
 11
287.285720931464
 21
1054.66790780878
 31
0.0
  0
LINE
  5
19A9
330
1D
100
AcDbEntity
  8
0
100
AcDbLine
 10
302.51515
 20
1058.0805
 30
0.0
 11
308.90415
 21
1053.6065
 31
0.0
  0
LINE
  5
19AA
330
1D
100
AcDbEntity
  8
0
100
AcDbLine
 10
309.35515
 20
1052.6805
 30
0.0
 11
313.36815
 21
1049.8705
 31
0.0
  0
LINE
  5
19AB
330
1D
100
AcDbEntity
  8
0
100
AcDbLine
 10
308.90415
 20
1053.6065
 30
0.0
 11
312.83615
 21
1050.8535
 31
0.0
  0
LINE
  5
19AC
330
1D
100
AcDbEntity
  8
0
100
AcDbLine
 10
294.28215
 20
1063.2345
 30
0.0
 11
302.80115
 21
1057.2695
 31
0.0
  0
LINE
  5
19AD
330
1D
100
AcDbEntity
  8
0
100
AcDbLine
 10
294.15915
 20
1063.9315
 30
0.0
 11
302.51515
 21
1058.0805
 31
0.0
  0
LINE
  5
19AE
330
1D
100
AcDbEntity
  8
0
100
AcDbLine
 10
294.85615
 20
1064.0535
 30
0.0
 11
303.37515
 21
1058.0885
 31
0.0
  0
LINE
  5
19AF
330
1D
100
AcDbEntity
  8
0
100
AcDbLine
 10
303.37515
 20
1058.0885
 30
0.0
 11
309.92815
 21
1053.5005
 31
0.0
  0
LINE
  5
19B0
330
1D
100
AcDbEntity
  8
0
100
AcDbLine
 10
313.36815
 20
1049.8705
 30
0.0
 11
314.84315
 21
1048.8375
 31
0.0
  0
LINE
  5
19B1
330
1D
100
AcDbEntity
  8
0
100
AcDbLine
 10
312.83615
 20
1050.8535
 30
0.0
 11
324.82715
 21
1041.5485
 31
0.0
  0
LINE
  5
19B2
330
1D
100
AcDbEntity
  8
0
100
AcDbLine
 10
309.92815
 20
1053.5005
 30
0.0
 11
313.94215
 21
1050.6895
 31
0.0
  0
LINE
  5
19B3
330
1D
100
AcDbEntity
  8
0
100
AcDbLine
 10
313.94215
 20
1050.6895
 30
0.0
 11
315.41615
 21
1049.6575
 31
0.0
  0
LINE
  5
19B4
330
1D
100
AcDbEntity
  8
0
100
AcDbLine
 10
298.510339819723
 20
1090.65652432706
 30
0.0
 11
300.27515
 21
1089.3765
 31
0.0
  0
LINE
  5
19B5
330
1D
100
AcDbEntity
  8
0
100
AcDbLine
 10
300.27515
 20
1089.3765
 30
0.0
 11
300.72267218667
 21
1089.01233587638
 31
0.0
  0
LINE
  5
19B6
330
1D
100
AcDbEntity
  8
0
100
AcDbLine
 10
300.27515
 20
1089.3765
 30
0.0
 11
307.93715
 21
1083.7375
 31
0.0
  0
LINE
  5
19B7
330
1D
100
AcDbEntity
  8
0
100
AcDbLine
 10
307.93715
 20
1083.7375
 30
0.0
 11
319.48915
 21
1073.8775
 31
0.0
  0
LINE
  5
19B8
330
1D
100
AcDbEntity
  8
0
100
AcDbLine
 10
284.94415
 20
1070.9945
 30
0.0
 11
294.85615
 21
1064.0535
 31
0.0
  0
LINE
  5
19B9
330
1D
100
AcDbEntity
  8
0
100
AcDbLine
 10
231.45215
 20
1096.2425
 30
0.0
 11
233.21315
 21
1094.3985
 31
0.0
  0
LINE
  5
19BA
330
1D
100
AcDbEntity
  8
0
100
AcDbLine
 10
233.21315
 20
1094.3985
 30
0.0
 11
234.15515
 21
1093.1285
 31
0.0
  0
LINE
  5
19BB
330
1D
100
AcDbEntity
  8
0
100
AcDbLine
 10
244.96915
 20
1097.7645
 30
0.0
 11
253.48815
 21
1091.7985
 31
0.0
  0
LINE
  5
19BC
330
1D
100
AcDbEntity
  8
0
100
AcDbLine
 10
234.15515
 20
1093.1285
 30
0.0
 11
235.445840220188
 21
1092.10298867762
 31
0.0
  0
LINE
  5
19BD
330
1D
100
AcDbEntity
  8
0
100
AcDbLine
 10
245.82915
 20
1097.7725
 30
0.0
 11
254.18515
 21
1091.9215
 31
0.0
  0
LINE
  5
19BE
330
1D
100
AcDbEntity
  8
0
100
AcDbLine
 10
254.06215
 20
1092.6185
 30
0.0
 11
263.97415
 21
1085.6775
 31
0.0
  0
LINE
  5
19BF
330
1D
100
AcDbEntity
  8
0
100
AcDbLine
 10
234.40215
 20
1105.1635
 30
0.0
 11
238.41615
 21
1102.3525
 31
0.0
  0
LINE
  5
19C0
330
1D
100
AcDbEntity
  8
0
100
AcDbLine
 10
231.49415
 20
1104.1475
 30
0.0
 11
232.92815
 21
1106.1955
 31
0.0
  0
LINE
  5
19C1
330
1D
100
AcDbEntity
  8
0
100
AcDbLine
 10
230.46915
 20
1101.8135
 30
0.0
 11
231.49415
 21
1104.1475
 31
0.0
  0
LINE
  5
19C2
330
1D
100
AcDbEntity
  8
0
100
AcDbLine
 10
230.26415
 20
1098.9045
 30
0.0
 11
231.45215
 21
1096.2425
 31
0.0
  0
LINE
  5
19C3
330
1D
100
AcDbEntity
  8
0
100
AcDbLine
 10
230.26415
 20
1098.9045
 30
0.0
 11
230.46915
 21
1101.8135
 31
0.0
  0
LINE
  5
19C4
330
1D
100
AcDbEntity
  8
0
100
AcDbLine
 10
232.92815
 20
1106.1955
 30
0.0
 11
234.03415
 21
1106.0315
 31
0.0
  0
LINE
  5
19C5
330
1D
100
AcDbEntity
  8
0
100
AcDbLine
 10
232.92815
 20
1106.1955
 30
0.0
 11
234.40215
 21
1105.1635
 31
0.0
  0
LINE
  5
19C6
330
1D
100
AcDbEntity
  8
0
100
AcDbLine
 10
234.03415
 20
1106.0315
 30
0.0
 11
235.50815
 21
1104.9995
 31
0.0
  0
LINE
  5
19C7
330
1D
100
AcDbEntity
  8
0
100
AcDbLine
 10
238.41615
 20
1102.3525
 30
0.0
 11
244.96915
 21
1097.7645
 31
0.0
  0
LINE
  5
19C8
330
1D
100
AcDbEntity
  8
0
100
AcDbLine
 10
239.44015
 20
1102.2465
 30
0.0
 11
245.82915
 21
1097.7725
 31
0.0
  0
LINE
  5
19C9
330
1D
100
AcDbEntity
  8
0
100
AcDbLine
 10
235.50815
 20
1104.9995
 30
0.0
 11
239.44015
 21
1102.2465
 31
0.0
  0
LINE
  5
19CA
330
1D
100
AcDbEntity
  8
0
100
AcDbLine
 10
238.99015
 20
1103.1715
 30
0.0
 11
245.54315
 21
1098.5835
 31
0.0
  0
LINE
  5
19CB
330
1D
100
AcDbEntity
  8
0
100
AcDbLine
 10
234.97615
 20
1105.9825
 30
0.0
 11
238.99015
 21
1103.1715
 31
0.0
  0
LINE
  5
19CC
330
1D
100
AcDbEntity
  8
0
100
AcDbLine
 10
233.50115
 20
1107.0145
 30
0.0
 11
239.52415
 21
1115.6155
 31
0.0
  0
LINE
  5
19CD
330
1D
100
AcDbEntity
  8
0
100
AcDbLine
 10
233.50115
 20
1107.0145
 30
0.0
 11
234.03415
 21
1106.0315
 31
0.0
  0
LINE
  5
19CE
330
1D
100
AcDbEntity
  8
0
100
AcDbLine
 10
233.50115
 20
1107.0145
 30
0.0
 11
234.97615
 21
1105.9825
 31
0.0
  0
LINE
  5
19CF
330
1D
100
AcDbEntity
  8
0
100
AcDbLine
 10
245.54315
 20
1098.5835
 30
0.0
 11
254.06215
 21
1092.6185
 31
0.0
  0
LINE
  5
19D0
330
1D
100
AcDbEntity
  8
0
100
AcDbLine
 10
284.35815
 20
1101.1915
 30
0.0
 11
288.51115
 21
1098.4055
 31
0.0
  0
LINE
  5
19D1
330
1D
100
AcDbEntity
  8
0
100
AcDbLine
 10
280.14815
 20
1103.8955
 30
0.0
 11
284.35815
 21
1101.1915
 31
0.0
  0
LINE
  5
19D2
330
1D
100
AcDbEntity
  8
0
100
AcDbLine
 10
274.01215
 20
1107.3365
 30
0.0
 11
280.14815
 21
1103.8955
 31
0.0
  0
LINE
  5
19D3
330
1D
100
AcDbEntity
  8
0
100
AcDbLine
 10
268.52415
 20
1109.9595
 30
0.0
 11
274.01215
 21
1107.3365
 31
0.0
  0
LINE
  5
19D4
330
1D
100
AcDbEntity
  8
0
100
AcDbLine
 10
263.85415
 20
1112.0075
 30
0.0
 11
268.52415
 21
1109.9595
 31
0.0
  0
LINE
  5
19D5
330
1D
100
AcDbEntity
  8
0
100
AcDbLine
 10
256.97315
 20
1114.3845
 30
0.0
 11
263.85415
 21
1112.0075
 31
0.0
  0
LINE
  5
19D6
330
1D
100
AcDbEntity
  8
0
100
AcDbLine
 10
250.21515
 20
1116.0645
 30
0.0
 11
256.97315
 21
1114.3845
 31
0.0
  0
LINE
  5
19D7
330
1D
100
AcDbEntity
  8
0
100
AcDbLine
 10
245.09515
 20
1116.5985
 30
0.0
 11
250.21515
 21
1116.0645
 31
0.0
  0
LINE
  5
19D8
330
1D
100
AcDbEntity
  8
0
100
AcDbLine
 10
240.50715
 20
1116.1485
 30
0.0
 11
245.09515
 21
1116.5985
 31
0.0
  0
LINE
  5
19D9
330
1D
100
AcDbEntity
  8
0
100
AcDbLine
 10
239.52415
 20
1115.6155
 30
0.0
 11
240.50715
 21
1116.1485
 31
0.0
  0
LINE
  5
19DA
330
1D
100
AcDbEntity
  8
0
100
AcDbLine
 10
288.51115
 20
1098.4055
 30
0.0
 11
292.55015
 21
1095.4555
 31
0.0
  0
LINE
  5
19DB
330
1D
100
AcDbEntity
  8
0
100
AcDbLine
 10
292.55015
 20
1095.4555
 30
0.0
 11
296.53115
 21
1092.4235
 31
0.0
  0
LINE
  5
19DC
330
1D
100
AcDbEntity
  8
0
100
AcDbLine
 10
296.53115
 20
1092.4235
 30
0.0
 11
299.210951745748
 21
1090.11762407924
 31
0.0
  0
LINE
  5
19DD
330
1D
100
AcDbEntity
  8
0
100
AcDbLine
 10
324.169621911254
 20
1069.67197365327
 30
0.0
 11
328.83815
 21
1065.7245
 31
0.0
  0
LINE
  5
19DE
330
1D
100
AcDbEntity
  8
0
100
AcDbLine
 10
324.169621911254
 20
1069.67197365327
 30
0.0
 11
328.83815
 21
1065.7245
 31
0.0
  0
LINE
  5
19DF
330
1D
100
AcDbEntity
  8
0
100
AcDbLine
 10
328.83815
 20
1065.7245
 30
0.0
 11
337.69915
 21
1057.8465
 31
0.0
  0
LINE
  5
19E0
330
1D
100
AcDbEntity
  8
0
100
AcDbLine
 10
337.69915
 20
1057.8465
 30
0.0
 11
346.79615
 21
1049.3185
 31
0.0
  0
LINE
  5
19E1
330
1D
100
AcDbEntity
  8
0
100
AcDbLine
 10
319.48915
 20
1073.8775
 30
0.0
 11
324.169621911254
 21
1069.67197365327
 31
0.0
  0
LINE
  5
19E2
330
1D
100
AcDbEntity
  8
0
100
AcDbLine
 10
206.24215
 20
1382.4475
 30
0.0
 11
207.39215
 21
1384.5275
 31
0.0
  0
LINE
  5
19E3
330
1D
100
AcDbEntity
  8
0
100
AcDbLine
 10
207.39315
 20
1384.5275
 30
0.0
 11
211.20315
 21
1395.0075
 31
0.0
  0
LINE
  5
19E4
330
1D
100
AcDbEntity
  8
0
100
AcDbLine
 10
206.24415
 20
1382.4475
 30
0.0
 11
207.39315
 21
1384.5275
 31
0.0
  0
LINE
  5
19E5
330
1D
100
AcDbEntity
  8
0
100
AcDbLine
 10
174.44815
 20
1540.7375
 30
0.0
 11
437.79515
 21
1489.7375
 31
0.0
  0
LINE
  5
19E6
330
1D
100
AcDbEntity
  8
0
100
AcDbLine
 10
168.75415
 20
1519.4875
 30
0.0
 11
426.79515
 21
1470.6875
 31
0.0
  0
LINE
  5
19E7
330
1D
100
AcDbEntity
  8
0
100
AcDbLine
 10
406.34615
 20
938.6455
 30
0.0
 11
408.87615
 21
940.1055
 31
0.0
  0
LINE
  5
19E8
330
1D
100
AcDbEntity
  8
0
100
AcDbLine
 10
409.77215
 20
940.9975
 30
0.0
 11
412.18315
 21
942.3895
 31
0.0
  0
LINE
  5
19E9
330
1D
100
AcDbEntity
  8
0
100
AcDbLine
 10
408.87615
 20
940.1055
 30
0.0
 11
411.74015
 21
941.7595
 31
0.0
  0
LINE
  5
19EA
330
1D
100
AcDbEntity
  8
0
100
AcDbLine
 10
435.79515
 20
871.477213138995
 30
0.0
 11
435.79515
 21
347.8325
 31
0.0
  0
LINE
  5
19EB
330
1D
100
AcDbEntity
  8
0
100
AcDbLine
 10
440.08815
 20
547.2405
 30
0.0
 11
443.91815
 21
673.4115
 31
0.0
  0
LINE
  5
19EC
330
1D
100
AcDbEntity
  8
0
100
AcDbLine
 10
436.84415
 20
868.0745
 30
0.0
 11
442.18915
 21
843.4995
 31
0.0
  0
LINE
  5
19ED
330
1D
100
AcDbEntity
  8
0
100
AcDbLine
 10
435.79515
 20
347.8325
 30
0.0
 11
435.79515
 21
871.477213138995
 31
0.0
  0
LINE
  5
19EE
330
1D
100
AcDbEntity
  8
0
100
AcDbLine
 10
434.03015
 20
875.4065
 30
0.0
 11
434.75659340575
 21
874.84605028756
 31
0.0
  0
LINE
  5
19EF
330
1D
100
AcDbEntity
  8
0
100
AcDbLine
 10
431.20615
 20
879.0975
 30
0.0
 11
434.03015
 21
875.4065
 31
0.0
  0
LINE
  5
19F0
330
1D
100
AcDbEntity
  8
0
100
AcDbLine
 10
429.42215
 20
883.3885
 30
0.0
 11
431.20615
 21
879.0975
 31
0.0
  0
LINE
  5
19F1
330
1D
100
AcDbEntity
  8
0
100
AcDbLine
 10
438.969195092678
 20
882.456190050649
 30
0.0
 11
440.61115
 21
885.1395
 31
0.0
  0
LINE
  5
19F2
330
1D
100
AcDbEntity
  8
0
100
AcDbLine
 10
442.18915
 20
843.4995
 30
0.0
 11
445.94015
 21
819.1705
 31
0.0
  0
LINE
  5
19F3
330
1D
100
AcDbEntity
  8
0
100
AcDbLine
 10
443.91815
 20
673.4115
 30
0.0
 11
446.888745702314
 21
723.395661402284
 31
0.0
  0
LINE
  5
19F4
330
1D
100
AcDbEntity
  8
0
100
AcDbLine
 10
443.91815
 20
673.4115
 30
0.0
 11
446.888745702314
 21
723.395661402284
 31
0.0
  0
LINE
  5
19F5
330
1D
100
AcDbEntity
  8
0
100
AcDbLine
 10
443.09140422078
 20
884.671567447435
 30
0.0
 11
444.68915
 21
886.2015
 31
0.0
  0
LINE
  5
19F6
330
1D
100
AcDbEntity
  8
0
100
AcDbLine
 10
444.68915
 20
886.2015
 30
0.0
 11
446.93115
 21
887.8625
 31
0.0
  0
LINE
  5
19F7
330
1D
100
AcDbEntity
  8
0
100
AcDbLine
 10
440.61115
 20
885.1395
 30
0.0
 11
442.98315
 21
887.6445
 31
0.0
  0
LINE
  5
19F8
330
1D
100
AcDbEntity
  8
0
100
AcDbLine
 10
429.74315
 20
891.1085
 30
0.0
 11
436.84415
 21
868.0745
 31
0.0
  0
LINE
  5
19F9
330
1D
100
AcDbEntity
  8
0
100
AcDbLine
 10
428.80015
 20
888.0175
 30
0.0
 11
429.42215
 21
883.3885
 31
0.0
  0
LINE
  5
19FA
330
1D
100
AcDbEntity
  8
0
100
AcDbLine
 10
428.80015
 20
888.0175
 30
0.0
 11
429.3142618645
 21
892.21357308341
 31
0.0
  0
LINE
  5
19FB
330
1D
100
AcDbEntity
  8
0
100
AcDbLine
 10
442.98315
 20
887.6445
 30
0.0
 11
445.79515
 21
889.8295
 31
0.0
  0
LINE
  5
19FC
330
1D
100
AcDbEntity
  8
0
100
AcDbLine
 10
445.94015
 20
819.1705
 30
0.0
 11
448.08015
 21
797.4055
 31
0.0
  0
LINE
  5
19FD
330
1D
100
AcDbEntity
  8
0
100
AcDbLine
 10
445.79515
 20
889.8295
 30
0.0
 11
449.05515
 21
891.2385
 31
0.0
  0
LINE
  5
19FE
330
1D
100
AcDbEntity
  8
0
100
AcDbLine
 10
424.908530541873
 20
903.565379520543
 30
0.0
 11
429.74315
 21
891.1085
 31
0.0
  0
LINE
  5
19FF
330
1D
100
AcDbEntity
  8
0
100
AcDbLine
 10
447.077308887256
 20
887.927682843629
 30
0.0
 11
451.01415
 21
875.5875
 31
0.0
  0
LINE
  5
1A00
330
1D
100
AcDbEntity
  8
0
100
AcDbLine
 10
446.93115
 20
887.8625
 30
0.0
 11
449.47615
 21
888.9975
 31
0.0
  0
LINE
  5
1A01
330
1D
100
AcDbEntity
  8
0
100
AcDbLine
 10
412.18315
 20
942.3895
 30
0.0
 11
414.80215
 21
943.9015
 31
0.0
  0
LINE
  5
1A02
330
1D
100
AcDbEntity
  8
0
100
AcDbLine
 10
435.79515
 20
934.708043863636
 30
0.0
 11
435.79515
 21
1455.0975
 31
0.0
  0
LINE
  5
1A03
330
1D
100
AcDbEntity
  8
0
100
AcDbLine
 10
414.80215
 20
943.9015
 30
0.0
 11
421.73115
 21
947.9015
 31
0.0
  0
LINE
  5
1A04
330
1D
100
AcDbEntity
  8
0
100
AcDbLine
 10
423.04015
 20
948.6575
 30
0.0
 11
424.24515
 21
949.3535
 31
0.0
  0
LINE
  5
1A05
330
1D
100
AcDbEntity
  8
0
100
AcDbLine
 10
421.73115
 20
947.9015
 30
0.0
 11
423.04015
 21
948.6575
 31
0.0
  0
LINE
  5
1A06
330
1D
100
AcDbEntity
  8
0
100
AcDbLine
 10
423.24415
 20
948.4015
 30
0.0
 11
425.15315
 21
949.5035
 31
0.0
  0
LINE
  5
1A07
330
1D
100
AcDbEntity
  8
0
100
AcDbLine
 10
420.71415
 20
946.9405
 30
0.0
 11
423.24415
 21
948.4015
 31
0.0
  0
LINE
  5
1A08
330
1D
100
AcDbEntity
  8
0
100
AcDbLine
 10
417.85015
 20
945.2865
 30
0.0
 11
420.71415
 21
946.9405
 31
0.0
  0
LINE
  5
1A09
330
1D
100
AcDbEntity
  8
0
100
AcDbLine
 10
414.79515
 20
943.5235
 30
0.0
 11
417.85015
 21
945.2865
 31
0.0
  0
LINE
  5
1A0A
330
1D
100
AcDbEntity
  8
0
100
AcDbLine
 10
411.74015
 20
941.7595
 30
0.0
 11
414.79515
 21
943.5235
 31
0.0
  0
LINE
  5
1A0B
330
1D
100
AcDbEntity
  8
0
100
AcDbLine
 10
448.08015
 20
797.4055
 30
0.0
 11
448.77715
 21
765.7905
 31
0.0
  0
LINE
  5
1A0C
330
1D
100
AcDbEntity
  8
0
100
AcDbLine
 10
457.79515
 20
844.333887173397
 30
0.0
 11
457.79515
 21
874.072085219525
 31
0.0
  0
LINE
  5
1A0D
330
1D
100
AcDbEntity
  8
0
100
AcDbLine
 10
456.91315
 20
849.6835
 30
0.0
 11
461.12315
 21
824.1485
 31
0.0
  0
LINE
  5
1A0E
330
1D
100
AcDbEntity
  8
0
100
AcDbLine
 10
452.058787086297
 20
871.00023451713
 30
0.0
 11
455.79515
 21
872.5095
 31
0.0
  0
LINE
  5
1A0F
330
1D
100
AcDbEntity
  8
0
100
AcDbLine
 10
457.79515
 20
874.072085219526
 30
0.0
 11
457.79515
 21
844.333887173397
 31
0.0
  0
LINE
  5
1A10
330
1D
100
AcDbEntity
  8
0
100
AcDbLine
 10
451.01415
 20
875.5875
 30
0.0
 11
456.91315
 21
849.6835
 31
0.0
  0
LINE
  5
1A11
330
1D
100
AcDbEntity
  8
0
100
AcDbLine
 10
455.79515
 20
872.5095
 30
0.0
 11
459.46215
 21
875.3745
 31
0.0
  0
LINE
  5
1A12
330
1D
100
AcDbEntity
  8
0
100
AcDbLine
 10
459.87515
 20
672.7045
 30
0.0
 11
464.76815
 21
765.2405
 31
0.0
  0
LINE
  5
1A13
330
1D
100
AcDbEntity
  8
0
100
AcDbLine
 10
459.46215
 20
875.3745
 30
0.0
 11
462.33915
 21
879.0305
 31
0.0
  0
LINE
  5
1A14
330
1D
100
AcDbEntity
  8
0
100
AcDbLine
 10
449.47615
 20
888.9975
 30
0.0
 11
452.08515
 21
889.6745
 31
0.0
  0
LINE
  5
1A15
330
1D
100
AcDbEntity
  8
0
100
AcDbLine
 10
449.05515
 20
891.2385
 30
0.0
 11
452.34315
 21
892.1565
 31
0.0
  0
LINE
  5
1A16
330
1D
100
AcDbEntity
  8
0
100
AcDbLine
 10
454.61215
 20
889.8885
 30
0.0
 11
456.76315
 21
889.6275
 31
0.0
  0
LINE
  5
1A17
330
1D
100
AcDbEntity
  8
0
100
AcDbLine
 10
452.08515
 20
889.6745
 30
0.0
 11
454.61215
 21
889.8885
 31
0.0
  0
LINE
  5
1A18
330
1D
100
AcDbEntity
  8
0
100
AcDbLine
 10
455.74915
 20
892.1005
 30
0.0
 11
458.55615
 21
891.6475
 31
0.0
  0
LINE
  5
1A19
330
1D
100
AcDbEntity
  8
0
100
AcDbLine
 10
453.04159670689
 20
904.836486799557
 30
0.0
 11
455.86215
 21
903.6415
 31
0.0
  0
LINE
  5
1A1A
330
1D
100
AcDbEntity
  8
0
100
AcDbLine
 10
455.86215
 20
903.6415
 30
0.0
 11
459.51815
 21
900.7645
 31
0.0
  0
LINE
  5
1A1B
330
1D
100
AcDbEntity
  8
0
100
AcDbLine
 10
452.34315
 20
892.1565
 30
0.0
 11
455.74915
 21
892.1005
 31
0.0
  0
LINE
  5
1A1C
330
1D
100
AcDbEntity
  8
0
100
AcDbLine
 10
458.31415
 20
889.0195
 30
0.0
 11
459.34815
 21
888.0085
 31
0.0
  0
LINE
  5
1A1D
330
1D
100
AcDbEntity
  8
0
100
AcDbLine
 10
456.76315
 20
889.6275
 30
0.0
 11
458.31415
 21
889.0195
 31
0.0
  0
LINE
  5
1A1E
330
1D
100
AcDbEntity
  8
0
100
AcDbLine
 10
457.79515
 20
902.120372811816
 30
0.0
 11
457.79515
 21
1359.3535
 31
0.0
  0
LINE
  5
1A1F
330
1D
100
AcDbEntity
  8
0
100
AcDbLine
 10
457.79515
 20
902.120372811816
 30
0.0
 11
457.79515
 21
1359.3535
 31
0.0
  0
LINE
  5
1A20
330
1D
100
AcDbEntity
  8
0
100
AcDbLine
 10
458.55615
 20
891.6475
 30
0.0
 11
460.55515
 21
890.8315
 31
0.0
  0
LINE
  5
1A21
330
1D
100
AcDbEntity
  8
0
100
AcDbLine
 10
459.51815
 20
900.7645
 30
0.0
 11
462.38415
 21
897.0975
 31
0.0
  0
LINE
  5
1A22
330
1D
100
AcDbEntity
  8
0
100
AcDbLine
 10
459.34815
 20
888.0085
 30
0.0
 11
459.57215
 21
886.8415
 31
0.0
  0
LINE
  5
1A23
330
1D
100
AcDbEntity
  8
0
100
AcDbLine
 10
459.14315
 20
885.5055
 30
0.0
 11
459.57215
 21
886.8415
 31
0.0
  0
LINE
  5
1A24
330
1D
100
AcDbEntity
  8
0
100
AcDbLine
 10
457.94015
 20
884.1245
 30
0.0
 11
459.14315
 21
885.5055
 31
0.0
  0
LINE
  5
1A25
330
1D
100
AcDbEntity
  8
0
100
AcDbLine
 10
456.22215
 20
882.5095
 30
0.0
 11
457.94015
 21
884.1245
 31
0.0
  0
LINE
  5
1A26
330
1D
100
AcDbEntity
  8
0
100
AcDbLine
 10
454.13215
 20
880.9325
 30
0.0
 11
456.22215
 21
882.5095
 31
0.0
  0
LINE
  5
1A27
330
1D
100
AcDbEntity
  8
0
100
AcDbLine
 10
451.79515
 20
879.4375
 30
0.0
 11
454.13215
 21
880.9325
 31
0.0
  0
LINE
  5
1A28
330
1D
100
AcDbEntity
  8
0
100
AcDbLine
 10
450.070782075045
 20
878.544523753148
 30
0.0
 11
451.79515
 21
879.4375
 31
0.0
  0
LINE
  5
1A29
330
1D
100
AcDbEntity
  8
0
100
AcDbLine
 10
463.97015
 20
799.6595
 30
0.0
 11
464.76815
 21
765.2405
 31
0.0
  0
LINE
  5
1A2A
330
1D
100
AcDbEntity
  8
0
100
AcDbLine
 10
461.12315
 20
824.1485
 30
0.0
 11
463.97015
 21
799.6595
 31
0.0
  0
LINE
  5
1A2B
330
1D
100
AcDbEntity
  8
0
100
AcDbLine
 10
462.33915
 20
879.0305
 30
0.0
 11
464.20415
 21
883.4325
 31
0.0
  0
LINE
  5
1A2C
330
1D
100
AcDbEntity
  8
0
100
AcDbLine
 10
464.20415
 20
883.4325
 30
0.0
 11
464.79015
 21
888.1775
 31
0.0
  0
LINE
  5
1A2D
330
1D
100
AcDbEntity
  8
0
100
AcDbLine
 10
460.55515
 20
890.8315
 30
0.0
 11
461.86015
 21
889.5625
 31
0.0
  0
LINE
  5
1A2E
330
1D
100
AcDbEntity
  8
0
100
AcDbLine
 10
464.12615
 20
892.7825
 30
0.0
 11
464.79015
 21
888.1775
 31
0.0
  0
LINE
  5
1A2F
330
1D
100
AcDbEntity
  8
0
100
AcDbLine
 10
462.38415
 20
897.0975
 30
0.0
 11
464.12615
 21
892.7825
 31
0.0
  0
LINE
  5
1A30
330
1D
100
AcDbEntity
  8
0
100
AcDbLine
 10
461.86015
 20
889.5625
 30
0.0
 11
462.21615
 21
887.9535
 31
0.0
  0
LINE
  5
1A31
330
1D
100
AcDbEntity
  8
0
100
AcDbLine
 10
461.63215
 20
886.3205
 30
0.0
 11
462.21615
 21
887.9535
 31
0.0
  0
LINE
  5
1A32
330
1D
100
AcDbEntity
  8
0
100
AcDbLine
 10
460.09115
 20
884.5805
 30
0.0
 11
461.63215
 21
886.3205
 31
0.0
  0
LINE
  5
1A33
330
1D
100
AcDbEntity
  8
0
100
AcDbLine
 10
460.045016773146
 20
884.547001493668
 30
0.0
 11
460.09115
 21
884.5805
 31
0.0
  0
LINE
  5
1A34
330
1D
100
AcDbEntity
  8
0
100
AcDbLine
 10
448.72815
 20
912.3075
 30
0.0
 11
461.86015
 21
889.5625
 31
0.0
  0
LINE
  5
1A35
330
1D
100
AcDbEntity
  8
0
100
AcDbLine
 10
424.24515
 20
949.3535
 30
0.0
 11
425.30515
 21
949.9655
 31
0.0
  0
LINE
  5
1A36
330
1D
100
AcDbEntity
  8
0
100
AcDbLine
 10
414.57615
 20
970.3185
 30
0.0
 11
424.42715
 21
955.2315
 31
0.0
  0
LINE
  5
1A37
330
1D
100
AcDbEntity
  8
0
100
AcDbLine
 10
424.42715
 20
955.2315
 30
0.0
 11
426.62715
 21
951.4205
 31
0.0
  0
LINE
  5
1A38
330
1D
100
AcDbEntity
  8
0
100
AcDbLine
 10
425.30515
 20
949.9655
 30
0.0
 11
426.11615
 21
950.4335
 31
0.0
  0
LINE
  5
1A39
330
1D
100
AcDbEntity
  8
0
100
AcDbLine
 10
426.29915
 20
950.1645
 30
0.0
 11
426.72815
 21
950.4125
 31
0.0
  0
LINE
  5
1A3A
330
1D
100
AcDbEntity
  8
0
100
AcDbLine
 10
426.62715
 20
951.4205
 30
0.0
 11
426.80215
 21
950.8295
 31
0.0
  0
LINE
  5
1A3B
330
1D
100
AcDbEntity
  8
0
100
AcDbLine
 10
426.61515
 20
950.7215
 30
0.0
 11
426.80215
 21
950.8295
 31
0.0
  0
LINE
  5
1A3C
330
1D
100
AcDbEntity
  8
0
100
AcDbLine
 10
426.11615
 20
950.4335
 30
0.0
 11
426.61515
 21
950.7215
 31
0.0
  0
LINE
  5
1A3D
330
1D
100
AcDbEntity
  8
0
100
AcDbLine
 10
426.79515
 20
1470.6875
 30
0.0
 11
430.52315
 21
1467.8275
 31
0.0
  0
LINE
  5
1A3E
330
1D
100
AcDbEntity
  8
0
100
AcDbLine
 10
433.38315
 20
1464.0975
 30
0.0
 11
435.18215
 21
1459.7575
 31
0.0
  0
LINE
  5
1A3F
330
1D
100
AcDbEntity
  8
0
100
AcDbLine
 10
502.39515
 20
1338.0975
 30
0.0
 11
502.39515
 21
1339.1775
 31
0.0
  0
LINE
  5
1A40
330
1D
100
AcDbEntity
  8
0
100
AcDbLine
 10
502.39515
 20
1338.0975
 30
0.0
 11
511.79515
 21
1338.0975
 31
0.0
  0
LINE
  5
1A41
330
1D
100
AcDbEntity
  8
0
100
AcDbLine
 10
501.79515
 20
1338.8175
 30
0.0
 11
501.79515
 21
1339.8975
 31
0.0
  0
LINE
  5
1A42
330
1D
100
AcDbEntity
  8
0
100
AcDbLine
 10
501.79515
 20
1338.8175
 30
0.0
 11
502.39515
 21
1338.0975
 31
0.0
  0
LINE
  5
1A43
330
1D
100
AcDbEntity
  8
0
100
AcDbLine
 10
501.79515
 20
1339.8975
 30
0.0
 11
501.79515
 21
1342.7775
 31
0.0
  0
LINE
  5
1A44
330
1D
100
AcDbEntity
  8
0
100
AcDbLine
 10
501.79515
 20
1339.8975
 30
0.0
 11
501.79515
 21
1338.8175
 31
0.0
  0
LINE
  5
1A45
330
1D
100
AcDbEntity
  8
0
100
AcDbLine
 10
502.39515
 20
1339.1775
 30
0.0
 11
502.39515
 21
1342.0575
 31
0.0
  0
LINE
  5
1A46
330
1D
100
AcDbEntity
  8
0
100
AcDbLine
 10
502.39515
 20
1339.1775
 30
0.0
 11
502.39515
 21
1338.0975
 31
0.0
  0
LINE
  5
1A47
330
1D
100
AcDbEntity
  8
0
100
AcDbLine
 10
502.39515
 20
1342.0575
 30
0.0
 11
502.39515
 21
1346.8575
 31
0.0
  0
LINE
  5
1A48
330
1D
100
AcDbEntity
  8
0
100
AcDbLine
 10
502.39515
 20
1342.0575
 30
0.0
 11
502.39515
 21
1339.1775
 31
0.0
  0
LINE
  5
1A49
330
1D
100
AcDbEntity
  8
0
100
AcDbLine
 10
511.79515
 20
1337.0175
 30
0.0
 11
511.79515
 21
1338.0975
 31
0.0
  0
LINE
  5
1A4A
330
1D
100
AcDbEntity
  8
0
100
AcDbLine
 10
511.79515
 20
1338.0975
 30
0.0
 11
511.79515
 21
1340.9775
 31
0.0
  0
LINE
  5
1A4B
330
1D
100
AcDbEntity
  8
0
100
AcDbLine
 10
511.79515
 20
1338.0975
 30
0.0
 11
511.79515
 21
1337.0175
 31
0.0
  0
LINE
  5
1A4C
330
1D
100
AcDbEntity
  8
0
100
AcDbLine
 10
501.79515
 20
1342.7775
 30
0.0
 11
501.79515
 21
1347.4575
 31
0.0
  0
LINE
  5
1A4D
330
1D
100
AcDbEntity
  8
0
100
AcDbLine
 10
501.79515
 20
1342.7775
 30
0.0
 11
501.79515
 21
1339.8975
 31
0.0
  0
LINE
  5
1A4E
330
1D
100
AcDbEntity
  8
0
100
AcDbLine
 10
501.79515
 20
1347.4575
 30
0.0
 11
501.79515
 21
1353.5775
 31
0.0
  0
LINE
  5
1A4F
330
1D
100
AcDbEntity
  8
0
100
AcDbLine
 10
501.79515
 20
1347.4575
 30
0.0
 11
501.79515
 21
1342.7775
 31
0.0
  0
LINE
  5
1A50
330
1D
100
AcDbEntity
  8
0
100
AcDbLine
 10
502.39515
 20
1346.8575
 30
0.0
 11
502.39515
 21
1353.2175
 31
0.0
  0
LINE
  5
1A51
330
1D
100
AcDbEntity
  8
0
100
AcDbLine
 10
502.39515
 20
1346.8575
 30
0.0
 11
502.39515
 21
1342.0575
 31
0.0
  0
LINE
  5
1A52
330
1D
100
AcDbEntity
  8
0
100
AcDbLine
 10
502.39515
 20
1353.2175
 30
0.0
 11
502.39515
 21
1360.4175
 31
0.0
  0
LINE
  5
1A53
330
1D
100
AcDbEntity
  8
0
100
AcDbLine
 10
502.39515
 20
1353.2175
 30
0.0
 11
502.39515
 21
1346.8575
 31
0.0
  0
LINE
  5
1A54
330
1D
100
AcDbEntity
  8
0
100
AcDbLine
 10
511.79515
 20
1340.9775
 30
0.0
 11
511.79515
 21
1345.7775
 31
0.0
  0
LINE
  5
1A55
330
1D
100
AcDbEntity
  8
0
100
AcDbLine
 10
511.79515
 20
1340.9775
 30
0.0
 11
511.79515
 21
1338.0975
 31
0.0
  0
LINE
  5
1A56
330
1D
100
AcDbEntity
  8
0
100
AcDbLine
 10
511.79515
 20
1345.7775
 30
0.0
 11
511.79515
 21
1352.1375
 31
0.0
  0
LINE
  5
1A57
330
1D
100
AcDbEntity
  8
0
100
AcDbLine
 10
511.79515
 20
1345.7775
 30
0.0
 11
511.79515
 21
1340.9775
 31
0.0
  0
LINE
  5
1A58
330
1D
100
AcDbEntity
  8
0
100
AcDbLine
 10
457.761358
 20
1359.0975
 30
0.0
 11
501.79515
 21
1359.0975
 31
0.0
  0
LINE
  5
1A59
330
1D
100
AcDbEntity
  8
0
100
AcDbLine
 10
501.79515
 20
1359.4175
 30
0.0
 11
501.79515
 21
1359.0975
 31
0.0
  0
LINE
  5
1A5A
330
1D
100
AcDbEntity
  8
0
100
AcDbLine
 10
501.79515
 20
1360.2875
 30
0.0
 11
501.79515
 21
1359.4175
 31
0.0
  0
LINE
  5
1A5B
330
1D
100
AcDbEntity
  8
0
100
AcDbLine
 10
501.79515
 20
1361.7275
 30
0.0
 11
501.79515
 21
1360.2875
 31
0.0
  0
LINE
  5
1A5C
330
1D
100
AcDbEntity
  8
0
100
AcDbLine
 10
501.79515
 20
1363.6375
 30
0.0
 11
501.79515
 21
1361.7275
 31
0.0
  0
LINE
  5
1A5D
330
1D
100
AcDbEntity
  8
0
100
AcDbLine
 10
501.79515
 20
1365.7975
 30
0.0
 11
501.79515
 21
1363.6375
 31
0.0
  0
LINE
  5
1A5E
330
1D
100
AcDbEntity
  8
0
100
AcDbLine
 10
501.79515
 20
1359.0975
 30
0.0
 11
501.79515
 21
1353.5775
 31
0.0
  0
LINE
  5
1A5F
330
1D
100
AcDbEntity
  8
0
100
AcDbLine
 10
501.79515
 20
1368.0975
 30
0.0
 11
501.79515
 21
1360.5375
 31
0.0
  0
LINE
  5
1A60
330
1D
100
AcDbEntity
  8
0
100
AcDbLine
 10
501.79515
 20
1368.0975
 30
0.0
 11
501.79515
 21
1375.6575
 31
0.0
  0
LINE
  5
1A61
330
1D
100
AcDbEntity
  8
0
100
AcDbLine
 10
501.79515
 20
1368.0975
 30
0.0
 11
501.79515
 21
1365.7975
 31
0.0
  0
LINE
  5
1A62
330
1D
100
AcDbEntity
  8
0
100
AcDbLine
 10
501.79515
 20
1353.5775
 30
0.0
 11
501.79515
 21
1360.5375
 31
0.0
  0
LINE
  5
1A63
330
1D
100
AcDbEntity
  8
0
100
AcDbLine
 10
501.79515
 20
1353.5775
 30
0.0
 11
501.79515
 21
1347.4575
 31
0.0
  0
LINE
  5
1A64
330
1D
100
AcDbEntity
  8
0
100
AcDbLine
 10
501.79515
 20
1353.5775
 30
0.0
 11
501.79515
 21
1359.0975
 31
0.0
  0
LINE
  5
1A65
330
1D
100
AcDbEntity
  8
0
100
AcDbLine
 10
501.79515
 20
1360.5375
 30
0.0
 11
501.79515
 21
1368.0975
 31
0.0
  0
LINE
  5
1A66
330
1D
100
AcDbEntity
  8
0
100
AcDbLine
 10
501.79515
 20
1360.5375
 30
0.0
 11
501.79515
 21
1353.5775
 31
0.0
  0
LINE
  5
1A67
330
1D
100
AcDbEntity
  8
0
100
AcDbLine
 10
501.79515
 20
1374.4675
 30
0.0
 11
501.79515
 21
1372.5575
 31
0.0
  0
LINE
  5
1A68
330
1D
100
AcDbEntity
  8
0
100
AcDbLine
 10
501.79515
 20
1372.5575
 30
0.0
 11
501.79515
 21
1370.3975
 31
0.0
  0
LINE
  5
1A69
330
1D
100
AcDbEntity
  8
0
100
AcDbLine
 10
501.79515
 20
1370.3975
 30
0.0
 11
501.79515
 21
1368.0975
 31
0.0
  0
LINE
  5
1A6A
330
1D
100
AcDbEntity
  8
0
100
AcDbLine
 10
457.767694
 20
1377.0975
 30
0.0
 11
501.79515
 21
1377.0975
 31
0.0
  0
LINE
  5
1A6B
330
1D
100
AcDbEntity
  8
0
100
AcDbLine
 10
457.79515
 20
1377.0335
 30
0.0
 11
457.79515
 21
1455.0975
 31
0.0
  0
LINE
  5
1A6C
330
1D
100
AcDbEntity
  8
0
100
AcDbLine
 10
501.79515
 20
1376.7775
 30
0.0
 11
501.79515
 21
1375.9075
 31
0.0
  0
LINE
  5
1A6D
330
1D
100
AcDbEntity
  8
0
100
AcDbLine
 10
501.79515
 20
1375.9075
 30
0.0
 11
501.79515
 21
1374.4675
 31
0.0
  0
LINE
  5
1A6E
330
1D
100
AcDbEntity
  8
0
100
AcDbLine
 10
457.767694
 20
1377.0975
 30
0.0
 11
501.79515
 21
1377.0975
 31
0.0
  0
LINE
  5
1A6F
330
1D
100
AcDbEntity
  8
0
100
AcDbLine
 10
501.79515
 20
1375.6575
 30
0.0
 11
501.79515
 21
1382.6175
 31
0.0
  0
LINE
  5
1A70
330
1D
100
AcDbEntity
  8
0
100
AcDbLine
 10
501.79515
 20
1375.6575
 30
0.0
 11
501.79515
 21
1368.0975
 31
0.0
  0
LINE
  5
1A71
330
1D
100
AcDbEntity
  8
0
100
AcDbLine
 10
502.39515
 20
1375.7775
 30
0.0
 11
502.39515
 21
1382.9775
 31
0.0
  0
LINE
  5
1A72
330
1D
100
AcDbEntity
  8
0
100
AcDbLine
 10
502.39515
 20
1375.7775
 30
0.0
 11
502.39515
 21
1368.0975
 31
0.0
  0
LINE
  5
1A73
330
1D
100
AcDbEntity
  8
0
100
AcDbLine
 10
501.79515
 20
1377.0975
 30
0.0
 11
501.79515
 21
1382.6175
 31
0.0
  0
LINE
  5
1A74
330
1D
100
AcDbEntity
  8
0
100
AcDbLine
 10
501.79515
 20
1377.0975
 30
0.0
 11
501.79515
 21
1376.7775
 31
0.0
  0
LINE
  5
1A75
330
1D
100
AcDbEntity
  8
0
100
AcDbLine
 10
435.79515
 20
1455.0975
 30
0.0
 11
435.79515
 21
934.708043863636
 31
0.0
  0
LINE
  5
1A76
330
1D
100
AcDbEntity
  8
0
100
AcDbLine
 10
457.79515
 20
1455.0975
 30
0.0
 11
457.79515
 21
1377.0335
 31
0.0
  0
LINE
  5
1A77
330
1D
100
AcDbEntity
  8
0
100
AcDbLine
 10
501.79515
 20
1397.3775
 30
0.0
 11
501.79515
 21
1396.2975
 31
0.0
  0
LINE
  5
1A78
330
1D
100
AcDbEntity
  8
0
100
AcDbLine
 10
501.79515
 20
1397.3775
 30
0.0
 11
502.39515
 21
1398.0975
 31
0.0
  0
LINE
  5
1A79
330
1D
100
AcDbEntity
  8
0
100
AcDbLine
 10
501.79515
 20
1396.2975
 30
0.0
 11
501.79515
 21
1393.4175
 31
0.0
  0
LINE
  5
1A7A
330
1D
100
AcDbEntity
  8
0
100
AcDbLine
 10
501.79515
 20
1396.2975
 30
0.0
 11
501.79515
 21
1397.3775
 31
0.0
  0
LINE
  5
1A7B
330
1D
100
AcDbEntity
  8
0
100
AcDbLine
 10
501.79515
 20
1393.4175
 30
0.0
 11
501.79515
 21
1388.7375
 31
0.0
  0
LINE
  5
1A7C
330
1D
100
AcDbEntity
  8
0
100
AcDbLine
 10
501.79515
 20
1393.4175
 30
0.0
 11
501.79515
 21
1396.2975
 31
0.0
  0
LINE
  5
1A7D
330
1D
100
AcDbEntity
  8
0
100
AcDbLine
 10
502.39515
 20
1397.0175
 30
0.0
 11
502.39515
 21
1398.0975
 31
0.0
  0
LINE
  5
1A7E
330
1D
100
AcDbEntity
  8
0
100
AcDbLine
 10
502.39515
 20
1397.0175
 30
0.0
 11
502.39515
 21
1394.1375
 31
0.0
  0
LINE
  5
1A7F
330
1D
100
AcDbEntity
  8
0
100
AcDbLine
 10
502.39515
 20
1394.1375
 30
0.0
 11
502.39515
 21
1397.0175
 31
0.0
  0
LINE
  5
1A80
330
1D
100
AcDbEntity
  8
0
100
AcDbLine
 10
502.39515
 20
1394.1375
 30
0.0
 11
502.39515
 21
1389.3375
 31
0.0
  0
LINE
  5
1A81
330
1D
100
AcDbEntity
  8
0
100
AcDbLine
 10
502.39515
 20
1389.3375
 30
0.0
 11
502.39515
 21
1394.1375
 31
0.0
  0
LINE
  5
1A82
330
1D
100
AcDbEntity
  8
0
100
AcDbLine
 10
502.39515
 20
1389.3375
 30
0.0
 11
502.39515
 21
1382.9775
 31
0.0
  0
LINE
  5
1A83
330
1D
100
AcDbEntity
  8
0
100
AcDbLine
 10
502.39515
 20
1382.9775
 30
0.0
 11
502.39515
 21
1389.3375
 31
0.0
  0
LINE
  5
1A84
330
1D
100
AcDbEntity
  8
0
100
AcDbLine
 10
502.39515
 20
1382.9775
 30
0.0
 11
502.39515
 21
1375.7775
 31
0.0
  0
LINE
  5
1A85
330
1D
100
AcDbEntity
  8
0
100
AcDbLine
 10
501.79515
 20
1388.7375
 30
0.0
 11
501.79515
 21
1382.6175
 31
0.0
  0
LINE
  5
1A86
330
1D
100
AcDbEntity
  8
0
100
AcDbLine
 10
501.79515
 20
1388.7375
 30
0.0
 11
501.79515
 21
1393.4175
 31
0.0
  0
LINE
  5
1A87
330
1D
100
AcDbEntity
  8
0
100
AcDbLine
 10
501.79515
 20
1382.6175
 30
0.0
 11
501.79515
 21
1377.0975
 31
0.0
  0
LINE
  5
1A88
330
1D
100
AcDbEntity
  8
0
100
AcDbLine
 10
501.79515
 20
1382.6175
 30
0.0
 11
501.79515
 21
1388.7375
 31
0.0
  0
LINE
  5
1A89
330
1D
100
AcDbEntity
  8
0
100
AcDbLine
 10
501.79515
 20
1382.6175
 30
0.0
 11
501.79515
 21
1375.6575
 31
0.0
  0
LINE
  5
1A8A
330
1D
100
AcDbEntity
  8
0
100
AcDbLine
 10
502.39515
 20
1398.0975
 30
0.0
 11
511.79515
 21
1398.0975
 31
0.0
  0
LINE
  5
1A8B
330
1D
100
AcDbEntity
  8
0
100
AcDbLine
 10
502.39515
 20
1398.0975
 30
0.0
 11
502.39515
 21
1397.0175
 31
0.0
  0
LINE
  5
1A8C
330
1D
100
AcDbEntity
  8
0
100
AcDbLine
 10
502.39515
 20
1368.0975
 30
0.0
 11
502.39515
 21
1360.4175
 31
0.0
  0
LINE
  5
1A8D
330
1D
100
AcDbEntity
  8
0
100
AcDbLine
 10
502.39515
 20
1368.0975
 30
0.0
 11
502.39515
 21
1375.7775
 31
0.0
  0
LINE
  5
1A8E
330
1D
100
AcDbEntity
  8
0
100
AcDbLine
 10
511.79515
 20
1397.0175
 30
0.0
 11
511.79515
 21
1395.9375
 31
0.0
  0
LINE
  5
1A8F
330
1D
100
AcDbEntity
  8
0
100
AcDbLine
 10
511.79515
 20
1395.9375
 30
0.0
 11
511.79515
 21
1397.0175
 31
0.0
  0
LINE
  5
1A90
330
1D
100
AcDbEntity
  8
0
100
AcDbLine
 10
511.79515
 20
1395.9375
 30
0.0
 11
511.79515
 21
1393.0575
 31
0.0
  0
LINE
  5
1A91
330
1D
100
AcDbEntity
  8
0
100
AcDbLine
 10
511.79515
 20
1393.0575
 30
0.0
 11
511.79515
 21
1395.9375
 31
0.0
  0
LINE
  5
1A92
330
1D
100
AcDbEntity
  8
0
100
AcDbLine
 10
511.79515
 20
1393.0575
 30
0.0
 11
511.79515
 21
1388.2575
 31
0.0
  0
LINE
  5
1A93
330
1D
100
AcDbEntity
  8
0
100
AcDbLine
 10
511.79515
 20
1388.2575
 30
0.0
 11
511.79515
 21
1393.0575
 31
0.0
  0
LINE
  5
1A94
330
1D
100
AcDbEntity
  8
0
100
AcDbLine
 10
511.79515
 20
1388.2575
 30
0.0
 11
511.79515
 21
1381.8975
 31
0.0
  0
LINE
  5
1A95
330
1D
100
AcDbEntity
  8
0
100
AcDbLine
 10
511.79515
 20
1381.8975
 30
0.0
 11
511.79515
 21
1388.2575
 31
0.0
  0
LINE
  5
1A96
330
1D
100
AcDbEntity
  8
0
100
AcDbLine
 10
511.79515
 20
1381.8975
 30
0.0
 11
511.79515
 21
1374.6975
 31
0.0
  0
LINE
  5
1A97
330
1D
100
AcDbEntity
  8
0
100
AcDbLine
 10
511.79515
 20
1374.6975
 30
0.0
 11
511.79515
 21
1381.8975
 31
0.0
  0
LINE
  5
1A98
330
1D
100
AcDbEntity
  8
0
100
AcDbLine
 10
511.79515
 20
1374.6975
 30
0.0
 11
511.79515
 21
1367.0175
 31
0.0
  0
LINE
  5
1A99
330
1D
100
AcDbEntity
  8
0
100
AcDbLine
 10
511.79515
 20
1367.0175
 30
0.0
 11
511.79515
 21
1359.3375
 31
0.0
  0
LINE
  5
1A9A
330
1D
100
AcDbEntity
  8
0
100
AcDbLine
 10
511.79515
 20
1367.0175
 30
0.0
 11
511.79515
 21
1374.6975
 31
0.0
  0
LINE
  5
1A9B
330
1D
100
AcDbEntity
  8
0
100
AcDbLine
 10
502.39515
 20
1360.4175
 30
0.0
 11
502.39515
 21
1368.0975
 31
0.0
  0
LINE
  5
1A9C
330
1D
100
AcDbEntity
  8
0
100
AcDbLine
 10
502.39515
 20
1360.4175
 30
0.0
 11
502.39515
 21
1353.2175
 31
0.0
  0
LINE
  5
1A9D
330
1D
100
AcDbEntity
  8
0
100
AcDbLine
 10
511.79515
 20
1352.1375
 30
0.0
 11
511.79515
 21
1359.3375
 31
0.0
  0
LINE
  5
1A9E
330
1D
100
AcDbEntity
  8
0
100
AcDbLine
 10
511.79515
 20
1352.1375
 30
0.0
 11
511.79515
 21
1345.7775
 31
0.0
  0
LINE
  5
1A9F
330
1D
100
AcDbEntity
  8
0
100
AcDbLine
 10
511.79515
 20
1359.3375
 30
0.0
 11
511.79515
 21
1367.0175
 31
0.0
  0
LINE
  5
1AA0
330
1D
100
AcDbEntity
  8
0
100
AcDbLine
 10
511.79515
 20
1359.3375
 30
0.0
 11
511.79515
 21
1352.1375
 31
0.0
  0
LINE
  5
1AA1
330
1D
100
AcDbEntity
  8
0
100
AcDbLine
 10
452.43615
 20
1475.0975
 30
0.0
 11
456.43215
 21
1465.4475
 31
0.0
  0
LINE
  5
1AA2
330
1D
100
AcDbEntity
  8
0
100
AcDbLine
 10
456.43215
 20
1465.4475
 30
0.0
 11
457.79515
 21
1455.0975
 31
0.0
  0
LINE
  5
1AA3
330
1D
100
AcDbEntity
  8
0
100
AcDbLine
 10
435.18215
 20
1459.7575
 30
0.0
 11
435.79515
 21
1455.0975
 31
0.0
  0
LINE
  5
1AA4
330
1D
100
AcDbEntity
  8
0
100
AcDbLine
 10
437.79515
 20
1489.7375
 30
0.0
 11
446.07915
 21
1483.3775
 31
0.0
  0
LINE
  5
1AA5
330
1D
100
AcDbEntity
  8
0
100
AcDbLine
 10
446.07915
 20
1483.3775
 30
0.0
 11
452.43615
 21
1475.0975
 31
0.0
  0
LINE
  5
1AA6
330
1D
100
AcDbEntity
  8
0
100
AcDbLine
 10
430.52315
 20
1467.8275
 30
0.0
 11
433.38315
 21
1464.0975
 31
0.0
  0
LINE
  5
1AA7
330
1D
100
AcDbEntity
  8
0
100
AcDbLine
 10
426.72815
 20
950.4125
 30
0.0
 11
448.72815
 21
912.3075
 31
0.0
  0
LINE
  5
1AA8
330
1D
100
AcDbEntity
  8
0
100
AcDbLine
 10
425.15315
 20
949.5035
 30
0.0
 11
426.29915
 21
950.1645
 31
0.0
  0
LINE
  5
1AA9
330
1D
100
AcDbEntity
  8
0
100
AcDbLine
 10
424.807879275504
 20
949.30418709356
 30
0.0
 11
425.15315
 21
949.5035
 31
0.0
  0
LINE
  5
1AAA
330
1D
100
AcDbEntity
  8
0
100
AcDbLine
 10
410.389307068499
 20
928.713334541129
 30
0.0
 11
424.908530541873
 21
903.565379520543
 31
0.0
  0
LINE
  5
1AAB
330
1D
100
AcDbEntity
  8
0
100
AcDbLine
 10
5.95635
 20
1449.7475
 30
0.0
 11
196.88915
 21
1380.2475
 31
0.0
  0
LINE
  5
1AAC
330
1D
100
AcDbEntity
  8
0
100
AcDbLine
 10
211.20315
 20
1395.007499999999
 30
0.0
 11
4.47505
 21
1470.2475
 31
0.0
  0
LINE
  5
1AAD
330
1D
100
AcDbEntity
  8
0
100
AcDbLine
 10
101.60615
 20
1456.3875
 30
0.0
 11
127.87915
 21
1446.8275
 31
0.0
  0
LINE
  5
1AAE
330
1D
100
AcDbEntity
  8
0
100
AcDbLine
 10
130.97515
 20
1456.4575
 30
0.0
 11
105.43115
 21
1465.7575
 31
0.0
  0
LINE
  5
1AAF
330
1D
100
AcDbEntity
  8
0
100
AcDbLine
 10
109.02915
 20
1475.6475
 30
0.0
 11
134.57315
 21
1466.3475
 31
0.0
  0
LINE
  5
1AB0
330
1D
100
AcDbEntity
  8
0
100
AcDbLine
 10
125.56515
 20
1437.8575
 30
0.0
 11
97.981663101767
 21
1447.89341102986
 31
0.0
  0
LINE
  5
1AB1
330
1D
100
AcDbEntity
  8
0
100
AcDbLine
 10
325.02715
 20
1041.8425
 30
0.0
 11
315.41615
 21
1049.6575
 31
0.0
  0
LINE
  5
1AB2
330
1D
100
AcDbEntity
  8
0
100
AcDbLine
 10
324.82715
 20
1041.5485
 30
0.0
 11
314.84315
 21
1048.8375
 31
0.0
  0
LINE
  5
1AB3
330
1D
100
AcDbEntity
  8
0
100
AcDbLine
 10
446.888745702314
 20
723.395661402284
 30
0.0
 11
448.77715
 21
765.7905
 31
0.0
  0
LINE
  5
1AB4
330
1D
100
AcDbEntity
  8
0
100
AcDbLine
 10
459.87515
 20
672.7045
 30
0.0
 11
457.79515
 21
603.667813109996
 31
0.0
  0
LINE
  5
1AB6
330
1D
100
AcDbEntity
  8
0
100
AcDbLine
 10
452.18915
 20
245.6617
 30
0.0
 11
455.38015
 21
325.35153
 31
0.0
  0
LINE
  5
288D
330
1D
100
AcDbEntity
  8
0
100
AcDbLine
 10
473.79515
 20
312.0971
 30
0.0
 11
483.79515
 21
312.0971
 31
0.0
  0
LINE
  5
288E
330
1D
100
AcDbEntity
  8
0
100
AcDbLine
 10
473.79515
 20
321.0743
 30
0.0
 11
483.79515
 21
321.0743
 31
0.0
  0
LINE
  5
288F
330
1D
100
AcDbEntity
  8
0
100
AcDbLine
 10
473.79515
 20
339.1199
 30
0.0
 11
483.79515
 21
339.1199
 31
0.0
  0
LINE
  5
2890
330
1D
100
AcDbEntity
  8
0
100
AcDbLine
 10
473.79515
 20
348.0971
 30
0.0
 11
483.79515
 21
348.0971
 31
0.0
  0
LINE
  5
2891
330
1D
100
AcDbEntity
  8
0
100
AcDbLine
 10
471.79515
 20
314.9607
 30
0.0
 11
471.79515
 21
344.6608
 31
0.0
  0
LINE
  5
2892
330
1D
100
AcDbEntity
  8
0
100
AcDbLine
 10
471.79515
 20
344.6608
 30
0.0
 11
471.79515
 21
314.9607
 31
0.0
  0
LINE
  5
2893
330
1D
100
AcDbEntity
  8
0
100
AcDbLine
 10
472.03515
 20
334.2208
 30
0.0
 11
472.79515
 21
338.0412
 31
0.0
  0
LINE
  5
2894
330
1D
100
AcDbEntity
  8
0
100
AcDbLine
 10
469.79515
 20
316.08274
 30
0.0
 11
471.79515
 21
316.0825
 31
0.0
  0
LINE
  5
2895
330
1D
100
AcDbEntity
  8
0
100
AcDbLine
 10
472.03515
 20
325.9734
 30
0.0
 11
472.79515
 21
322.153
 31
0.0
  0
LINE
  5
2896
330
1D
100
AcDbEntity
  8
0
100
AcDbLine
 10
471.79515
 20
314.9607
 30
0.0
 11
472.09515
 21
313.7335
 31
0.0
  0
LINE
  5
2897
330
1D
100
AcDbEntity
  8
0
100
AcDbLine
 10
471.79515
 20
314.9607
 30
0.0
 11
471.79515
 21
315.5335
 31
0.0
  0
LINE
  5
2898
330
1D
100
AcDbEntity
  8
0
100
AcDbLine
 10
471.79515
 20
317.0062
 30
0.0
 11
471.79515
 21
315.5335
 31
0.0
  0
LINE
  5
2899
330
1D
100
AcDbEntity
  8
0
100
AcDbLine
 10
471.79515
 20
316.5865
 30
0.0
 11
471.79515
 21
316.0825
 31
0.0
  0
LINE
  5
289A
330
1D
100
AcDbEntity
  8
0
100
AcDbLine
 10
471.79515
 20
316.0825
 30
0.0
 11
471.79515
 21
315.5335
 31
0.0
  0
LINE
  5
289B
330
1D
100
AcDbEntity
  8
0
100
AcDbLine
 10
471.79515
 20
315.5335
 30
0.0
 11
471.79515
 21
314.9607
 31
0.0
  0
LINE
  5
289C
330
1D
100
AcDbEntity
  8
0
100
AcDbLine
 10
471.79515
 20
315.5335
 30
0.0
 11
471.79515
 21
316.0825
 31
0.0
  0
LINE
  5
289D
330
1D
100
AcDbEntity
  8
0
100
AcDbLine
 10
471.79515
 20
315.5335
 30
0.0
 11
471.79515
 21
317.0062
 31
0.0
  0
LINE
  5
289E
330
1D
100
AcDbEntity
  8
0
100
AcDbLine
 10
472.79515
 20
312.7857
 30
0.0
 11
472.79515
 21
312.5062
 31
0.0
  0
LINE
  5
289F
330
1D
100
AcDbEntity
  8
0
100
AcDbLine
 10
472.79515
 20
312.5062
 30
0.0
 11
473.79515
 21
312.0971
 31
0.0
  0
LINE
  5
28A0
330
1D
100
AcDbEntity
  8
0
100
AcDbLine
 10
472.79515
 20
312.5062
 30
0.0
 11
472.79515
 21
312.7857
 31
0.0
  0
LINE
  5
28A1
330
1D
100
AcDbEntity
  8
0
100
AcDbLine
 10
472.21415
 20
314.1121
 30
0.0
 11
472.79515
 21
312.7857
 31
0.0
  0
LINE
  5
28A2
330
1D
100
AcDbEntity
  8
0
100
AcDbLine
 10
471.99715
 20
316.2895
 30
0.0
 11
472.15915
 21
318.4789
 31
0.0
  0
LINE
  5
28A3
330
1D
100
AcDbEntity
  8
0
100
AcDbLine
 10
471.99715
 20
316.2895
 30
0.0
 11
472.21415
 21
314.1121
 31
0.0
  0
LINE
  5
28A4
330
1D
100
AcDbEntity
  8
0
100
AcDbLine
 10
472.79515
 20
320.0123
 30
0.0
 11
472.79515
 21
321.3426
 31
0.0
  0
LINE
  5
28A5
330
1D
100
AcDbEntity
  8
0
100
AcDbLine
 10
472.79515
 20
321.3426
 30
0.0
 11
472.79515
 21
320.0123
 31
0.0
  0
LINE
  5
28A6
330
1D
100
AcDbEntity
  8
0
100
AcDbLine
 10
472.79515
 20
321.3426
 30
0.0
 11
472.79515
 21
322.153
 31
0.0
  0
LINE
  5
28A7
330
1D
100
AcDbEntity
  8
0
100
AcDbLine
 10
472.79515
 20
322.153
 30
0.0
 11
472.79515
 21
321.3426
 31
0.0
  0
LINE
  5
28A8
330
1D
100
AcDbEntity
  8
0
100
AcDbLine
 10
472.15915
 20
318.4789
 30
0.0
 11
472.79515
 21
320.0123
 31
0.0
  0
LINE
  5
28A9
330
1D
100
AcDbEntity
  8
0
100
AcDbLine
 10
472.09515
 20
313.7335
 30
0.0
 11
472.79515
 21
312.5062
 31
0.0
  0
LINE
  5
28AA
330
1D
100
AcDbEntity
  8
0
100
AcDbLine
 10
471.89515
 20
330.0971
 30
0.0
 11
472.03515
 21
334.2208
 31
0.0
  0
LINE
  5
28AB
330
1D
100
AcDbEntity
  8
0
100
AcDbLine
 10
471.89515
 20
330.0971
 30
0.0
 11
472.03515
 21
325.9734
 31
0.0
  0
LINE
  5
28AC
330
1D
100
AcDbEntity
  8
0
100
AcDbLine
 10
469.79515
 20
344.08274048
 30
0.0
 11
471.79515
 21
344.08250048
 31
0.0
  0
LINE
  5
28AD
330
1D
100
AcDbEntity
  8
0
100
AcDbLine
 10
471.79515
 20
344.6608
 30
0.0
 11
471.79515
 21
345.2334
 31
0.0
  0
LINE
  5
28AE
330
1D
100
AcDbEntity
  8
0
100
AcDbLine
 10
472.79515
 20
338.0412
 30
0.0
 11
472.79515
 21
338.8517
 31
0.0
  0
LINE
  5
28AF
330
1D
100
AcDbEntity
  8
0
100
AcDbLine
 10
472.79515
 20
338.8517
 30
0.0
 11
472.79515
 21
338.0412
 31
0.0
  0
LINE
  5
28B0
330
1D
100
AcDbEntity
  8
0
100
AcDbLine
 10
472.79515
 20
338.8517
 30
0.0
 11
472.79515
 21
340.1819
 31
0.0
  0
LINE
  5
28B1
330
1D
100
AcDbEntity
  8
0
100
AcDbLine
 10
472.79515
 20
340.1819
 30
0.0
 11
472.79515
 21
338.8517
 31
0.0
  0
LINE
  5
28B2
330
1D
100
AcDbEntity
  8
0
100
AcDbLine
 10
472.21415
 20
346.0821
 30
0.0
 11
472.79515
 21
347.4085
 31
0.0
  0
LINE
  5
28B3
330
1D
100
AcDbEntity
  8
0
100
AcDbLine
 10
472.15915
 20
341.7153
 30
0.0
 11
472.79515
 21
340.1819
 31
0.0
  0
LINE
  5
28B4
330
1D
100
AcDbEntity
  8
0
100
AcDbLine
 10
471.99715
 20
343.9047
 30
0.0
 11
472.21415
 21
346.0821
 31
0.0
  0
LINE
  5
28B5
330
1D
100
AcDbEntity
  8
0
100
AcDbLine
 10
471.99715
 20
343.9047
 30
0.0
 11
472.15915
 21
341.7153
 31
0.0
  0
LINE
  5
28B6
330
1D
100
AcDbEntity
  8
0
100
AcDbLine
 10
471.79515
 20
345.2334
 30
0.0
 11
472.09515
 21
346.4608
 31
0.0
  0
LINE
  5
28B7
330
1D
100
AcDbEntity
  8
0
100
AcDbLine
 10
471.79515
 20
345.2334
 30
0.0
 11
471.79515
 21
344.6608
 31
0.0
  0
LINE
  5
28B8
330
1D
100
AcDbEntity
  8
0
100
AcDbLine
 10
472.79515
 20
347.4085
 30
0.0
 11
472.79515
 21
347.688
 31
0.0
  0
LINE
  5
28B9
330
1D
100
AcDbEntity
  8
0
100
AcDbLine
 10
472.79515
 20
347.688
 30
0.0
 11
473.79515
 21
348.0971
 31
0.0
  0
LINE
  5
28BA
330
1D
100
AcDbEntity
  8
0
100
AcDbLine
 10
472.79515
 20
347.688
 30
0.0
 11
472.79515
 21
347.4085
 31
0.0
  0
LINE
  5
28BB
330
1D
100
AcDbEntity
  8
0
100
AcDbLine
 10
472.09515
 20
346.4608
 30
0.0
 11
472.79515
 21
347.688
 31
0.0
  0
LINE
  5
28BC
330
1D
100
AcDbEntity
  8
0
100
AcDbLine
 10
485.79515
 20
330.0971
 30
0.0
 11
485.79515
 21
338.4971
 31
0.0
  0
LINE
  5
28BD
330
1D
100
AcDbEntity
  8
0
100
AcDbLine
 10
484.79515
 20
338.0412
 30
0.0
 11
485.55515
 21
334.2208
 31
0.0
  0
LINE
  5
28BE
330
1D
100
AcDbEntity
  8
0
100
AcDbLine
 10
485.79515
 20
338.4971
 30
0.0
 11
485.79515
 21
330.0971
 31
0.0
  0
LINE
  5
28BF
330
1D
100
AcDbEntity
  8
0
100
AcDbLine
 10
485.79515
 20
337.6243
 30
0.0
 11
485.79515
 21
334.0243
 31
0.0
  0
LINE
  5
28C0
330
1D
100
AcDbEntity
  8
0
100
AcDbLine
 10
485.79515
 20
334.0243
 30
0.0
 11
485.79515
 21
337.6243
 31
0.0
  0
LINE
  5
28C1
330
1D
100
AcDbEntity
  8
0
100
AcDbLine
 10
486.29515
 20
330.0971
 30
0.0
 11
486.29515
 21
338.6971
 31
0.0
  0
LINE
  5
28C2
330
1D
100
AcDbEntity
  8
0
100
AcDbLine
 10
486.29515
 20
338.6971
 30
0.0
 11
486.29515
 21
330.0971
 31
0.0
  0
LINE
  5
28C3
330
1D
100
AcDbEntity
  8
0
100
AcDbLine
 10
511.79515
 20
338.7971
 30
0.0
 11
511.79515
 21
330.0971
 31
0.0
  0
LINE
  5
28C4
330
1D
100
AcDbEntity
  8
0
100
AcDbLine
 10
511.79515
 20
330.0971
 30
0.0
 11
511.79515
 21
338.7971
 31
0.0
  0
LINE
  5
28C5
330
1D
100
AcDbEntity
  8
0
100
AcDbLine
 10
487.29515
 20
296.0971
 30
0.0
 11
511.79515
 21
296.0971
 31
0.0
  0
LINE
  5
28C6
330
1D
100
AcDbEntity
  8
0
100
AcDbLine
 10
486.29515
 20
306.3971
 30
0.0
 11
486.29515
 21
313.3971
 31
0.0
  0
LINE
  5
28C7
330
1D
100
AcDbEntity
  8
0
100
AcDbLine
 10
485.79515
 20
307.0971
 30
0.0
 11
485.79515
 21
313.8971
 31
0.0
  0
LINE
  5
28C8
330
1D
100
AcDbEntity
  8
0
100
AcDbLine
 10
486.29515
 20
313.3971
 30
0.0
 11
486.29515
 21
306.3971
 31
0.0
  0
LINE
  5
28C9
330
1D
100
AcDbEntity
  8
0
100
AcDbLine
 10
485.79515
 20
313.8971
 30
0.0
 11
485.79515
 21
307.0971
 31
0.0
  0
LINE
  5
28CA
330
1D
100
AcDbEntity
  8
0
100
AcDbLine
 10
485.79515
 20
301.9971
 30
0.0
 11
485.79515
 21
298.7971
 31
0.0
  0
LINE
  5
28CB
330
1D
100
AcDbEntity
  8
0
100
AcDbLine
 10
485.79515
 20
301.9971
 30
0.0
 11
485.79515
 21
307.0971
 31
0.0
  0
LINE
  5
28CC
330
1D
100
AcDbEntity
  8
0
100
AcDbLine
 10
485.79515
 20
298.7971
 30
0.0
 11
485.79515
 21
297.5971
 31
0.0
  0
LINE
  5
28CD
330
1D
100
AcDbEntity
  8
0
100
AcDbLine
 10
485.79515
 20
298.7971
 30
0.0
 11
485.79515
 21
301.9971
 31
0.0
  0
LINE
  5
28CE
330
1D
100
AcDbEntity
  8
0
100
AcDbLine
 10
485.79515
 20
297.5971
 30
0.0
 11
486.29515
 21
296.5971
 31
0.0
  0
LINE
  5
28CF
330
1D
100
AcDbEntity
  8
0
100
AcDbLine
 10
485.79515
 20
297.5971
 30
0.0
 11
485.79515
 21
298.7971
 31
0.0
  0
LINE
  5
28D0
330
1D
100
AcDbEntity
  8
0
100
AcDbLine
 10
486.29515
 20
306.3971
 30
0.0
 11
486.29515
 21
301.0971
 31
0.0
  0
LINE
  5
28D1
330
1D
100
AcDbEntity
  8
0
100
AcDbLine
 10
486.29515
 20
301.0971
 30
0.0
 11
486.29515
 21
297.7971
 31
0.0
  0
LINE
  5
28D2
330
1D
100
AcDbEntity
  8
0
100
AcDbLine
 10
486.29515
 20
301.0971
 30
0.0
 11
486.29515
 21
306.3971
 31
0.0
  0
LINE
  5
28D3
330
1D
100
AcDbEntity
  8
0
100
AcDbLine
 10
486.29515
 20
297.7971
 30
0.0
 11
486.29515
 21
296.5971
 31
0.0
  0
LINE
  5
28D4
330
1D
100
AcDbEntity
  8
0
100
AcDbLine
 10
486.29515
 20
297.7971
 30
0.0
 11
486.29515
 21
301.0971
 31
0.0
  0
LINE
  5
28D5
330
1D
100
AcDbEntity
  8
0
100
AcDbLine
 10
486.29515
 20
296.5971
 30
0.0
 11
487.29515
 21
296.0971
 31
0.0
  0
LINE
  5
28D6
330
1D
100
AcDbEntity
  8
0
100
AcDbLine
 10
486.29515
 20
296.5971
 30
0.0
 11
486.29515
 21
297.7971
 31
0.0
  0
LINE
  5
28D7
330
1D
100
AcDbEntity
  8
0
100
AcDbLine
 10
485.79515
 20
307.0971
 30
0.0
 11
485.79515
 21
301.9971
 31
0.0
  0
LINE
  5
28D8
330
1D
100
AcDbEntity
  8
0
100
AcDbLine
 10
485.79515
 20
321.6971
 30
0.0
 11
485.79515
 21
330.0971
 31
0.0
  0
LINE
  5
28D9
330
1D
100
AcDbEntity
  8
0
100
AcDbLine
 10
484.79515
 20
322.153
 30
0.0
 11
485.55515
 21
325.9734
 31
0.0
  0
LINE
  5
28DA
330
1D
100
AcDbEntity
  8
0
100
AcDbLine
 10
485.79515
 20
326.1699
 30
0.0
 11
485.79515
 21
322.5698
 31
0.0
  0
LINE
  5
28DB
330
1D
100
AcDbEntity
  8
0
100
AcDbLine
 10
485.79515
 20
322.5698
 30
0.0
 11
485.79515
 21
326.1699
 31
0.0
  0
LINE
  5
28DC
330
1D
100
AcDbEntity
  8
0
100
AcDbLine
 10
485.79515
 20
330.0971
 30
0.0
 11
485.79515
 21
321.6971
 31
0.0
  0
LINE
  5
28DD
330
1D
100
AcDbEntity
  8
0
100
AcDbLine
 10
486.29515
 20
321.4971
 30
0.0
 11
486.29515
 21
330.0971
 31
0.0
  0
LINE
  5
28DE
330
1D
100
AcDbEntity
  8
0
100
AcDbLine
 10
486.29515
 20
330.0971
 30
0.0
 11
486.29515
 21
321.4971
 31
0.0
  0
LINE
  5
28DF
330
1D
100
AcDbEntity
  8
0
100
AcDbLine
 10
483.79515
 20
312.0971
 30
0.0
 11
484.79515
 21
312.5062
 31
0.0
  0
LINE
  5
28E0
330
1D
100
AcDbEntity
  8
0
100
AcDbLine
 10
484.79515
 20
312.5062
 30
0.0
 11
484.79515
 21
312.7857
 31
0.0
  0
LINE
  5
28E1
330
1D
100
AcDbEntity
  8
0
100
AcDbLine
 10
484.79515
 20
312.5062
 30
0.0
 11
485.49515
 21
313.7335
 31
0.0
  0
LINE
  5
28E2
330
1D
100
AcDbEntity
  8
0
100
AcDbLine
 10
486.29515
 20
313.3971
 30
0.0
 11
486.29515
 21
321.4971
 31
0.0
  0
LINE
  5
28E3
330
1D
100
AcDbEntity
  8
0
100
AcDbLine
 10
485.49515
 20
313.7335
 30
0.0
 11
485.79515
 21
314.9607
 31
0.0
  0
LINE
  5
28E4
330
1D
100
AcDbEntity
  8
0
100
AcDbLine
 10
484.79515
 20
312.7857
 30
0.0
 11
485.37615
 21
314.1121
 31
0.0
  0
LINE
  5
28E5
330
1D
100
AcDbEntity
  8
0
100
AcDbLine
 10
484.79515
 20
312.7857
 30
0.0
 11
484.79515
 21
312.5062
 31
0.0
  0
LINE
  5
28E6
330
1D
100
AcDbEntity
  8
0
100
AcDbLine
 10
485.79515
 20
313.8971
 30
0.0
 11
485.79515
 21
317.0062
 31
0.0
  0
LINE
  5
28E7
330
1D
100
AcDbEntity
  8
0
100
AcDbLine
 10
485.37615
 20
314.1121
 30
0.0
 11
485.59315
 21
316.2895
 31
0.0
  0
LINE
  5
28E8
330
1D
100
AcDbEntity
  8
0
100
AcDbLine
 10
485.79515
 20
319.3789
 30
0.0
 11
485.79515
 21
322.5698
 31
0.0
  0
LINE
  5
28E9
330
1D
100
AcDbEntity
  8
0
100
AcDbLine
 10
485.79515
 20
319.3789
 30
0.0
 11
485.79515
 21
317.0062
 31
0.0
  0
LINE
  5
28EA
330
1D
100
AcDbEntity
  8
0
100
AcDbLine
 10
485.43115
 20
318.4789
 30
0.0
 11
485.59315
 21
316.2895
 31
0.0
  0
LINE
  5
28EB
330
1D
100
AcDbEntity
  8
0
100
AcDbLine
 10
484.79515
 20
321.3426
 30
0.0
 11
484.79515
 21
322.153
 31
0.0
  0
LINE
  5
28EC
330
1D
100
AcDbEntity
  8
0
100
AcDbLine
 10
484.79515
 20
321.3426
 30
0.0
 11
484.79515
 21
320.0123
 31
0.0
  0
LINE
  5
28ED
330
1D
100
AcDbEntity
  8
0
100
AcDbLine
 10
484.79515
 20
322.153
 30
0.0
 11
484.79515
 21
321.3426
 31
0.0
  0
LINE
  5
28EE
330
1D
100
AcDbEntity
  8
0
100
AcDbLine
 10
485.79515
 20
322.5698
 30
0.0
 11
485.79515
 21
319.3789
 31
0.0
  0
LINE
  5
28EF
330
1D
100
AcDbEntity
  8
0
100
AcDbLine
 10
484.79515
 20
320.0123
 30
0.0
 11
485.43115
 21
318.4789
 31
0.0
  0
LINE
  5
28F0
330
1D
100
AcDbEntity
  8
0
100
AcDbLine
 10
484.79515
 20
320.0123
 30
0.0
 11
484.79515
 21
321.3426
 31
0.0
  0
LINE
  5
28F1
330
1D
100
AcDbEntity
  8
0
100
AcDbLine
 10
485.79515
 20
317.0062
 30
0.0
 11
485.79515
 21
319.3789
 31
0.0
  0
LINE
  5
28F2
330
1D
100
AcDbEntity
  8
0
100
AcDbLine
 10
485.79515
 20
317.0062
 30
0.0
 11
485.79515
 21
313.8971
 31
0.0
  0
LINE
  5
28F3
330
1D
100
AcDbEntity
  8
0
100
AcDbLine
 10
486.29515
 20
321.4971
 30
0.0
 11
486.29515
 21
313.3971
 31
0.0
  0
LINE
  5
28F4
330
1D
100
AcDbEntity
  8
0
100
AcDbLine
 10
485.79515
 20
326.1699
 30
0.0
 11
485.79515
 21
330.0971
 31
0.0
  0
LINE
  5
28F5
330
1D
100
AcDbEntity
  8
0
100
AcDbLine
 10
485.55515
 20
325.9734
 30
0.0
 11
485.69515
 21
330.0971
 31
0.0
  0
LINE
  5
28F6
330
1D
100
AcDbEntity
  8
0
100
AcDbLine
 10
485.55515
 20
325.9734
 30
0.0
 11
485.79515
 21
326.1699
 31
0.0
  0
LINE
  5
28F7
330
1D
100
AcDbEntity
  8
0
100
AcDbLine
 10
485.79515
 20
330.0971
 30
0.0
 11
485.79515
 21
334.0243
 31
0.0
  0
LINE
  5
28F8
330
1D
100
AcDbEntity
  8
0
100
AcDbLine
 10
485.79515
 20
330.0971
 30
0.0
 11
485.79515
 21
326.1699
 31
0.0
  0
LINE
  5
28F9
330
1D
100
AcDbEntity
  8
0
100
AcDbLine
 10
485.79515
 20
334.0243
 30
0.0
 11
485.79515
 21
330.0971
 31
0.0
  0
LINE
  5
28FA
330
1D
100
AcDbEntity
  8
0
100
AcDbLine
 10
485.55515
 20
334.2208
 30
0.0
 11
485.69515
 21
330.0971
 31
0.0
  0
LINE
  5
28FB
330
1D
100
AcDbEntity
  8
0
100
AcDbLine
 10
511.79515
 20
296.0971
 30
0.0
 11
511.79515
 21
297.2971
 31
0.0
  0
LINE
  5
28FC
330
1D
100
AcDbEntity
  8
0
100
AcDbLine
 10
511.79515
 20
306.0971
 30
0.0
 11
511.79515
 21
300.6971
 31
0.0
  0
LINE
  5
28FD
330
1D
100
AcDbEntity
  8
0
100
AcDbLine
 10
511.79515
 20
306.0971
 30
0.0
 11
511.79515
 21
313.1971
 31
0.0
  0
LINE
  5
28FE
330
1D
100
AcDbEntity
  8
0
100
AcDbLine
 10
511.79515
 20
300.6971
 30
0.0
 11
511.79515
 21
297.2971
 31
0.0
  0
LINE
  5
28FF
330
1D
100
AcDbEntity
  8
0
100
AcDbLine
 10
511.79515
 20
300.6971
 30
0.0
 11
511.79515
 21
306.0971
 31
0.0
  0
LINE
  5
2900
330
1D
100
AcDbEntity
  8
0
100
AcDbLine
 10
511.79515
 20
297.2971
 30
0.0
 11
511.79515
 21
296.0971
 31
0.0
  0
LINE
  5
2901
330
1D
100
AcDbEntity
  8
0
100
AcDbLine
 10
511.79515
 20
297.2971
 30
0.0
 11
511.79515
 21
300.6971
 31
0.0
  0
LINE
  5
2902
330
1D
100
AcDbEntity
  8
0
100
AcDbLine
 10
511.79515
 20
313.1971
 30
0.0
 11
511.79515
 21
306.0971
 31
0.0
  0
LINE
  5
2903
330
1D
100
AcDbEntity
  8
0
100
AcDbLine
 10
511.79515
 20
313.1971
 30
0.0
 11
511.79515
 21
321.3971
 31
0.0
  0
LINE
  5
2904
330
1D
100
AcDbEntity
  8
0
100
AcDbLine
 10
511.79515
 20
321.3971
 30
0.0
 11
511.79515
 21
313.1971
 31
0.0
  0
LINE
  5
2905
330
1D
100
AcDbEntity
  8
0
100
AcDbLine
 10
511.79515
 20
321.3971
 30
0.0
 11
511.79515
 21
330.0971
 31
0.0
  0
LINE
  5
2906
330
1D
100
AcDbEntity
  8
0
100
AcDbLine
 10
511.79515
 20
330.0971
 30
0.0
 11
511.79515
 21
321.3971
 31
0.0
  0
LINE
  5
2907
330
1D
100
AcDbEntity
  8
0
100
AcDbLine
 10
487.29515
 20
364.0971
 30
0.0
 11
511.79515
 21
364.0971
 31
0.0
  0
LINE
  5
2908
330
1D
100
AcDbEntity
  8
0
100
AcDbLine
 10
485.79515
 20
358.1971
 30
0.0
 11
485.79515
 21
361.3971
 31
0.0
  0
LINE
  5
2909
330
1D
100
AcDbEntity
  8
0
100
AcDbLine
 10
485.79515
 20
361.3971
 30
0.0
 11
485.79515
 21
358.1971
 31
0.0
  0
LINE
  5
290A
330
1D
100
AcDbEntity
  8
0
100
AcDbLine
 10
486.29515
 20
359.0971
 30
0.0
 11
486.29515
 21
362.3971
 31
0.0
  0
LINE
  5
290B
330
1D
100
AcDbEntity
  8
0
100
AcDbLine
 10
486.29515
 20
362.3971
 30
0.0
 11
486.29515
 21
359.0971
 31
0.0
  0
LINE
  5
290C
330
1D
100
AcDbEntity
  8
0
100
AcDbLine
 10
485.79515
 20
346.2971
 30
0.0
 11
485.79515
 21
353.0971
 31
0.0
  0
LINE
  5
290D
330
1D
100
AcDbEntity
  8
0
100
AcDbLine
 10
484.79515
 20
347.688
 30
0.0
 11
485.49515
 21
346.4608
 31
0.0
  0
LINE
  5
290E
330
1D
100
AcDbEntity
  8
0
100
AcDbLine
 10
484.79515
 20
347.4085
 30
0.0
 11
485.37615
 21
346.0821
 31
0.0
  0
LINE
  5
290F
330
1D
100
AcDbEntity
  8
0
100
AcDbLine
 10
485.79515
 20
353.0971
 30
0.0
 11
485.79515
 21
346.2971
 31
0.0
  0
LINE
  5
2910
330
1D
100
AcDbEntity
  8
0
100
AcDbLine
 10
486.29515
 20
346.7971
 30
0.0
 11
486.29515
 21
353.7971
 31
0.0
  0
LINE
  5
2911
330
1D
100
AcDbEntity
  8
0
100
AcDbLine
 10
486.29515
 20
353.7971
 30
0.0
 11
486.29515
 21
346.7971
 31
0.0
  0
LINE
  5
2912
330
1D
100
AcDbEntity
  8
0
100
AcDbLine
 10
484.79515
 20
338.8517
 30
0.0
 11
484.79515
 21
340.1819
 31
0.0
  0
LINE
  5
2913
330
1D
100
AcDbEntity
  8
0
100
AcDbLine
 10
484.79515
 20
338.8517
 30
0.0
 11
484.79515
 21
338.0412
 31
0.0
  0
LINE
  5
2914
330
1D
100
AcDbEntity
  8
0
100
AcDbLine
 10
484.79515
 20
340.1819
 30
0.0
 11
485.43115
 21
341.7153
 31
0.0
  0
LINE
  5
2915
330
1D
100
AcDbEntity
  8
0
100
AcDbLine
 10
484.79515
 20
340.1819
 30
0.0
 11
484.79515
 21
338.8517
 31
0.0
  0
LINE
  5
2916
330
1D
100
AcDbEntity
  8
0
100
AcDbLine
 10
485.43115
 20
341.7153
 30
0.0
 11
485.59315
 21
343.9047
 31
0.0
  0
LINE
  5
2917
330
1D
100
AcDbEntity
  8
0
100
AcDbLine
 10
485.37615
 20
346.0821
 30
0.0
 11
485.59315
 21
343.9047
 31
0.0
  0
LINE
  5
2918
330
1D
100
AcDbEntity
  8
0
100
AcDbLine
 10
484.79515
 20
338.0412
 30
0.0
 11
484.79515
 21
338.8517
 31
0.0
  0
LINE
  5
2919
330
1D
100
AcDbEntity
  8
0
100
AcDbLine
 10
485.79515
 20
338.4971
 30
0.0
 11
485.79515
 21
346.2971
 31
0.0
  0
LINE
  5
291A
330
1D
100
AcDbEntity
  8
0
100
AcDbLine
 10
485.79515
 20
340.8153
 30
0.0
 11
485.79515
 21
343.188
 31
0.0
  0
LINE
  5
291B
330
1D
100
AcDbEntity
  8
0
100
AcDbLine
 10
485.79515
 20
343.188
 30
0.0
 11
485.79515
 21
344.6608
 31
0.0
  0
LINE
  5
291C
330
1D
100
AcDbEntity
  8
0
100
AcDbLine
 10
485.79515
 20
343.188
 30
0.0
 11
485.79515
 21
340.8153
 31
0.0
  0
LINE
  5
291D
330
1D
100
AcDbEntity
  8
0
100
AcDbLine
 10
485.79515
 20
344.6608
 30
0.0
 11
485.79515
 21
343.188
 31
0.0
  0
LINE
  5
291E
330
1D
100
AcDbEntity
  8
0
100
AcDbLine
 10
485.79515
 20
345.2334
 30
0.0
 11
485.79515
 21
346.2971
 31
0.0
  0
LINE
  5
291F
330
1D
100
AcDbEntity
  8
0
100
AcDbLine
 10
485.49515
 20
346.4608
 30
0.0
 11
485.79515
 21
345.2334
 31
0.0
  0
LINE
  5
2920
330
1D
100
AcDbEntity
  8
0
100
AcDbLine
 10
485.79515
 20
346.2971
 30
0.0
 11
485.79515
 21
345.2334
 31
0.0
  0
LINE
  5
2921
330
1D
100
AcDbEntity
  8
0
100
AcDbLine
 10
485.79515
 20
346.2971
 30
0.0
 11
485.79515
 21
338.4971
 31
0.0
  0
LINE
  5
2922
330
1D
100
AcDbEntity
  8
0
100
AcDbLine
 10
486.29515
 20
338.6971
 30
0.0
 11
486.29515
 21
346.7971
 31
0.0
  0
LINE
  5
2923
330
1D
100
AcDbEntity
  8
0
100
AcDbLine
 10
486.29515
 20
346.7971
 30
0.0
 11
486.29515
 21
338.6971
 31
0.0
  0
LINE
  5
2924
330
1D
100
AcDbEntity
  8
0
100
AcDbLine
 10
483.79515
 20
348.0971
 30
0.0
 11
484.79515
 21
347.688
 31
0.0
  0
LINE
  5
2925
330
1D
100
AcDbEntity
  8
0
100
AcDbLine
 10
484.79515
 20
347.688
 30
0.0
 11
484.79515
 21
347.4085
 31
0.0
  0
LINE
  5
2926
330
1D
100
AcDbEntity
  8
0
100
AcDbLine
 10
484.79515
 20
347.4085
 30
0.0
 11
484.79515
 21
347.688
 31
0.0
  0
LINE
  5
2927
330
1D
100
AcDbEntity
  8
0
100
AcDbLine
 10
485.79515
 20
353.0971
 30
0.0
 11
485.79515
 21
358.1971
 31
0.0
  0
LINE
  5
2928
330
1D
100
AcDbEntity
  8
0
100
AcDbLine
 10
485.79515
 20
358.1971
 30
0.0
 11
485.79515
 21
353.0971
 31
0.0
  0
LINE
  5
2929
330
1D
100
AcDbEntity
  8
0
100
AcDbLine
 10
486.29515
 20
359.0971
 30
0.0
 11
486.29515
 21
353.7971
 31
0.0
  0
LINE
  5
292A
330
1D
100
AcDbEntity
  8
0
100
AcDbLine
 10
486.29515
 20
353.7971
 30
0.0
 11
486.29515
 21
359.0971
 31
0.0
  0
LINE
  5
292B
330
1D
100
AcDbEntity
  8
0
100
AcDbLine
 10
485.79515
 20
361.3971
 30
0.0
 11
485.79515
 21
362.5971
 31
0.0
  0
LINE
  5
292C
330
1D
100
AcDbEntity
  8
0
100
AcDbLine
 10
486.29515
 20
362.3971
 30
0.0
 11
486.29515
 21
363.5971
 31
0.0
  0
LINE
  5
292D
330
1D
100
AcDbEntity
  8
0
100
AcDbLine
 10
485.79515
 20
362.5971
 30
0.0
 11
486.29515
 21
363.5971
 31
0.0
  0
LINE
  5
292E
330
1D
100
AcDbEntity
  8
0
100
AcDbLine
 10
485.79515
 20
362.5971
 30
0.0
 11
485.79515
 21
361.3971
 31
0.0
  0
LINE
  5
292F
330
1D
100
AcDbEntity
  8
0
100
AcDbLine
 10
486.29515
 20
363.5971
 30
0.0
 11
487.29515
 21
364.0971
 31
0.0
  0
LINE
  5
2930
330
1D
100
AcDbEntity
  8
0
100
AcDbLine
 10
486.29515
 20
363.5971
 30
0.0
 11
486.29515
 21
362.3971
 31
0.0
  0
LINE
  5
2931
330
1D
100
AcDbEntity
  8
0
100
AcDbLine
 10
511.79515
 20
338.7971
 30
0.0
 11
511.79515
 21
346.9971
 31
0.0
  0
LINE
  5
2932
330
1D
100
AcDbEntity
  8
0
100
AcDbLine
 10
511.79515
 20
359.4971
 30
0.0
 11
511.79515
 21
354.0971
 31
0.0
  0
LINE
  5
2933
330
1D
100
AcDbEntity
  8
0
100
AcDbLine
 10
511.79515
 20
359.4971
 30
0.0
 11
511.79515
 21
362.8971
 31
0.0
  0
LINE
  5
2934
330
1D
100
AcDbEntity
  8
0
100
AcDbLine
 10
511.79515
 20
362.8971
 30
0.0
 11
511.79515
 21
359.4971
 31
0.0
  0
LINE
  5
2935
330
1D
100
AcDbEntity
  8
0
100
AcDbLine
 10
511.79515
 20
362.8971
 30
0.0
 11
511.79515
 21
364.0971
 31
0.0
  0
LINE
  5
2936
330
1D
100
AcDbEntity
  8
0
100
AcDbLine
 10
511.79515
 20
354.0971
 30
0.0
 11
511.79515
 21
346.9971
 31
0.0
  0
LINE
  5
2937
330
1D
100
AcDbEntity
  8
0
100
AcDbLine
 10
511.79515
 20
354.0971
 30
0.0
 11
511.79515
 21
359.4971
 31
0.0
  0
LINE
  5
2938
330
1D
100
AcDbEntity
  8
0
100
AcDbLine
 10
511.79515
 20
346.9971
 30
0.0
 11
511.79515
 21
338.7971
 31
0.0
  0
LINE
  5
2939
330
1D
100
AcDbEntity
  8
0
100
AcDbLine
 10
511.79515
 20
346.9971
 30
0.0
 11
511.79515
 21
354.0971
 31
0.0
  0
LINE
  5
293A
330
1D
100
AcDbEntity
  8
0
100
AcDbLine
 10
511.79515
 20
364.0971
 30
0.0
 11
511.79515
 21
362.8971
 31
0.0
  0
LINE
  5
293B
330
1D
100
AcDbEntity
  8
0
100
AcDbLine
 10
463.79515
 20
348.0975
 30
0.0
 11
455.878143826517
 21
348.0975
 31
0.0
  0
LINE
  5
293C
330
1D
100
AcDbEntity
  8
0
100
AcDbLine
 10
424.18015
 20
347.8325
 30
0.0
 11
439.868438031829
 21
347.8325
 31
0.0
  0
LINE
  5
293D
330
1D
100
AcDbEntity
  8
0
100
AcDbLine
 10
408.79515
 20
345.9945
 30
0.0
 11
408.79515
 21
298.2005
 31
0.0
  0
LINE
  5
293E
330
1D
100
AcDbEntity
  8
0
100
AcDbLine
 10
443.08815
 20
494.4275
 30
0.0
 11
440.08815
 21
547.2405
 31
0.0
  0
LINE
  5
293F
330
1D
100
AcDbEntity
  8
0
100
AcDbLine
 10
457.79515
 20
603.667813109996
 30
0.0
 11
459.08415
 21
494.0665
 31
0.0
  0
ENDSEC
  0
SECTION
  2
OBJECTS
  0
DICTIONARY
  5
C
330
0
100
AcDbDictionary
281
     1
  3
ACAD_GROUP
350
D
  3
ACAD_LAYOUT
350
1A
  3
ACAD_MLEADERSTYLE
350
2942
  3
ACAD_MLINESTYLE
350
17
  3
ACAD_PLOTSETTINGS
350
19
  3
ACAD_PLOTSTYLENAME
350
E
  3
ACAD_SCALELIST
350
D6F
  3
AcDbVariableDictionary
350
2940
  3
DWGPROPS
350
2945
  0
DICTIONARY
  5
D
102
{ACAD_REACTORS
330
C
102
}
330
C
100
AcDbDictionary
281
     1
  0
DICTIONARY
  5
1A
102
{ACAD_REACTORS
330
C
102
}
330
C
100
AcDbDictionary
281
     1
  3
Layout1
350
1C
  3
Model
350
1E
  0
DICTIONARY
  5
2942
102
{ACAD_REACTORS
330
C
102
}
330
C
100
AcDbDictionary
281
     1
  0
DICTIONARY
  5
17
102
{ACAD_REACTORS
330
C
102
}
330
C
100
AcDbDictionary
281
     1
  3
Standard
350
18
  0
DICTIONARY
  5
19
102
{ACAD_REACTORS
330
C
102
}
330
C
100
AcDbDictionary
281
     1
  0
ACDBDICTIONARYWDFLT
  5
E
102
{ACAD_REACTORS
330
C
102
}
330
C
100
AcDbDictionary
281
     1
  3
Normal
350
F
100
AcDbDictionaryWithDefault
340
F
  0
DICTIONARY
  5
D6F
102
{ACAD_REACTORS
330
C
102
}
330
C
100
AcDbDictionary
281
     1
  3
A0
350
D70
  3
A1
350
D71
  3
A2
350
D72
  3
A3
350
D73
  3
A4
350
D74
  3
A5
350
D75
  3
A6
350
D76
  3
A7
350
D77
  3
A8
350
D78
  3
A9
350
D79
  3
B0
350
D7A
  3
B1
350
D7B
  3
B2
350
D7C
  3
B3
350
D7D
  3
B4
350
D7E
  3
B5
350
D7F
  3
B6
350
D80
  3
B7
350
D81
  3
B8
350
D82
  3
B9
350
D83
  3
C0
350
D84
  3
C1
350
D85
  3
C2
350
D86
  3
C3
350
D87
  3
C4
350
D88
  3
C5
350
D89
  3
C6
350
D8A
  3
C7
350
D8B
  3
C8
350
D8C
  3
C9
350
D8D
  3
D0
350
D8E
  3
D1
350
D8F
  3
D2
350
D90
  0
DICTIONARY
  5
2940
102
{ACAD_REACTORS
330
C
102
}
330
C
100
AcDbDictionary
281
     1
  3
CANNOSCALE
350
2943
  0
XRECORD
  5
2945
102
{ACAD_REACTORS
330
C
102
}
330
C
100
AcDbXrecord
280
     1
  1
DWGPROPS COOKIE
  2

  3

  4

  6

  7

  8
MARTIN
  9

300
=
301
=
302
=
303
=
304
=
305
=
306
=
307
=
308
=
309
=
 40
0.0
 41
2455870.873135729
 42
2455870.875457419
  1

 90
        0
  0
LAYOUT
  5
1C
102
{ACAD_REACTORS
330
1A
102
}
330
1A
100
AcDbPlotSettings
  1

  2
none_device
  4

  6

 40
0.0
 41
0.0
 42
0.0
 43
0.0
 44
0.0
 45
0.0
 46
0.0
 47
0.0
 48
0.0
 49
0.0
140
0.0
141
0.0
142
1.0
143
1.0
 70
   688
 72
     0
 73
     0
 74
     5
  7

 75
    16
147
1.0
148
0.0
149
0.0
100
AcDbLayout
  1
Layout1
 70
     1
 71
     1
 10
0.0
 20
0.0
 11
12.0
 21
9.0
 12
0.0
 22
0.0
 32
0.0
 14
1.000000000000E+20
 24
1.000000000000E+20
 34
1.000000000000E+20
 15
-1.000000000000E+20
 25
-1.000000000000E+20
 35
-1.000000000000E+20
146
0.0
 13
0.0
 23
0.0
 33
0.0
 16
1.0
 26
0.0
 36
0.0
 17
0.0
 27
1.0
 37
0.0
 76
     0
330
1B
  0
LAYOUT
  5
1E
102
{ACAD_REACTORS
330
1A
102
}
330
1A
100
AcDbPlotSettings
  1

  2
none_device
  4

  6

 40
0.0
 41
0.0
 42
0.0
 43
0.0
 44
0.0
 45
0.0
 46
0.0
 47
0.0
 48
0.0
 49
0.0
140
0.0
141
0.0
142
1.0
143
1.0
 70
  1712
 72
     0
 73
     0
 74
     0
  7

 75
     0
147
1.0
148
0.0
149
0.0
100
AcDbLayout
  1
Model
 70
     1
 71
     0
 10
0.0
 20
0.0
 11
12.0
 21
9.0
 12
0.0
 22
0.0
 32
0.0
 14
0.20485
 24
-0.0975
 34
0.0
 15
511.79515
 25
1542.0975
 35
0.0
146
0.0
 13
0.0
 23
0.0
 33
0.0
 16
1.0
 26
0.0
 36
0.0
 17
0.0
 27
1.0
 37
0.0
 76
     0
330
1D
331
D6A
  0
MLINESTYLE
  5
18
102
{ACAD_REACTORS
330
17
102
}
330
17
100
AcDbMlineStyle
  2
Standard
 70
     0
  3

 62
   256
 51
90.0
 52
90.0
 71
     2
 49
0.5
 62
   256
  6
BYLAYER
 49
-0.5
 62
   256
  6
BYLAYER
  0
ACDBPLACEHOLDER
  5
F
102
{ACAD_REACTORS
330
E
102
}
330
E
  0
SCALE
  5
D70
102
{ACAD_REACTORS
330
D6F
102
}
330
D6F
100
AcDbScale
 70
     0
300
1:1
140
1.0
141
1.0
290
     1
  0
SCALE
  5
D71
102
{ACAD_REACTORS
330
D6F
102
}
330
D6F
100
AcDbScale
 70
     0
300
1:2
140
1.0
141
2.0
290
     0
  0
SCALE
  5
D72
102
{ACAD_REACTORS
330
D6F
102
}
330
D6F
100
AcDbScale
 70
     0
300
1:4
140
1.0
141
4.0
290
     0
  0
SCALE
  5
D73
102
{ACAD_REACTORS
330
D6F
102
}
330
D6F
100
AcDbScale
 70
     0
300
1:5
140
1.0
141
5.0
290
     0
  0
SCALE
  5
D74
102
{ACAD_REACTORS
330
D6F
102
}
330
D6F
100
AcDbScale
 70
     0
300
1:8
140
1.0
141
8.0
290
     0
  0
SCALE
  5
D75
102
{ACAD_REACTORS
330
D6F
102
}
330
D6F
100
AcDbScale
 70
     0
300
1:10
140
1.0
141
10.0
290
     0
  0
SCALE
  5
D76
102
{ACAD_REACTORS
330
D6F
102
}
330
D6F
100
AcDbScale
 70
     0
300
1:16
140
1.0
141
16.0
290
     0
  0
SCALE
  5
D77
102
{ACAD_REACTORS
330
D6F
102
}
330
D6F
100
AcDbScale
 70
     0
300
1:20
140
1.0
141
20.0
290
     0
  0
SCALE
  5
D78
102
{ACAD_REACTORS
330
D6F
102
}
330
D6F
100
AcDbScale
 70
     0
300
1:30
140
1.0
141
30.0
290
     0
  0
SCALE
  5
D79
102
{ACAD_REACTORS
330
D6F
102
}
330
D6F
100
AcDbScale
 70
     0
300
1:40
140
1.0
141
40.0
290
     0
  0
SCALE
  5
D7A
102
{ACAD_REACTORS
330
D6F
102
}
330
D6F
100
AcDbScale
 70
     0
300
1:50
140
1.0
141
50.0
290
     0
  0
SCALE
  5
D7B
102
{ACAD_REACTORS
330
D6F
102
}
330
D6F
100
AcDbScale
 70
     0
300
1:100
140
1.0
141
100.0
290
     0
  0
SCALE
  5
D7C
102
{ACAD_REACTORS
330
D6F
102
}
330
D6F
100
AcDbScale
 70
     0
300
2:1
140
2.0
141
1.0
290
     0
  0
SCALE
  5
D7D
102
{ACAD_REACTORS
330
D6F
102
}
330
D6F
100
AcDbScale
 70
     0
300
4:1
140
4.0
141
1.0
290
     0
  0
SCALE
  5
D7E
102
{ACAD_REACTORS
330
D6F
102
}
330
D6F
100
AcDbScale
 70
     0
300
8:1
140
8.0
141
1.0
290
     0
  0
SCALE
  5
D7F
102
{ACAD_REACTORS
330
D6F
102
}
330
D6F
100
AcDbScale
 70
     0
300
10:1
140
10.0
141
1.0
290
     0
  0
SCALE
  5
D80
102
{ACAD_REACTORS
330
D6F
102
}
330
D6F
100
AcDbScale
 70
     0
300
100:1
140
100.0
141
1.0
290
     0
  0
SCALE
  5
D81
102
{ACAD_REACTORS
330
D6F
102
}
330
D6F
100
AcDbScale
 70
     0
300
1/128" = 1'-0"
140
0.0078125
141
12.0
290
     0
  0
SCALE
  5
D82
102
{ACAD_REACTORS
330
D6F
102
}
330
D6F
100
AcDbScale
 70
     0
300
1/64" = 1'-0"
140
0.015625
141
12.0
290
     0
  0
SCALE
  5
D83
102
{ACAD_REACTORS
330
D6F
102
}
330
D6F
100
AcDbScale
 70
     0
300
1/32" = 1'-0"
140
0.03125
141
12.0
290
     0
  0
SCALE
  5
D84
102
{ACAD_REACTORS
330
D6F
102
}
330
D6F
100
AcDbScale
 70
     0
300
1/16" = 1'-0"
140
0.0625
141
12.0
290
     0
  0
SCALE
  5
D85
102
{ACAD_REACTORS
330
D6F
102
}
330
D6F
100
AcDbScale
 70
     0
300
3/32" = 1'-0"
140
0.09375
141
12.0
290
     0
  0
SCALE
  5
D86
102
{ACAD_REACTORS
330
D6F
102
}
330
D6F
100
AcDbScale
 70
     0
300
1/8" = 1'-0"
140
0.125
141
12.0
290
     0
  0
SCALE
  5
D87
102
{ACAD_REACTORS
330
D6F
102
}
330
D6F
100
AcDbScale
 70
     0
300
3/16" = 1'-0"
140
0.1875
141
12.0
290
     0
  0
SCALE
  5
D88
102
{ACAD_REACTORS
330
D6F
102
}
330
D6F
100
AcDbScale
 70
     0
300
1/4" = 1'-0"
140
0.25
141
12.0
290
     0
  0
SCALE
  5
D89
102
{ACAD_REACTORS
330
D6F
102
}
330
D6F
100
AcDbScale
 70
     0
300
3/8" = 1'-0"
140
0.375
141
12.0
290
     0
  0
SCALE
  5
D8A
102
{ACAD_REACTORS
330
D6F
102
}
330
D6F
100
AcDbScale
 70
     0
300
1/2" = 1'-0"
140
0.5
141
12.0
290
     0
  0
SCALE
  5
D8B
102
{ACAD_REACTORS
330
D6F
102
}
330
D6F
100
AcDbScale
 70
     0
300
3/4" = 1'-0"
140
0.75
141
12.0
290
     0
  0
SCALE
  5
D8C
102
{ACAD_REACTORS
330
D6F
102
}
330
D6F
100
AcDbScale
 70
     0
300
1" = 1'-0"
140
1.0
141
12.0
290
     0
  0
SCALE
  5
D8D
102
{ACAD_REACTORS
330
D6F
102
}
330
D6F
100
AcDbScale
 70
     0
300
1-1/2" = 1'-0"
140
1.5
141
12.0
290
     0
  0
SCALE
  5
D8E
102
{ACAD_REACTORS
330
D6F
102
}
330
D6F
100
AcDbScale
 70
     0
300
3" = 1'-0"
140
3.0
141
12.0
290
     0
  0
SCALE
  5
D8F
102
{ACAD_REACTORS
330
D6F
102
}
330
D6F
100
AcDbScale
 70
     0
300
6" = 1'-0"
140
6.0
141
12.0
290
     0
  0
SCALE
  5
D90
102
{ACAD_REACTORS
330
D6F
102
}
330
D6F
100
AcDbScale
 70
     0
300
1'-0" = 1'-0"
140
12.0
141
12.0
290
     0
  0
DICTIONARYVAR
  5
2943
102
{ACAD_REACTORS
330
2940
102
}
330
2940
100
DictionaryVariables
280
     0
  1
1:1
  0
ENDSEC
  0
SECTION
  2
THUMBNAILIMAGE
 90
    16364
310
28000000B40000005500000001000800000000000000000000000000000000000000000000000000FFFFFF000000FF0000FFFF0000FF0000FFFF0000FF000000FF00FF000000000080808000C0C0C0000000FF007F7FFF000000A5005252A50000007F003F3F7F0000004C0026264C000000260013132600003FFF007F9FFF
310
000029A5005267A500001F7F003F4F7F0000134C00262F4C000009260013172600007FFF007FBFFF000052A500527CA500003F7F003F5F7F0000264C0026394C0000132600131C260000BFFF007FDFFF00007CA5005291A500005F7F003F6F7F0000394C0026424C00001C26001321260000FFFF007FFFFF0000A5A50052A5
310
A500007F7F003F7F7F00004C4C00264C4C00002626001326260000FFBF007FFFDF0000A57C0052A59100007F5F003F7F6F00004C3900264C420000261C001326210000FF7F007FFFBF0000A5520052A57C00007F3F003F7F5F00004C2600264C39000026130013261C0000FF3F007FFF9F0000A5290052A56700007F1F003F
310
7F4F00004C1300264C2F00002609001326170000FF00007FFF7F0000A5000052A55200007F00003F7F3F00004C0000264C260000260000132613003FFF00009FFF7F0029A5000067A552001F7F00004F7F3F00134C00002F4C260009260000172613007FFF0000BFFF7F0052A500007CA552003F7F00005F7F3F00264C0000
310
394C2600132600001C261300BFFF0000DFFF7F007CA5000091A552005F7F00006F7F3F00394C0000424C26001C26000021261300FFFF0000FFFF7F00A5A50000A5A552007F7F00007F7F3F004C4C00004C4C26002626000026261300FFBF0000FFDF7F00A57C0000A59152007F5F00007F6F3F004C3900004C422600261C00
310
0026211300FF7F0000FFBF7F00A5520000A57C52007F3F00007F5F3F004C2600004C39260026130000261C1300FF3F0000FF9F7F00A5290000A56752007F1F00007F4F3F004C1300004C2F26002609000026171300FF000000FF7F7F00A5000000A55252007F0000007F3F3F004C0000004C2626002600000026131300FF00
310
3F00FF7F9F00A5002900A55267007F001F007F3F4F004C0013004C262F002600090026131700FF007F00FF7FBF00A5005200A5527C007F003F007F3F5F004C0026004C2639002600130026131C00FF00BF00FF7FDF00A5007C00A55291007F005F007F3F6F004C0039004C26420026001C0026132100FF00FF00FF7FFF00A5
310
00A500A552A5007F007F007F3F7F004C004C004C264C002600260026132600BF00FF00DF7FFF007C00A5009152A5005F007F006F3F7F0039004C0042264C001C002600211326007F00FF00BF7FFF005200A5007C52A5003F007F005F3F7F0026004C0039264C00130026001C1326003F00FF009F7FFF002900A5006752A500
310
1F007F004F3F7F0013004C002F264C000900260017132600000000002D2D2D005B5B5B0089898900B7B7B700B3B3B30000000000000000000000000000000000000000000000000000000000000000000000000000000000000000000000000000000000000000000000000000000000000000000000000000000000000000
310
00000000000000000000000000000000000000000000000000000000000000000000000000000000000000000000000000000000000000000000000000000000000000000000000000000000000000000000000000000000000000000000000000000000000000000000000000000000000000000000000000000000000000
310
00000000000000000000000000000000000000000000000000000000000000000000000000000000000000000000000000000000000000000000000000000000000000000000000000000000000000000000000000000000000000000000000000000000000000000000000000000000000000000000000000000000000000
310
00000000000000000000000000000000000000000000000000000000000000000000000000000000000000000000000000000000000000000000000000000000000000000000000000000000000000000000000000000000000000000000000000000000000000000000000000000000000000000000000000000000000000
310
00000000000000000000000000000000000000000000000000000000000000000000000000000000000000000000000000000000000000000000000000000000000000000000000000000000000000000000000000000000000000000000000000000000000000000000000000000000000000000000000000000000000000
310
00000000000000000000000000000000000000000000000000000000000000000000000000000000000000000000000000000000070700000000000000000000000000000000000000000000000000000000000000000000000000000000000000000000000000000000000000000000000000000000000000000000000000
310
00000000000000000000000000000000000000000000000000000000000000000000000000000000000000000000000000000000000000000000000000000000000000000000000000000000000000000000000000000000000000000000000000000000000000000007070000000000000000000000000000000000000000
310
00000000000000000000000000000000000000000000000000000000000000000000000000000000000000000000000000000000000000000000000000000000000000000000000000000000000000000000000000000000000000000000000000000000000000000000000000000000000000000000000000000000000000
310
00000000000000000000000000000000000000000000000000000000000000070700000000000000000000000000000000000000000000000000000000000000000000000000000000000000000000000000000000000000000000000000000000000000000000000000000000000000000000000000000000000000000000
310
00000000000000000000000000000000000000000000000000000000000000000000000000000000000000000000000000000000000000000000000000000000000000000000000000000000000000000000000007070000000000000000000000000000000000000000000000000000000000000000000000000000000000
310
00000000000000000000000000000000000000000000000000000000000000000000000000000000000000000000000000000000000000000000000000000000000000000000000000000000000000000000000000000000000000000000000000000000000000000000000000000000000000000000000000000000000000
310
00000000000000000000070700000000000000000000000000000000000000000000000000000000000000000000000000000000000000000000000000000000000000000000000000000000000000000000000000000000000000000000000000000000000000000000000000000000000000000000000000000000000000
310
00000000000000000000000000000000000000000000000000000000000000000000000000000000000000000000000000000000000000000000000000000007070000000000000000000000000000000000000000000000000000000000000000000000000000000000000000000000000000000000000000000000000000
310
00000000000000000000000000000000000000000000000000000000000000000000000000000000000000000000000000000000000000000000000000000000000000000000000000000000000000000000000000000000000000000000000000000000000000000000000000000000000000000707000000000000000000
310
00000000000000000000000000000000000000000000000000000000000000000000000000000000000000000000000000000000000000000000000000000000000000000000000000000000000000000000000000000000000000000000000000000000000000000000000000000000000000000000000000000000000000
310
00000000000000000000000000000000000000000000000000000000000000000000000000000000000007070000000000000000000000000000000000000000000000000000000000000000000000000000000000000000000000000000000000000000000000000000000000000000000000000000000000000000000000
310
00000000000000000000000000000000000000000000000000000000000000000000000000000000000000000000000000000000000000000000000000000000000000000000000000000000000000000000000000000000000000000000000707000000000000000000000000000000000000000000000000000000000000
310
00000000000000000000000000000000000000000000000000000000000000000000000000000000000000000000000000000000000000000000000000000000000000000000000000000000000000000000000000000000000000000000000000000000000000000000000000000000000000000000000000000000000000
310
00000000000000000000000000000000000000000007070000000000000000000000000000000000000000000000000000000000000000000000000000000000000000000000000000000000000000000000000000000000000000000000000000000000000000000000000000000000000000000000000000000000000000
310
00000000000000000000000000000000000000000000000000000000000000000000000000000000000000000000000000000000000000000000000000000000000000000000000000000707000000000000000000000000000000000000000000000000000000000000000000000000000000000000000000000000000000
310
00000000000000000000000000000000000000000000000000000000000000000000000000000000000000000000000000000000000000000000000000000000000000000000000000000000000000000000000000000000000000000000000000000000000000000000000000000000000000000000000000000000000000
310
07070000000000000000000000000000000000000000000000000000000000000000000000000000000000000000000000000000000000000000000000000000000000000000000000000000000000000000000000000000000000000000000000000000000000000000000000000000000000000000000000000000000000
310
00000000000000000000000000000000000000000000000000000000000000000000000000000000000000000000000000070700000707000000000000000000000000000000000000000000000000000000000000000000000000000000000000000000000000000000000000000000000000000000000000000000000000
310
00000000000000000000000000000000000000000000000000000000000000000000000000000000000000000000000000000000000000000000000000000000000000000000000000000000000000000000000000000000000000000000000000000000000007070000070700000000000000000000000000000000000000
310
00000000000000000000000000000000000000000000000000000000000000000000000000000000000000000000000000000000000000000000000000000000000000000000000000000000000000000000000000000000000000000000000000000000000000000000000000000000000000000000000000000000000000
310
00000000000000000000000000000000000000000000000000000000000700000707000000000000000000000000000000000000000000000000000000000000000000000000000000000000000000000000000000000000000000000000000000000000000000000000000000000000000000000000000000000000000000
310
00000000000000000000000000000000000000000000000000000000000000000000000000000000000000000000000000000000000000000000000000000000000000000000000000000000000000000000070707070707070700000000000000000000000000000000000000000000000000000000000000000000000000
310
00000000000000000000000000000000000000000000000000000000000000000000000000000000000000000000000000000000000000000000000000000000000000000000000000000000000000000000000000000000000000000000000000000000000000000000000000000000000000000000000000000000000000
310
00000000000000000707070707070707000000000000000000000000000000000000000000000000000000000000000000000000000000000000000000000000000000000000000000000000000000000000000000000000000000000000000000000000000000000000000000000000000000000000000000000000000000
310
00000000000000000000000000000000000000000000000000000000000000000000000000000000000000000000000000000000000000000000000000070707070707070700000000000000000000000000000000000000000000000000000000000000000000000000000000000000000000000000000000000000000000
310
00000000000000000000000000000000000000000000000000000000000000000000000000000000000000000000000000000000000000000000000000000000000000000000000000000000000000000000000000000000000000000000000000000000000000000000000000000000000000000007070007070000000000
310
00000000000000000000000000000000000000000000000000000000000000000000000000000000000000000000000000000000000000000000000000000000000000000000000000000000000000000000000000000000000000000000000000000000000000000000000000000000000000000000000000000000000000
310
00000000000000000000000000000000000000000000000000000000000000000000000000000000000000070700000000000000000000000000000000000000000000000000000000000000000000000000000000000000000000000000000000000000000000000000000000000000000000000000000000000000000000
310
00000000000000000000000000000000000000000000000000000000000000000000000000000000000000000000000000000000000000000000000000000000000000000000000000000000000000000000000000000000000000000000000007070000000000000000000000000000000000000000000000000000000000
310
00000000000000000000000000000000000000000000000000000000000000000000000000000000000000000000000000000000000000000000000000000000000000000000000000000000000000000000000000000000000000000000000000000000000000000000000000000000000000000000000000000000000000
310
00000000000000000000000000000000000000000000070700000000000000000000000000000000000000000000000000000000000000000000000000000000000000000000000000000000000000000000000000000000000000000000000000000000000000000000000000000000000000000000000000000000000000
310
00000000000000000000000000000000000000000000000000000000000000000000000000000000000000000000000000000000000000000000000000000000000000000000000000000007070000000000000000000000000000000000000000000000000000000000000000000000000000000000000000000000000000
310
00000000000000000000000000000000000000000000000000000000000000000000000000000000000000000000000000000000000000000000000000000000000000000000000000000000000000000000000000000000000000000000000000000000000000000000000000000000000000000000000000000000000000
310
00070700000000000000000000000000000000000000000000000000000000000000000000000000000000000000000000000000000000000000000000000000000000000000000000000000000000000000000000000000000000000000000000000000000000000000000000000000000000000000000000000000000000
310
00000000000000000000000000000000000000000000000000000000000000000000000000000000000000000000000000000000000007070000000000000000000000000000000000000000000000000000000000000000000000000000000000000000000000000000000000000000000000000000000000000000000000
310
00000000000000000000000000000000000000000000000000000000000000000000000000000000000000000000000000000000000000000000000000000000000000000000000000000000000000000000000000000000000000000000000000000000000000000000000700000000000000000000000000000000000000
310
00000000000000000000000000000000000000000000000000000000000000000000000000000000000000000000000000000000000000000000000000000000000000000000000000000000000000000000000000000000000000000000000000000000000000000000000000000000000000000000000000000000000000
310
00000000000000000000000000000000000000000000000000000000000000000007070000000000000000000000000000000000000000000000000000000000000000000000000000000000000000000000000000000000000000000000000000000000000000000000000000000000000000000000000000000000000000
310
00000000000000000000000000000000000000000000000000000000000000000000000000000000000000000000000000000000000000000000000000000000000000000000000000000000000000000000000000000707000000000000000000000000000000000000000000000000000000000000000000000000000000
310
00000000000000000000000000000000000000000000000000000000000000000000000000000000000000000000000000000000000000000000000000000000000000000000000000000000000000000000000000000000000000000000000000000000000000000000000000000000000000000000000000000000000000
310
00000000000000000000000007070000000000000000000000000000000000000000000000000000000000000000000000000000000000000000000000000000000000000000000000000000000000000000000000000000000000000000000000000000000000000000000000000000000000000000000000000000000000
310
00000000000000000000000000000000000000000000000000000000000000000000000000000000000000000000000000000000000000000000000000000000000707000000000000000000000000000000000000000000000000000000000000000000000000000000000000000000000000000000000000000000000000
310
00000000000000000000000000000000000000000000000000000000000000000000000000000000000000000000000000000000000000000000000000000000000000000000000000000000000000000000000000000000000000000000000000000000000000000000000000000000000000000000070700000000000000
310
00000000000000000000000000000000000000000000000000000000000000000000000000000000000000000000000000000000000000000000000000000000000000000000000000000000000000000000000000000000000000000000000000000000000000000000000000000000000000000000000000000000000000
310
00000000000000000000000000000000000000000000000000000000000000000000000000000000000000000707000000000000000000000000000000000000000000000000000000000000000000000000000000000000000000000000000000000000000000000000000000000000000000000000000000000000000000
310
00000000000000000000000000000000000000000000000000000000000000000000000000000000000000000000000000000000000000000000000000000000000000000000000000000000000000000000000000000000000000000000000000070700000000000000000000000000000000000000000000000000000000
310
00000000000000000000000000000000000000000000000000000000000000000000000000000000000000000000000000000000000000000000000000000000000000000000000000000000000000000000000000000000000000000000000000000000000000000000000000000000000000000000000000000000000000
310
00000000000000000000000000000000000000000000000707000000000000000000000000000000000000000000000000000000000000000000000000000000000000000000000000000000000000000000000000000000000000000000000000000000000000000000000000000000000000000000000000000000000000
310
00000000000000000000000000000000000000000000000000000000000000000000000000000000000000000000000000000000000000000000000000000000000000000000000000000000070700000000000000000000000000000000000000000000000000000000000000000000000000000000000000000000000000
310
00000000000000000000000000000000000000000000000000000000000000000000000000000000000000000000000000000000000000000000000000000000000000000000000000000000000000000000000000000000000000000000000000000000000000000000000000000000000000000000000000000000000000
310
00000707000000000000000000000000000000000000000000000000000000000000000000000000000000000000000000000000000000000000000000000000000000000000000000000000000000000000000000000000000000000000000000000000000000000000000000000000000000000000000000000000000000
310
00000000000000000000000000000000000000000000000000000000000000000000000000000000000000000000000000000000000000070700000000000000000000000000000000000000000000000000000000000000000000000000000000000000000000000000000000000000000000000000000000000000000000
310
00000000000000000000000000000000000000000000000000000000000000000000000000000000000000000000000000000000000000000000000000000000000000000000000000000000000000000000000000000000000000000000000000000000000000000000000007070700000000000000000000000000000000
310
00000000000000000000000000000000000000000000000000000000000000000000000000000000000000000000000000000000000000000000000000000000000000000000000000000000000000000000000000000000000000000000000000000000000000000000000000000000000000000000000000000000000000
310
00000000000000000000000000000000000000000000000000000000000000000000070000000000000000000000000000000000000000000000000000000000000000000000000000000000000000000000000000000000000000000000000000000000000000000000000000000000000000000000000000000000000000
310
00000000000000000000000000000000000000000000000000000000000000000000000000000000000000000000000000000000000000000000000000000000000000000000000000000000000000000000000000000007070000000000000000000000000000000000000000000000000000000000000000000000000000
310
00000000000000000000000000000000000000000000000000000000000000000000000000000000000000000000000000000000000000000000000000000000000000000000000000000000000000000000000000000000000000000000000000000000000000000000000000000000000000000000000000000000000000
310
00000000000000000000000000070700000000000000000000000000000000000000000000000000000000000000000000000000000000000000000000000000000000000000000000000000000000000000000000000000000000000000000000000000000000000000000000000000000000000000000000000000000000
310
00000000000000000000000000000000000000000000000000000000000000000000000000000000000000000000000000000000000000000000000000000000000007070000000000000000000000000000000000000000000000000000000000000000000000000000000000000000000000000000000000000000000000
310
00000000000000000000000000000000000000000000000000000000000000000000000000000000000000000000000000000000000000000000000000000000000000000000000000000000000000000000000000000000000000000000000000000000000000000000000000000000000000000000000707000000000000
310
00000000000000000000000000000000000000000000000000000000000000000000000000000000000000000000000000000000000000000000000000000000000000000000000000000000000000000000000000000000000000000000000000000000000000000000000000000000000000000000000000000000000000
310
00000000000000000000000000000000000000000000000000000000000000000000000000000000000000000007070000000000000000000000000000000000000000000000000000000000000000000000000000000000000000000000000000000000000000000000000000000000000000000000000000000000000000
310
00000000000000000000000000000000000000000000000000000000000000000000000000000000000000000000000000000000000000000000000000000000000000000000000000000000000000000000000000000000000000000000000000000707000000000000000000000000000000000000000000000000000000
310
00000000000000000000000000000000000000000000000000000000000000000000000000000000000000000000000000000000000000000000000000000000000000000000000000000000000000000000000000000000000000000000000000000000000000000000000000000000000000000000000000000000000000
310
00000000000000000000000000000000000000000000000007070000000000000000000000000000000000000000000000000000000000000000000000000000000000000000000000000000000000000000000000000000000000000000000000000000000000000000000000000000000000000000000000000000000000
310
00000000000000000000000000000000000000000000000000000000000000000000000000000000000000000000000000000000000000000000000000000000000000000000000000000000070007000000000000000000000000000000000000000000000000000000000000000000000000000000000000000000000000
310
00000000000000000000000000000000000000000000000000000000000000000000000000000000000000000000000000000000000000000000000000000000000000000000000000000000000000000000000000000000000000000000000000000000000000000000000000000000000000000000000000000000000000
310
00070707070000000000000000000000000000000000000000000000000000000000000000000000000000000000000000000000000000000000000000000000000000000000000000000000000000000000000000000000000000000000000000000000000000000000000000000000000000000000000000000000000000
310
00000000000000000000000000000000000000000000000000000000000000000000000000000000000000000000000000000000000707070707000000000000000000000000000000000000000000000000000000000000000000000000000000000000000000000000000000000000000000000000000000000000000000
310
00000000000000000000000000000000000000000000000000000000000000000000000000000000000000000000000000000000000000000000000000000000000000000000000000000000000000000000000000000000000000000000000000000000000000000000070007070700000000000000000000000000000000
310
00000000000000000000000000000000000000000000000000000000000000000000000000000000000000000000000000000000000000000000000000000000000000000000000000000000000000000000000000000000000000000000000000000000000000000000000000000000000000000000000000000000000000
310
00000000000000000000000000000000000000000000000000000000000000070007000707000000000000000000000000000000000000000000000000000000000000000000000000000000000000000000000000000000000000000000000000000000000000000000000000000000000000000000000000000000000000
310
00000000000000000000000000000000000000000000000000000000000000000000000000000000000000000000000000000000000000000000000000000000000000000000000000000000000000000000000707070000070700000000000000000000000000000000000000000000000000000000000000000000000000
310
00000000000000000000000000000000000000000000000000000000000000000000000000000000000000000000000000000000000000000000000000000000000000000000000000000000000000000000000000000000000000000000000000000000000000000000000000000000000000000000000000000000000000
310
00000000000000070707070000000707000000000000000000000000000000000000000000000000000000000000000000000000000000000000000000000000000000000000000000000000000000000000000000000000000000000000000000000000000000000000000000000000000000000000000000000000000000
310
00000000000000000000000000000000000000000000000000000000000000000000000000000000000000000000000000000000000000000000000707070707000000070700000000000000000000000000000000000000000000000000000000000000000000000000000000000000000000000000000000000000000000
310
00000000000000000000000000000000000000000000000000000000000000000000000000000000000000000000000000000000000000000000000000000000000000000000000000000000000000000000000000000000000000000000000000000000000000000000000000000707070007000000000007070000000000
310
00000000000000000000000000000000000000000000000000000000000000000000000000000000000000000000000000000000000000000000000000000000000000000000000000000000000000000000000000000000000000000000000000000000000000000000000000000000000000000000000000000000000000
310
00000000000000000000000000000000000000000000000000000000000000000000000007070707000000000000070700000000000000000000000000000000000000000000000000000000000000000000000000000000000000000000000000000000000000000000000000000000000000000000000000000000000000
310
00000000000000000000000000000000000000000000000000000000000000000000000000000000000000000000000000000000000000000000000000000000000000000000000000000000000000000000000000000000000707070000000000000007070000000000000000000000000000000000000000000000000000
310
00000000000000000000000000000000000000000000000000000000000000000000000000000000000000000000000000000000000000000000000000000000000000000000000000000000000000000000000000000000000000000000000000000000000000000000000000000000000000000000000000000000000000
310
00000000000000000000000000000000000000000000000000070700000000000000000000000000000000000000000000000000000000000000000000000000000000000000000000000000000000000000000000000000000000000000000000000000000000000000000000000000000000000000000000000000000000
310
00000000000000000000000000000000000000000000000000000000000000000000000000000000000000000000000000000000000000000000000000000000000000000000000000000000000007070000000000000000000000000000000000000000000000000000000000000000000000000000000000000000000000
310
00000000000000000000000000000000000000000000000000000000000000000000000000000000000000000000000000000000000000000000000000000000000000000000000000000000000000000000000000000000000000000000000000000000000000000000000000000000000000000000000000000000000000
310
00000000070700000000000000000000000000000000000000000000000000000000000000000000000000000000000000000000000000000000000000000000000000000000000000000000000000000000000000000000000000000000000000000000000000000000000000000000000000000000000000000000000000
310
00000000000000000000000000000000000000000000000000000000000000000000000000000000000000000000000000000000000000000007070000000000000000000000000000000000000000000000000000000000000000000000000000000000000000000000000000000000000000000000000000000000000000
310
00000000000000000000000000000000000000000000000000000000000000000000000000000000000000000000000000000000000000000000000000000000000000000000000000000000000000000000000000000000000000000000000000000000000000000000000000000707000000000000000000000000000000
310
00000000000000000000000000000000000000000000000000000000000000000000000000000000000000000000000000000000000000000000000000000000000000000000000000000000000000000000000000000000000000000000000000000000000000000000000000000000000000000000000000000000000000
310
00000000000000000000000000000000000000000000000000000000000000000000000007070000000000000000000000000000000000000000000000000000000000000000000000000000000000000000000000000000000000000000000000000000000000000000000000000000000000000000000000000000000000
310
00000000000000000000000000000000000000000000000000000000000000000000000000000000000000000000000000000000000000000000000000000000000000000000000000000000000000000000000000000000000707000000000000000000000000000000000000000000000000000000000000000000000000
310
00000000000000000000000000000000000000000000000000000000000000000000000000000000000000000000000000000000000000000000000000000000000000000000000000000000000000000000000000000000000000000000000000000000000000000000000000000000000000000000000000000000000000
310
00000000000000000000000000000007070000000000000000000000000000000000000000000000000000000000000000000000000000000000000000000000000000000000000000000000000000000000000000000000000000000000000000000000000000000000000000000000000000000000000000000000000000
310
00000000000000000000000000000000000000000000000000000000000000000000000000000000000000000000000000000000000000000000000000000000000000000707000000000000000000000000000000000000000000000000000000000000000000000000000000000000000000000000000000000000000000
310
00000000000000000000000000000000000000000000000000000000000000000000000000000000000000000000000000000000000000000000000000000000000000000000000000000000000000000000000000000000000000000000000000000000000000000000000000000000000000000000000000070700000000
310
00000000000000000000000000000000000000000000000000000000000000000000000000000000000000000000000000000000000000000000000000000000000000000000000000000000000000000000000000000000000000000000000000000000000000000000000000000000000000000000000000000000000000
310
00000000000000000000000000000000000000000000000000000000000000000000000000000000000000000000000707000707000000000000000000000000000000000000000000000000000000000000000000000000000000000000000000000000000000000000000000000000000000000000000000000000000000
310
00000000000000000000000000000000000000000000000000000000000000000000000000000000000000000000000000000000000000000000000000000000000000000000000000000000000000000000000000000000000000000000000000000000070707070700000000000000000000000000000000000000000000
310
00000000000000000000000000000000000000000000000000000000000000000000000000000000000000000000000000000000000000000000000000000000000000000000000000000000000000000000000000000000000000000000000000000000000000000000000000000000000000000000000000000000000000
310
00000000000000000000000000070707000000000000000000000707070707000000000000000000000000000000000000000000000000000000000000000000000000000000000000000000000000000000000000000000000000000000000000000000000000000000000000000000000000000000000000000000000000
310
00000000000000000000000000000000000000000000000000000000000000000000000000000000000000000000000000000000000000000000000000000000070700070700000000000000000000070700070700000000000000000000000000000000000000000000000000000000000000000000000000000000000000
310
00000000000000000000000000000000000000000000000000000000000000000000000000000000000000000000000000000000000000000000000000000000000000000000000000000000000000000000000000000000000000000000000000000000000000000000000000000000000007070707070700000000000000
310
00000000000707000000000000000000000000000000000000000000000000000000000000000000000000000000000000000000000000000000000000000000000000000000000000000000000000000000000000000000000000000000000000000000000000000000000000000000000000000000000000000000000000
310
00000000000000000000000000000000000000000000000000000000000000000000000000000707000707070000000000000000000000000000070700000000000000000000000000000000000000000000000000000000000000000000000000000000000000000000000000000000000000000000000000000000000000
310
00000000000000000000000000000000000000000000000000000000000000000000000000000000000000000000000000000000000000000000000000000000000000000000000000000000000000000000000000000000000707070707070707000000000000000000000000000007070000000000000000000000000000
310
00000000000000000000000000000000000000000000000000000000000000000000000000000000000000000000000000000000000000000000000000000000000000000000000000000000000000000000000000000000000000000000000000000000000000000000000000000000000000000000000000000000000000
310
00000000000000000000000000000000070000000707070000000000000000000000070707070700000000000000000000000000000000000000000000000000000000000000000000000000000000000000000000000000000000000000000000000000000000000000000000000000000000000000000000000000000000
310
00000000000000000000000000000000000000000000000000000000000000000000000000000000000000000000000000000000000000000000000000000000000000000000000000000707000000000007070707070707070707000000000000000000000000000000000000000000000000000000000000000000000000
310
00000000000000000000000000000000000000000000000000000000000000000000000000000000000000000000000000000000000000000000000000000000000000000000000000000000000000000000000000000000000000000000000000000000000000000000000000000000000000000000000000000000000000
310
07070707070707070707070707000000000000000000000000000000000000000000000000000000000000000000000000000000000000000000000000000000000000000000000000000000000000000000000000000000000000000000000000000000000000000000000000000000000000000000000000000000000000
310
00000000000000000000000000000000000000000000000000000000000000000000000000000000000000000000000000000000000007070707070700000000000000000000000000000000000000000000000000000000000000000000000000000000000000000000000000000000000000000000000000000000000000
310
00000000000000000000000000000000000000000000000000000000000000000000000000000000000000000000000000000000000000000000000000000000000000000000000000000000000000000000000000000000000000000000000000000000000000000000000000000000000000000000000000000000000000
310
00000000000000000000000000000000000000000000000000000000000000000000000000000000000000000000000000000000000000000000000000000000000000000000000000000000000000000000000000000000000000000000000000000000000000000000000000000000000000000000000000000000000000
310
00000000000000000000000000000000000000000000000000000000000000000000000000000000000000000000000000000000000000000000000000000000000000000000000000000000000000000000000000000000000000000000000000000000000000000000000000000000000000000000000000000000000000
310
00000000000000000000000000000000000000000000000000000000000000000000000000000000000000000000000000000000000000000000000000000000000000000000000000000000000000000000000000000000000000000000000000000000000000000000000000000000000000000000000000000000000000
310
00000000000000000000000000000000000000000000000000000000000000000000000000000000000000000000000000000000000000000000000000000000000000000000000000000000000000000000000000000000000000000000000000000000000000000000000000000000000000000000000000000000000000
310
000000000000000000000000000000000000000000000000000000000000000000000000000000000000000000000000000000000000000000000000000000000000000000000000000000000000000000000000000000000000000000000000000000000000000000000000
  0
ENDSEC
  0
EOF
