  0
SECTION
  2
HEADER
  9
$ACADVER
  1
AC1015
  9
$ACADMAINTVER
 70
    13
  9
$DWGCODEPAGE
  3
ANSI_1252
  9
$INSBASE
 10
0.0
 20
0.0
 30
0.0
  9
$EXTMIN
 10
0.0
 20
0.0000000000000024
 30
0.0
  9
$EXTMAX
 10
765.0
 20
80.0
 30
0.0
  9
$LIMMIN
 10
0.0
 20
0.0
  9
$LIMMAX
 10
12.0
 20
9.0
  9
$ORTHOMODE
 70
     0
  9
$REGENMODE
 70
     1
  9
$FILLMODE
 70
     1
  9
$QTEXTMODE
 70
     0
  9
$MIRRTEXT
 70
     1
  9
$LTSCALE
 40
1.0
  9
$ATTMODE
 70
     1
  9
$TEXTSIZE
 40
0.2
  9
$TRACEWID
 40
0.05
  9
$TEXTSTYLE
  7
Standard
  9
$CLAYER
  8
0
  9
$CELTYPE
  6
Continuous
  9
$CECOLOR
 62
   256
  9
$CELTSCALE
 40
1.0
  9
$DISPSILH
 70
     0
  9
$DIMSCALE
 40
1.0
  9
$DIMASZ
 40
0.18
  9
$DIMEXO
 40
0.0625
  9
$DIMDLI
 40
0.38
  9
$DIMRND
 40
0.0
  9
$DIMDLE
 40
0.0
  9
$DIMEXE
 40
0.18
  9
$DIMTP
 40
0.0
  9
$DIMTM
 40
0.0
  9
$DIMTXT
 40
0.18
  9
$DIMCEN
 40
0.09
  9
$DIMTSZ
 40
0.0
  9
$DIMTOL
 70
     0
  9
$DIMLIM
 70
     0
  9
$DIMTIH
 70
     1
  9
$DIMTOH
 70
     1
  9
$DIMSE1
 70
     0
  9
$DIMSE2
 70
     0
  9
$DIMTAD
 70
     0
  9
$DIMZIN
 70
     0
  9
$DIMBLK
  1

  9
$DIMASO
 70
     1
  9
$DIMSHO
 70
     1
  9
$DIMPOST
  1

  9
$DIMAPOST
  1

  9
$DIMALT
 70
     0
  9
$DIMALTD
 70
     2
  9
$DIMALTF
 40
25.4
  9
$DIMLFAC
 40
1.0
  9
$DIMTOFL
 70
     0
  9
$DIMTVP
 40
0.0
  9
$DIMTIX
 70
     0
  9
$DIMSOXD
 70
     0
  9
$DIMSAH
 70
     0
  9
$DIMBLK1
  1

  9
$DIMBLK2
  1

  9
$DIMSTYLE
  2
Standard
  9
$DIMCLRD
 70
     0
  9
$DIMCLRE
 70
     0
  9
$DIMCLRT
 70
     0
  9
$DIMTFAC
 40
1.0
  9
$DIMGAP
 40
0.09
  9
$DIMJUST
 70
     0
  9
$DIMSD1
 70
     0
  9
$DIMSD2
 70
     0
  9
$DIMTOLJ
 70
     1
  9
$DIMTZIN
 70
     0
  9
$DIMALTZ
 70
     0
  9
$DIMALTTZ
 70
     0
  9
$DIMUPT
 70
     0
  9
$DIMDEC
 70
     4
  9
$DIMTDEC
 70
     4
  9
$DIMALTU
 70
     2
  9
$DIMALTTD
 70
     2
  9
$DIMTXSTY
  7
Standard
  9
$DIMAUNIT
 70
     0
  9
$DIMADEC
 70
     0
  9
$DIMALTRND
 40
0.0
  9
$DIMAZIN
 70
     0
  9
$DIMDSEP
 70
    46
  9
$DIMATFIT
 70
     3
  9
$DIMFRAC
 70
     0
  9
$DIMLDRBLK
  1

  9
$DIMLUNIT
 70
     2
  9
$DIMLWD
 70
    -2
  9
$DIMLWE
 70
    -2
  9
$DIMTMOVE
 70
     0
  9
$LUNITS
 70
     2
  9
$LUPREC
 70
     4
  9
$SKETCHINC
 40
0.1
  9
$FILLETRAD
 40
0.0
  9
$AUNITS
 70
     0
  9
$AUPREC
 70
     0
  9
$MENU
  1
.
  9
$ELEVATION
 40
0.0
  9
$PELEVATION
 40
0.0
  9
$THICKNESS
 40
0.0
  9
$LIMCHECK
 70
     0
  9
$CHAMFERA
 40
0.0
  9
$CHAMFERB
 40
0.0
  9
$CHAMFERC
 40
0.0
  9
$CHAMFERD
 40
0.0
  9
$SKPOLY
 70
     0
  9
$TDCREATE
 40
2454906.873052476
  9
$TDUCREATE
 40
2454906.831385810
  9
$TDUPDATE
 40
2454906.873759756
  9
$TDUUPDATE
 40
2454906.832093090
  9
$TDINDWG
 40
0.0007074653
  9
$TDUSRTIMER
 40
0.0007074653
  9
$USRTIMER
 70
     1
  9
$ANGBASE
 50
0.0
  9
$ANGDIR
 70
     0
  9
$PDMODE
 70
     0
  9
$PDSIZE
 40
0.0
  9
$PLINEWID
 40
0.0
  9
$SPLFRAME
 70
     0
  9
$SPLINETYPE
 70
     6
  9
$SPLINESEGS
 70
     8
  9
$HANDSEED
  5
334
  9
$SURFTAB1
 70
     6
  9
$SURFTAB2
 70
     6
  9
$SURFTYPE
 70
     6
  9
$SURFU
 70
     6
  9
$SURFV
 70
     6
  9
$UCSBASE
  2

  9
$UCSNAME
  2

  9
$UCSORG
 10
0.0
 20
0.0
 30
0.0
  9
$UCSXDIR
 10
1.0
 20
0.0
 30
0.0
  9
$UCSYDIR
 10
0.0
 20
1.0
 30
0.0
  9
$UCSORTHOREF
  2

  9
$UCSORTHOVIEW
 70
     1
  9
$UCSORGTOP
 10
0.0
 20
0.0
 30
0.0
  9
$UCSORGBOTTOM
 10
0.0
 20
0.0
 30
0.0
  9
$UCSORGLEFT
 10
0.0
 20
0.0
 30
0.0
  9
$UCSORGRIGHT
 10
0.0
 20
0.0
 30
0.0
  9
$UCSORGFRONT
 10
0.0
 20
0.0
 30
0.0
  9
$UCSORGBACK
 10
0.0
 20
0.0
 30
0.0
  9
$PUCSBASE
  2

  9
$PUCSNAME
  2

  9
$PUCSORG
 10
0.0
 20
0.0
 30
0.0
  9
$PUCSXDIR
 10
1.0
 20
0.0
 30
0.0
  9
$PUCSYDIR
 10
0.0
 20
1.0
 30
0.0
  9
$PUCSORTHOREF
  2

  9
$PUCSORTHOVIEW
 70
     0
  9
$PUCSORGTOP
 10
0.0
 20
0.0
 30
0.0
  9
$PUCSORGBOTTOM
 10
0.0
 20
0.0
 30
0.0
  9
$PUCSORGLEFT
 10
0.0
 20
0.0
 30
0.0
  9
$PUCSORGRIGHT
 10
0.0
 20
0.0
 30
0.0
  9
$PUCSORGFRONT
 10
0.0
 20
0.0
 30
0.0
  9
$PUCSORGBACK
 10
0.0
 20
0.0
 30
0.0
  9
$USERI1
 70
     0
  9
$USERI2
 70
     0
  9
$USERI3
 70
     0
  9
$USERI4
 70
     0
  9
$USERI5
 70
     0
  9
$USERR1
 40
0.0
  9
$USERR2
 40
0.0
  9
$USERR3
 40
0.0
  9
$USERR4
 40
0.0
  9
$USERR5
 40
0.0
  9
$WORLDVIEW
 70
     1
  9
$SHADEDGE
 70
     3
  9
$SHADEDIF
 70
    70
  9
$TILEMODE
 70
     1
  9
$MAXACTVP
 70
    64
  9
$PINSBASE
 10
0.0
 20
0.0
 30
0.0
  9
$PLIMCHECK
 70
     0
  9
$PEXTMIN
 10
1.000000000000000E+20
 20
1.000000000000000E+20
 30
1.000000000000000E+20
  9
$PEXTMAX
 10
-1.000000000000000E+20
 20
-1.000000000000000E+20
 30
-1.000000000000000E+20
  9
$PLIMMIN
 10
0.0
 20
0.0
  9
$PLIMMAX
 10
12.0
 20
9.0
  9
$UNITMODE
 70
     0
  9
$VISRETAIN
 70
     1
  9
$PLINEGEN
 70
     0
  9
$PSLTSCALE
 70
     1
  9
$TREEDEPTH
 70
  3020
  9
$CMLSTYLE
  2
Standard
  9
$CMLJUST
 70
     0
  9
$CMLSCALE
 40
1.0
  9
$PROXYGRAPHICS
 70
     1
  9
$MEASUREMENT
 70
     0
  9
$CELWEIGHT
370
    -1
  9
$ENDCAPS
280
     0
  9
$JOINSTYLE
280
     0
  9
$LWDISPLAY
290
     0
  9
$INSUNITS
 70
     0
  9
$HYPERLINKBASE
  1

  9
$STYLESHEET
  1

  9
$XEDIT
290
     1
  9
$CEPSNTYPE
380
     0
  9
$PSTYLEMODE
290
     1
  9
$FINGERPRINTGUID
  2
{2F1E98DD-C2D8-4FE8-BF1E-0D346BB85952}
  9
$VERSIONGUID
  2
{8C70E331-A75D-48B7-83CA-1F7A73C0309F}
  9
$EXTNAMES
290
     1
  9
$PSVPSCALE
 40
0.0
  9
$OLESTARTUP
290
     0
  0
ENDSEC
  0
SECTION
  2
CLASSES
  0
CLASS
  1
ACDBDICTIONARYWDFLT
  2
AcDbDictionaryWithDefault
  3
AutoCAD 2000
 90
        0
280
     0
281
     0
  0
CLASS
  1
ACDBPLACEHOLDER
  2
AcDbPlaceHolder
  3
AutoCAD 2000
 90
        0
280
     0
281
     0
  0
CLASS
  1
LAYOUT
  2
AcDbLayout
  3
AutoCAD 2000
 90
        0
280
     0
281
     0
  0
CLASS
  1
DICTIONARYVAR
  2
AcDbDictionaryVar
  3
AutoCAD 2000
 90
        0
280
     0
281
     0
  0
ENDSEC
  0
SECTION
  2
TABLES
  0
TABLE
  2
VPORT
  5
8
330
0
100
AcDbSymbolTable
 70
     2
  0
VPORT
  5
333
330
8
100
AcDbSymbolTableRecord
100
AcDbViewportTableRecord
  2
*Active
 70
     0
 10
0.0
 20
0.0
 11
1.0
 21
1.0
 12
382.5
 22
40.0
 13
0.0
 23
0.0
 14
1.0
 24
1.0
 15
0.0
 25
0.0
 16
0.0
 26
0.0
 36
1.0
 17
0.0
 27
0.0
 37
0.0
 40
389.8905834859988
 41
1.968387776606954
 42
50.0
 43
0.0
 44
0.0
 50
0.0
 51
0.0
 71
     0
 72
   100
 73
     1
 74
     3
 75
     0
 76
     0
 77
     0
 78
     0
281
     0
 65
     1
110
0.0
120
0.0
130
0.0
111
1.0
121
0.0
131
0.0
112
0.0
122
1.0
132
0.0
 79
     1
146
0.0
  0
ENDTAB
  0
TABLE
  2
LTYPE
  5
5
330
0
100
AcDbSymbolTable
 70
     1
  0
LTYPE
  5
13
330
5
100
AcDbSymbolTableRecord
100
AcDbLinetypeTableRecord
  2
ByBlock
 70
     0
  3

 72
    65
 73
     0
 40
0.0
  0
LTYPE
  5
14
330
5
100
AcDbSymbolTableRecord
100
AcDbLinetypeTableRecord
  2
ByLayer
 70
     0
  3

 72
    65
 73
     0
 40
0.0
  0
LTYPE
  5
15
330
5
100
AcDbSymbolTableRecord
100
AcDbLinetypeTableRecord
  2
Continuous
 70
     0
  3
Solid line
 72
    65
 73
     0
 40
0.0
  0
ENDTAB
  0
TABLE
  2
LAYER
  5
2
330
0
100
AcDbSymbolTable
 70
     1
  0
LAYER
  5
10
330
2
100
AcDbSymbolTableRecord
100
AcDbLayerTableRecord
  2
0
 70
     0
 62
     7
  6
Continuous
370
    -3
390
F
  0
ENDTAB
  0
TABLE
  2
STYLE
  5
3
330
0
100
AcDbSymbolTable
 70
     1
  0
STYLE
  5
11
330
3
100
AcDbSymbolTableRecord
100
AcDbTextStyleTableRecord
  2
Standard
 70
     0
 40
0.0
 41
1.0
 50
0.0
 71
     0
 42
0.2
  3
txt
  4

  0
ENDTAB
  0
TABLE
  2
VIEW
  5
6
330
0
100
AcDbSymbolTable
 70
     0
  0
ENDTAB
  0
TABLE
  2
UCS
  5
7
330
0
100
AcDbSymbolTable
 70
     0
  0
ENDTAB
  0
TABLE
  2
APPID
  5
9
330
0
100
AcDbSymbolTable
 70
     1
  0
APPID
  5
12
330
9
100
AcDbSymbolTableRecord
100
AcDbRegAppTableRecord
  2
ACAD
 70
     0
  0
ENDTAB
  0
TABLE
  2
DIMSTYLE
  5
A
330
0
100
AcDbSymbolTable
 70
     1
100
AcDbDimStyleTable
 71
     0
  0
DIMSTYLE
105
244
330
A
100
AcDbSymbolTableRecord
100
AcDbDimStyleTableRecord
  2
Standard
 70
     0
340
11
  0
ENDTAB
  0
TABLE
  2
BLOCK_RECORD
  5
1
330
0
100
AcDbSymbolTable
 70
     0
  0
BLOCK_RECORD
  5
1E
330
1
100
AcDbSymbolTableRecord
100
AcDbBlockTableRecord
  2
*Model_Space
340
21
  0
BLOCK_RECORD
  5
1A
330
1
100
AcDbSymbolTableRecord
100
AcDbBlockTableRecord
  2
*Paper_Space
340
1D
  0
ENDTAB
  0
ENDSEC
  0
SECTION
  2
BLOCKS
  0
BLOCK
  5
1F
330
1E
100
AcDbEntity
  8
0
100
AcDbBlockBegin
  2
*Model_Space
 70
     0
 10
0.0
 20
0.0
 30
0.0
  3
*Model_Space
  1

  0
ENDBLK
  5
20
330
1E
100
AcDbEntity
  8
0
100
AcDbBlockEnd
  0
BLOCK
  5
1B
330
1A
100
AcDbEntity
 67
     1
  8
0
100
AcDbBlockBegin
  2
*Paper_Space
 70
     0
 10
0.0
 20
0.0
 30
0.0
  3
*Paper_Space
  1

  0
ENDBLK
  5
1C
330
1A
100
AcDbEntity
 67
     1
  8
0
100
AcDbBlockEnd
  0
ENDSEC
  0
SECTION
  2
ENTITIES
  0
LINE
  5
22
330
1E
100
AcDbEntity
  8
0
100
AcDbLine
 10
0.0
 20
3.822099999999999
 30
0.0
 11
0.0
 21
2.8338
 31
0.0
  0
LINE
  5
23
330
1E
100
AcDbEntity
  8
0
100
AcDbLine
 10
0.0
 20
3.822099999999999
 30
0.0
 11
0.0
 21
5.3971
 31
0.0
  0
LINE
  5
24
330
1E
100
AcDbEntity
  8
0
100
AcDbLine
 10
0.0
 20
2.8338
 30
0.0
 11
0.0
 21
2.4632
 31
0.0
  0
LINE
  5
25
330
1E
100
AcDbEntity
  8
0
100
AcDbLine
 10
0.0
 20
2.8338
 30
0.0
 11
0.0
 21
3.822099999999999
 31
0.0
  0
LINE
  5
26
330
1E
100
AcDbEntity
  8
0
100
AcDbLine
 10
0.0
 20
2.4632
 30
0.0
 11
0.134615
 21
2.154399999999999
 31
0.0
  0
LINE
  5
27
330
1E
100
AcDbEntity
  8
0
100
AcDbLine
 10
0.0
 20
2.4632
 30
0.0
 11
0.0
 21
2.8338
 31
0.0
  0
LINE
  5
28
330
1E
100
AcDbEntity
  8
0
100
AcDbLine
 10
0.0
 20
5.3971
 30
0.0
 11
0.0
 21
7.497099999999999
 31
0.0
  0
LINE
  5
29
330
1E
100
AcDbEntity
  8
0
100
AcDbLine
 10
0.0
 20
5.3971
 30
0.0
 11
0.0
 21
3.822099999999999
 31
0.0
  0
LINE
  5
2A
330
1E
100
AcDbEntity
  8
0
100
AcDbLine
 10
0.0
 20
7.497099999999999
 30
0.0
 11
0.0
 21
5.3971
 31
0.0
  0
LINE
  5
2B
330
1E
100
AcDbEntity
  8
0
100
AcDbLine
 10
0.0
 20
7.497099999999999
 30
0.0
 11
0.0
 21
9.9059
 31
0.0
  0
LINE
  5
2C
330
1E
100
AcDbEntity
  8
0
100
AcDbLine
 10
0.0
 20
9.9059
 30
0.0
 11
0.0
 21
7.497099999999999
 31
0.0
  0
LINE
  5
2D
330
1E
100
AcDbEntity
  8
0
100
AcDbLine
 10
0.0
 20
9.9059
 30
0.0
 11
0.0
 21
12.5
 31
0.0
  0
LINE
  5
2E
330
1E
100
AcDbEntity
  8
0
100
AcDbLine
 10
0.0
 20
12.5
 30
0.0
 11
0.0
 21
15.09409999999999
 31
0.0
  0
LINE
  5
2F
330
1E
100
AcDbEntity
  8
0
100
AcDbLine
 10
0.0
 20
12.5
 30
0.0
 11
0.0
 21
9.9059
 31
0.0
  0
LINE
  5
30
330
1E
100
AcDbEntity
  8
0
100
AcDbLine
 10
0.0
 20
17.5029
 30
0.0
 11
0.0
 21
15.09409999999999
 31
0.0
  0
LINE
  5
31
330
1E
100
AcDbEntity
  8
0
100
AcDbLine
 10
0.0
 20
17.5029
 30
0.0
 11
0.0
 21
19.6029
 31
0.0
  0
LINE
  5
32
330
1E
100
AcDbEntity
  8
0
100
AcDbLine
 10
0.0
 20
15.09409999999999
 30
0.0
 11
0.0
 21
12.5
 31
0.0
  0
LINE
  5
33
330
1E
100
AcDbEntity
  8
0
100
AcDbLine
 10
0.0
 20
15.09409999999999
 30
0.0
 11
0.0
 21
17.5029
 31
0.0
  0
LINE
  5
34
330
1E
100
AcDbEntity
  8
0
100
AcDbLine
 10
0.0
 20
19.6029
 30
0.0
 11
0.0
 21
21.1779
 31
0.0
  0
LINE
  5
35
330
1E
100
AcDbEntity
  8
0
100
AcDbLine
 10
0.0
 20
19.6029
 30
0.0
 11
0.0
 21
17.5029
 31
0.0
  0
LINE
  5
36
330
1E
100
AcDbEntity
  8
0
100
AcDbLine
 10
0.0
 20
21.1779
 30
0.0
 11
0.0
 21
19.6029
 31
0.0
  0
LINE
  5
37
330
1E
100
AcDbEntity
  8
0
100
AcDbLine
 10
0.0
 20
21.1779
 30
0.0
 11
0.0
 21
22.1662
 31
0.0
  0
LINE
  5
38
330
1E
100
AcDbEntity
  8
0
100
AcDbLine
 10
0.0
 20
22.1662
 30
0.0
 11
0.0
 21
21.1779
 31
0.0
  0
LINE
  5
39
330
1E
100
AcDbEntity
  8
0
100
AcDbLine
 10
0.0
 20
22.1662
 30
0.0
 11
0.0
 21
22.5368
 31
0.0
  0
LINE
  5
3A
330
1E
100
AcDbEntity
  8
0
100
AcDbLine
 10
0.134615
 20
3.544099999999999
 30
0.0
 11
0.134615
 21
5.1809
 31
0.0
  0
LINE
  5
3B
330
1E
100
AcDbEntity
  8
0
100
AcDbLine
 10
0.134615
 20
3.544099999999999
 30
0.0
 11
0.134615
 21
2.524999999999999
 31
0.0
  0
LINE
  5
3C
330
1E
100
AcDbEntity
  8
0
100
AcDbLine
 10
0.134615
 20
2.524999999999999
 30
0.0
 11
0.134615
 21
3.544099999999999
 31
0.0
  0
LINE
  5
3D
330
1E
100
AcDbEntity
  8
0
100
AcDbLine
 10
0.134615
 20
2.524999999999999
 30
0.0
 11
0.134615
 21
2.154399999999999
 31
0.0
  0
LINE
  5
3E
330
1E
100
AcDbEntity
  8
0
100
AcDbLine
 10
0.134615
 20
5.1809
 30
0.0
 11
0.134615
 21
7.3426
 31
0.0
  0
LINE
  5
3F
330
1E
100
AcDbEntity
  8
0
100
AcDbLine
 10
0.134615
 20
5.1809
 30
0.0
 11
0.134615
 21
3.544099999999999
 31
0.0
  0
LINE
  5
40
330
1E
100
AcDbEntity
  8
0
100
AcDbLine
 10
0.134615
 20
2.154399999999999
 30
0.0
 11
0.403846
 21
2.0
 31
0.0
  0
LINE
  5
41
330
1E
100
AcDbEntity
  8
0
100
AcDbLine
 10
0.134615
 20
2.154399999999999
 30
0.0
 11
0.134615
 21
2.524999999999999
 31
0.0
  0
LINE
  5
42
330
1E
100
AcDbEntity
  8
0
100
AcDbLine
 10
0.134615
 20
19.8191
 30
0.0
 11
0.134615
 21
17.6574
 31
0.0
  0
LINE
  5
43
330
1E
100
AcDbEntity
  8
0
100
AcDbLine
 10
0.134615
 20
19.8191
 30
0.0
 11
0.134615
 21
21.45589999999999
 31
0.0
  0
LINE
  5
44
330
1E
100
AcDbEntity
  8
0
100
AcDbLine
 10
0.134615
 20
17.6574
 30
0.0
 11
0.134615
 21
19.8191
 31
0.0
  0
LINE
  5
45
330
1E
100
AcDbEntity
  8
0
100
AcDbLine
 10
0.134615
 20
17.6574
 30
0.0
 11
0.134615
 21
15.1559
 31
0.0
  0
LINE
  5
46
330
1E
100
AcDbEntity
  8
0
100
AcDbLine
 10
0.134615
 20
15.1559
 30
0.0
 11
0.134615
 21
17.6574
 31
0.0
  0
LINE
  5
47
330
1E
100
AcDbEntity
  8
0
100
AcDbLine
 10
0.134615
 20
15.1559
 30
0.0
 11
0.134615
 21
12.5
 31
0.0
  0
LINE
  5
48
330
1E
100
AcDbEntity
  8
0
100
AcDbLine
 10
0.134615
 20
12.5
 30
0.0
 11
0.134615
 21
9.844099999999999
 31
0.0
  0
LINE
  5
49
330
1E
100
AcDbEntity
  8
0
100
AcDbLine
 10
0.134615
 20
12.5
 30
0.0
 11
0.134615
 21
15.1559
 31
0.0
  0
LINE
  5
4A
330
1E
100
AcDbEntity
  8
0
100
AcDbLine
 10
0.134615
 20
7.3426
 30
0.0
 11
0.134615
 21
9.844099999999999
 31
0.0
  0
LINE
  5
4B
330
1E
100
AcDbEntity
  8
0
100
AcDbLine
 10
0.134615
 20
7.3426
 30
0.0
 11
0.134615
 21
5.1809
 31
0.0
  0
LINE
  5
4C
330
1E
100
AcDbEntity
  8
0
100
AcDbLine
 10
0.134615
 20
9.844099999999999
 30
0.0
 11
0.134615
 21
12.5
 31
0.0
  0
LINE
  5
4D
330
1E
100
AcDbEntity
  8
0
100
AcDbLine
 10
0.134615
 20
9.844099999999999
 30
0.0
 11
0.134615
 21
7.3426
 31
0.0
  0
LINE
  5
4E
330
1E
100
AcDbEntity
  8
0
100
AcDbLine
 10
0.403846
 20
2.0
 30
0.0
 11
0.5
 21
2.0
 31
0.0
  0
LINE
  5
4F
330
1E
100
AcDbEntity
  8
0
100
AcDbLine
 10
0.134615
 20
21.45589999999999
 30
0.0
 11
0.134615
 21
22.475
 31
0.0
  0
LINE
  5
50
330
1E
100
AcDbEntity
  8
0
100
AcDbLine
 10
0.134615
 20
21.45589999999999
 30
0.0
 11
0.134615
 21
19.8191
 31
0.0
  0
LINE
  5
51
330
1E
100
AcDbEntity
  8
0
100
AcDbLine
 10
0.134615
 20
22.475
 30
0.0
 11
0.134615
 21
22.8456
 31
0.0
  0
LINE
  5
52
330
1E
100
AcDbEntity
  8
0
100
AcDbLine
 10
0.134615
 20
22.475
 30
0.0
 11
0.134615
 21
21.45589999999999
 31
0.0
  0
LINE
  5
53
330
1E
100
AcDbEntity
  8
0
100
AcDbLine
 10
0.0
 20
22.5368
 30
0.0
 11
0.0
 21
22.1662
 31
0.0
  0
LINE
  5
54
330
1E
100
AcDbEntity
  8
0
100
AcDbLine
 10
0.0
 20
22.5368
 30
0.0
 11
0.134615
 21
22.8456
 31
0.0
  0
LINE
  5
55
330
1E
100
AcDbEntity
  8
0
100
AcDbLine
 10
0.134615
 20
22.8456
 30
0.0
 11
0.403846
 21
23.0
 31
0.0
  0
LINE
  5
56
330
1E
100
AcDbEntity
  8
0
100
AcDbLine
 10
0.134615
 20
22.8456
 30
0.0
 11
0.134615
 21
22.475
 31
0.0
  0
LINE
  5
57
330
1E
100
AcDbEntity
  8
0
100
AcDbLine
 10
0.5
 20
0.5515000000000021
 30
0.0
 11
0.5
 21
2.169099999999999
 31
0.0
  0
LINE
  5
58
330
1E
100
AcDbEntity
  8
0
100
AcDbLine
 10
0.5
 20
2.169099999999999
 30
0.0
 11
0.5
 21
0.5515000000000021
 31
0.0
  0
LINE
  5
59
330
1E
100
AcDbEntity
  8
0
100
AcDbLine
 10
0.5
 20
2.169099999999999
 30
0.0
 11
0.5
 21
4.0441
 31
0.0
  0
LINE
  5
5A
330
1E
100
AcDbEntity
  8
0
100
AcDbLine
 10
0.5
 20
0.5515000000000021
 30
0.0
 11
0.6713750000000001
 21
0.183800000000003
 31
0.0
  0
LINE
  5
5B
330
1E
100
AcDbEntity
  8
0
100
AcDbLine
 10
0.6713750000000001
 20
0.6250000000000029
 30
0.0
 11
0.6713750000000001
 21
0.183800000000002
 31
0.0
  0
LINE
  5
5C
330
1E
100
AcDbEntity
  8
0
100
AcDbLine
 10
0.6713750000000001
 20
0.6250000000000029
 30
0.0
 11
0.6713750000000001
 21
1.8382
 31
0.0
  0
LINE
  5
5D
330
1E
100
AcDbEntity
  8
0
100
AcDbLine
 10
0.5
 20
4.0441
 30
0.0
 11
0.5
 21
6.5441
 31
0.0
  0
LINE
  5
5E
330
1E
100
AcDbEntity
  8
0
100
AcDbLine
 10
0.5
 20
4.0441
 30
0.0
 11
0.5
 21
2.169099999999999
 31
0.0
  0
LINE
  5
5F
330
1E
100
AcDbEntity
  8
0
100
AcDbLine
 10
0.6713750000000001
 20
3.786799999999999
 30
0.0
 11
0.6713750000000001
 21
6.360299999999999
 31
0.0
  0
LINE
  5
60
330
1E
100
AcDbEntity
  8
0
100
AcDbLine
 10
0.6713750000000001
 20
3.786799999999999
 30
0.0
 11
0.6713750000000001
 21
1.8382
 31
0.0
  0
LINE
  5
61
330
1E
100
AcDbEntity
  8
0
100
AcDbLine
 10
0.5
 20
6.5441
 30
0.0
 11
0.5
 21
4.0441
 31
0.0
  0
LINE
  5
62
330
1E
100
AcDbEntity
  8
0
100
AcDbLine
 10
0.5
 20
6.5441
 30
0.0
 11
0.5
 21
9.411799999999999
 31
0.0
  0
LINE
  5
63
330
1E
100
AcDbEntity
  8
0
100
AcDbLine
 10
0.5
 20
9.411799999999999
 30
0.0
 11
0.5
 21
6.5441
 31
0.0
  0
LINE
  5
64
330
1E
100
AcDbEntity
  8
0
100
AcDbLine
 10
0.5
 20
9.411799999999999
 30
0.0
 11
0.5
 21
12.5
 31
0.0
  0
LINE
  5
65
330
1E
100
AcDbEntity
  8
0
100
AcDbLine
 10
0.5
 20
12.5
 30
0.0
 11
0.5
 21
9.411799999999999
 31
0.0
  0
LINE
  5
66
330
1E
100
AcDbEntity
  8
0
100
AcDbLine
 10
0.5
 20
12.5
 30
0.0
 11
0.5
 21
15.5882
 31
0.0
  0
LINE
  5
67
330
1E
100
AcDbEntity
  8
0
100
AcDbLine
 10
0.6713750000000001
 20
6.360299999999999
 30
0.0
 11
0.6713750000000001
 21
3.786799999999999
 31
0.0
  0
LINE
  5
68
330
1E
100
AcDbEntity
  8
0
100
AcDbLine
 10
0.6713750000000001
 20
6.360299999999999
 30
0.0
 11
0.6713750000000001
 21
9.3382
 31
0.0
  0
LINE
  5
69
330
1E
100
AcDbEntity
  8
0
100
AcDbLine
 10
0.6713750000000001
 20
9.3382
 30
0.0
 11
0.6713750000000001
 21
6.360299999999999
 31
0.0
  0
LINE
  5
6A
330
1E
100
AcDbEntity
  8
0
100
AcDbLine
 10
0.6713750000000001
 20
9.3382
 30
0.0
 11
0.6713750000000001
 21
12.5
 31
0.0
  0
LINE
  5
6B
330
1E
100
AcDbEntity
  8
0
100
AcDbLine
 10
0.5
 20
18.45589999999999
 30
0.0
 11
0.5
 21
15.5882
 31
0.0
  0
LINE
  5
6C
330
1E
100
AcDbEntity
  8
0
100
AcDbLine
 10
0.5
 20
18.45589999999999
 30
0.0
 11
0.5
 21
20.9559
 31
0.0
  0
LINE
  5
6D
330
1E
100
AcDbEntity
  8
0
100
AcDbLine
 10
0.5
 20
15.5882
 30
0.0
 11
0.5
 21
12.5
 31
0.0
  0
LINE
  5
6E
330
1E
100
AcDbEntity
  8
0
100
AcDbLine
 10
0.5
 20
15.5882
 30
0.0
 11
0.5
 21
18.45589999999999
 31
0.0
  0
LINE
  5
6F
330
1E
100
AcDbEntity
  8
0
100
AcDbLine
 10
0.5
 20
22.8309
 30
0.0
 11
0.5
 21
20.9559
 31
0.0
  0
LINE
  5
70
330
1E
100
AcDbEntity
  8
0
100
AcDbLine
 10
0.5
 20
22.8309
 30
0.0
 11
0.5
 21
24.0074
 31
0.0
  0
LINE
  5
71
330
1E
100
AcDbEntity
  8
0
100
AcDbLine
 10
0.5
 20
24.0074
 30
0.0
 11
0.5
 21
22.8309
 31
0.0
  0
LINE
  5
72
330
1E
100
AcDbEntity
  8
0
100
AcDbLine
 10
0.5
 20
24.0074
 30
0.0
 11
0.5
 21
24.4485
 31
0.0
  0
LINE
  5
73
330
1E
100
AcDbEntity
  8
0
100
AcDbLine
 10
0.6713750000000001
 20
23.1618
 30
0.0
 11
0.6713750000000001
 21
21.2132
 31
0.0
  0
LINE
  5
74
330
1E
100
AcDbEntity
  8
0
100
AcDbLine
 10
0.6713750000000001
 20
23.1618
 30
0.0
 11
0.6713750000000001
 21
24.375
 31
0.0
  0
LINE
  5
75
330
1E
100
AcDbEntity
  8
0
100
AcDbLine
 10
0.6713750000000001
 20
24.375
 30
0.0
 11
0.6713750000000001
 21
23.1618
 31
0.0
  0
LINE
  5
76
330
1E
100
AcDbEntity
  8
0
100
AcDbLine
 10
0.6713750000000001
 20
24.375
 30
0.0
 11
0.6713750000000001
 21
24.81619999999999
 31
0.0
  0
LINE
  5
77
330
1E
100
AcDbEntity
  8
0
100
AcDbLine
 10
0.5
 20
20.9559
 30
0.0
 11
0.5
 21
18.45589999999999
 31
0.0
  0
LINE
  5
78
330
1E
100
AcDbEntity
  8
0
100
AcDbLine
 10
0.5
 20
20.9559
 30
0.0
 11
0.5
 21
22.8309
 31
0.0
  0
LINE
  5
79
330
1E
100
AcDbEntity
  8
0
100
AcDbLine
 10
0.6713750000000001
 20
21.2132
 30
0.0
 11
0.6713750000000001
 21
18.6397
 31
0.0
  0
LINE
  5
7A
330
1E
100
AcDbEntity
  8
0
100
AcDbLine
 10
0.6713750000000001
 20
21.2132
 30
0.0
 11
0.6713750000000001
 21
23.1618
 31
0.0
  0
LINE
  5
7B
330
1E
100
AcDbEntity
  8
0
100
AcDbLine
 10
0.6713750000000001
 20
18.6397
 30
0.0
 11
0.6713750000000001
 21
15.6618
 31
0.0
  0
LINE
  5
7C
330
1E
100
AcDbEntity
  8
0
100
AcDbLine
 10
0.6713750000000001
 20
18.6397
 30
0.0
 11
0.6713750000000001
 21
21.2132
 31
0.0
  0
LINE
  5
7D
330
1E
100
AcDbEntity
  8
0
100
AcDbLine
 10
0.6713750000000001
 20
15.6618
 30
0.0
 11
0.6713750000000001
 21
12.5
 31
0.0
  0
LINE
  5
7E
330
1E
100
AcDbEntity
  8
0
100
AcDbLine
 10
0.6713750000000001
 20
15.6618
 30
0.0
 11
0.6713750000000001
 21
18.6397
 31
0.0
  0
LINE
  5
7F
330
1E
100
AcDbEntity
  8
0
100
AcDbLine
 10
0.6713750000000001
 20
12.5
 30
0.0
 11
0.6713750000000001
 21
9.3382
 31
0.0
  0
LINE
  5
80
330
1E
100
AcDbEntity
  8
0
100
AcDbLine
 10
0.6713750000000001
 20
12.5
 30
0.0
 11
0.6713750000000001
 21
15.6618
 31
0.0
  0
LINE
  5
81
330
1E
100
AcDbEntity
  8
0
100
AcDbLine
 10
0.6713750000000001
 20
1.8382
 30
0.0
 11
0.6713750000000001
 21
0.6250000000000029
 31
0.0
  0
LINE
  5
82
330
1E
100
AcDbEntity
  8
0
100
AcDbLine
 10
0.6713750000000001
 20
1.8382
 30
0.0
 11
0.6713750000000001
 21
3.786799999999999
 31
0.0
  0
LINE
  5
83
330
1E
100
AcDbEntity
  8
0
100
AcDbLine
 10
0.5
 20
0.5515000000000021
 30
0.0
 11
0.6713750000000001
 21
0.183800000000002
 31
0.0
  0
LINE
  5
84
330
1E
100
AcDbEntity
  8
0
100
AcDbLine
 10
0.6713750000000001
 20
0.183800000000002
 30
0.0
 11
1.01412
 21
0.0000000000000024
 31
0.0
  0
LINE
  5
85
330
1E
100
AcDbEntity
  8
0
100
AcDbLine
 10
0.6713750000000001
 20
0.183800000000002
 30
0.0
 11
1.01412
 21
0.0000000000000024
 31
0.0
  0
LINE
  5
86
330
1E
100
AcDbEntity
  8
0
100
AcDbLine
 10
0.6713750000000001
 20
0.183800000000002
 30
0.0
 11
0.6713750000000001
 21
0.6250000000000029
 31
0.0
  0
LINE
  5
87
330
1E
100
AcDbEntity
  8
0
100
AcDbLine
 10
0.5
 20
24.4485
 30
0.0
 11
0.6713750000000001
 21
24.81619999999999
 31
0.0
  0
LINE
  5
88
330
1E
100
AcDbEntity
  8
0
100
AcDbLine
 10
0.5
 20
24.4485
 30
0.0
 11
0.5
 21
24.0074
 31
0.0
  0
LINE
  5
89
330
1E
100
AcDbEntity
  8
0
100
AcDbLine
 10
1.01412
 20
0.0000000000000024
 30
0.0
 11
382.5
 21
0.0000000000000024
 31
0.0
  0
LINE
  5
8A
330
1E
100
AcDbEntity
  8
0
100
AcDbLine
 10
1.014119999999989
 20
25.0
 30
0.0
 11
72.54730212765959
 21
25.0
 31
0.0
  0
LINE
  5
8B
330
1E
100
AcDbEntity
  8
0
100
AcDbLine
 10
1.014119999999989
 20
0.0000000000000024
 30
0.0
 11
382.5
 21
0.0000000000000024
 31
0.0
  0
LINE
  5
8C
330
1E
100
AcDbEntity
  8
0
100
AcDbLine
 10
0.6713750000000001
 20
24.81619999999999
 30
0.0
 11
1.01412
 21
25.0
 31
0.0
  0
LINE
  5
8D
330
1E
100
AcDbEntity
  8
0
100
AcDbLine
 10
0.6713750000000001
 20
24.81619999999999
 30
0.0
 11
0.6713750000000001
 21
24.375
 31
0.0
  0
LINE
  5
8E
330
1E
100
AcDbEntity
  8
0
100
AcDbLine
 10
1.01412
 20
25.0
 30
0.0
 11
72.54730212765959
 21
25.0
 31
0.0
  0
LINE
  5
8F
330
1E
100
AcDbEntity
  8
0
100
AcDbLine
 10
0.403846
 20
23.0
 30
0.0
 11
0.5
 21
23.0
 31
0.0
  0
LINE
  5
90
330
1E
100
AcDbEntity
  8
0
100
AcDbLine
 10
0.403846
 20
23.0
 30
0.0
 11
0.5
 21
23.0
 31
0.0
  0
LINE
  5
91
330
1E
100
AcDbEntity
  8
0
100
AcDbLine
 10
42.0
 20
80.0
 30
0.0
 11
42.05239999999999
 21
80.0
 31
0.0
  0
LINE
  5
92
330
1E
100
AcDbEntity
  8
0
100
AcDbLine
 10
42.0
 20
80.0
 30
0.0
 11
42.0
 21
65.71429999999999
 31
0.0
  0
LINE
  5
95
330
1E
100
AcDbEntity
  8
0
100
AcDbLine
 10
47.24969999999999
 20
65.0
 30
0.0
 11
48.0578
 21
65.0
 31
0.0
  0
LINE
  5
96
330
1E
100
AcDbEntity
  8
0
100
AcDbLine
 10
48.0578
 20
65.0
 30
0.0
 11
49.0071
 21
65.0
 31
0.0
  0
LINE
  5
97
330
1E
100
AcDbEntity
  8
0
100
AcDbLine
 10
49.0071
 20
65.0
 30
0.0
 11
49.8532
 21
65.0
 31
0.0
  0
LINE
  5
98
330
1E
100
AcDbEntity
  8
0
100
AcDbLine
 10
49.8532
 20
65.0
 30
0.0
 11
51.07079999999999
 21
65.0
 31
0.0
  0
LINE
  5
99
330
1E
100
AcDbEntity
  8
0
100
AcDbLine
 10
51.07079999999999
 20
65.0
 30
0.0
 11
52.4535
 21
65.0
 31
0.0
  0
LINE
  5
9A
330
1E
100
AcDbEntity
  8
0
100
AcDbLine
 10
52.4535
 20
65.0
 30
0.0
 11
54.1847
 21
65.0
 31
0.0
  0
LINE
  5
9B
330
1E
100
AcDbEntity
  8
0
100
AcDbLine
 10
54.1847
 20
65.0
 30
0.0
 11
57.3073
 21
65.0
 31
0.0
  0
LINE
  5
9C
330
1E
100
AcDbEntity
  8
0
100
AcDbLine
 10
57.3073
 20
65.0
 30
0.0
 11
61.2035
 21
65.0
 31
0.0
  0
LINE
  5
9D
330
1E
100
AcDbEntity
  8
0
100
AcDbLine
 10
61.2035
 20
65.0
 30
0.0
 11
66.8956
 21
65.0
 31
0.0
  0
LINE
  5
9E
330
1E
100
AcDbEntity
  8
0
100
AcDbLine
 10
72.54730212765959
 20
25.0
 30
0.0
 11
382.5
 21
25.0
 31
0.0
  0
LINE
  5
9F
330
1E
100
AcDbEntity
  8
0
100
AcDbLine
 10
90.5
 20
25.0
 30
0.0
 11
90.5
 21
65.0
 31
0.0
  0
LINE
  5
A0
330
1E
100
AcDbEntity
  8
0
100
AcDbLine
 10
72.54730212765959
 20
25.0
 30
0.0
 11
382.5
 21
25.0
 31
0.0
  0
LINE
  5
A1
330
1E
100
AcDbEntity
  8
0
100
AcDbLine
 10
73.71769999999999
 20
65.0
 30
0.0
 11
75.1471
 21
65.0
 31
0.0
  0
LINE
  5
A2
330
1E
100
AcDbEntity
  8
0
100
AcDbLine
 10
72.8176
 20
65.0
 30
0.0
 11
73.71769999999999
 21
65.0
 31
0.0
  0
LINE
  5
A3
330
1E
100
AcDbEntity
  8
0
100
AcDbLine
 10
72.5
 20
65.0
 30
0.0
 11
72.5
 21
25.0
 31
0.0
  0
LINE
  5
A4
330
1E
100
AcDbEntity
  8
0
100
AcDbLine
 10
72.5
 20
65.0
 30
0.0
 11
72.8176
 21
65.0
 31
0.0
  0
LINE
  5
A5
330
1E
100
AcDbEntity
  8
0
100
AcDbLine
 10
75.1471
 20
65.0
 30
0.0
 11
77.0265
 21
65.0
 31
0.0
  0
LINE
  5
A6
330
1E
100
AcDbEntity
  8
0
100
AcDbLine
 10
77.0265
 20
65.0
 30
0.0
 11
79.19710000000001
 21
65.0
 31
0.0
  0
LINE
  5
A7
330
1E
100
AcDbEntity
  8
0
100
AcDbLine
 10
79.19710000000001
 20
65.0
 30
0.0
 11
81.5
 21
65.0
 31
0.0
  0
LINE
  5
A8
330
1E
100
AcDbEntity
  8
0
100
AcDbLine
 10
87.85290000000001
 20
65.0
 30
0.0
 11
89.2824
 21
65.0
 31
0.0
  0
LINE
  5
A9
330
1E
100
AcDbEntity
  8
0
100
AcDbLine
 10
89.2824
 20
65.0
 30
0.0
 11
90.1824
 21
65.0
 31
0.0
  0
LINE
  5
AA
330
1E
100
AcDbEntity
  8
0
100
AcDbLine
 10
90.1824
 20
65.0
 30
0.0
 11
90.5
 21
65.0
 31
0.0
  0
LINE
  5
AB
330
1E
100
AcDbEntity
  8
0
100
AcDbLine
 10
85.9735
 20
65.0
 30
0.0
 11
87.85290000000001
 21
65.0
 31
0.0
  0
LINE
  5
AC
330
1E
100
AcDbEntity
  8
0
100
AcDbLine
 10
83.8029
 20
65.0
 30
0.0
 11
85.9735
 21
65.0
 31
0.0
  0
LINE
  5
AD
330
1E
100
AcDbEntity
  8
0
100
AcDbLine
 10
81.5
 20
65.0
 30
0.0
 11
83.8029
 21
65.0
 31
0.0
  0
LINE
  5
AE
330
1E
100
AcDbEntity
  8
0
100
AcDbLine
 10
72.5
 20
25.0
 30
0.0
 11
72.5
 21
65.0
 31
0.0
  0
LINE
  5
AF
330
1E
100
AcDbEntity
  8
0
100
AcDbLine
 10
115.7499999999999
 20
65.0
 30
0.0
 11
116.502
 21
65.0
 31
0.0
  0
LINE
  5
B0
330
1E
100
AcDbEntity
  8
0
100
AcDbLine
 10
116.502
 20
65.0
 30
0.0
 11
117.101
 21
65.0
 31
0.0
  0
LINE
  5
B1
330
1E
100
AcDbEntity
  8
0
100
AcDbLine
 10
117.101
 20
65.0
 30
0.0
 11
117.596
 21
65.0
 31
0.0
  0
LINE
  5
B2
330
1E
100
AcDbEntity
  8
0
100
AcDbLine
 10
117.596
 20
65.0
 30
0.0
 11
118.05
 21
65.0
 31
0.0
  0
LINE
  5
B3
330
1E
100
AcDbEntity
  8
0
100
AcDbLine
 10
118.05
 20
65.0
 30
0.0
 11
118.381
 21
65.0
 31
0.0
  0
LINE
  5
B4
330
1E
100
AcDbEntity
  8
0
100
AcDbLine
 10
118.381
 20
65.0
 30
0.0
 11
118.6739999999999
 21
65.0
 31
0.0
  0
LINE
  5
B5
330
1E
100
AcDbEntity
  8
0
100
AcDbLine
 10
118.6739999999999
 20
65.0
 30
0.0
 11
119.096
 21
65.0
 31
0.0
  0
LINE
  5
B6
330
1E
100
AcDbEntity
  8
0
100
AcDbLine
 10
119.096
 20
65.0
 30
0.0
 11
119.537
 21
65.0
 31
0.0
  0
LINE
  5
B7
330
1E
100
AcDbEntity
  8
0
100
AcDbLine
 10
119.537
 20
65.0
 30
0.0
 11
119.95
 21
65.0
 31
0.0
  0
LINE
  5
B8
330
1E
100
AcDbEntity
  8
0
100
AcDbLine
 10
119.95
 20
65.0
 30
0.0
 11
120.277
 21
65.0
 31
0.0
  0
LINE
  5
15D
330
1E
100
AcDbEntity
  8
0
100
AcDbLine
 10
120.49
 20
65.0
 30
0.0
 11
120.847
 21
65.21429999999999
 31
0.0
  0
LINE
  5
15E
330
1E
100
AcDbEntity
  8
0
100
AcDbLine
 10
120.277
 20
65.0
 30
0.0
 11
120.49
 21
65.0
 31
0.0
  0
LINE
  5
15F
330
1E
100
AcDbEntity
  8
0
100
AcDbLine
 10
114.942
 20
65.0
 30
0.0
 11
115.7499999999999
 21
65.0
 31
0.0
  0
LINE
  5
160
330
1E
100
AcDbEntity
  8
0
100
AcDbLine
 10
113.9929999999999
 20
65.0
 30
0.0
 11
114.942
 21
65.0
 31
0.0
  0
LINE
  5
161
330
1E
100
AcDbEntity
  8
0
100
AcDbLine
 10
113.1469999999999
 20
65.0
 30
0.0
 11
113.9929999999999
 21
65.0
 31
0.0
  0
LINE
  5
162
330
1E
100
AcDbEntity
  8
0
100
AcDbLine
 10
111.929
 20
65.0
 30
0.0
 11
113.1469999999999
 21
65.0
 31
0.0
  0
LINE
  5
163
330
1E
100
AcDbEntity
  8
0
100
AcDbLine
 10
110.547
 20
65.0
 30
0.0
 11
111.929
 21
65.0
 31
0.0
  0
LINE
  5
164
330
1E
100
AcDbEntity
  8
0
100
AcDbLine
 10
108.8149999999999
 20
65.0
 30
0.0
 11
110.547
 21
65.0
 31
0.0
  0
LINE
  5
165
330
1E
100
AcDbEntity
  8
0
100
AcDbLine
 10
105.6929999999999
 20
65.0
 30
0.0
 11
108.8149999999999
 21
65.0
 31
0.0
  0
LINE
  5
166
330
1E
100
AcDbEntity
  8
0
100
AcDbLine
 10
101.797
 20
65.0
 30
0.0
 11
105.6929999999999
 21
65.0
 31
0.0
  0
LINE
  5
167
330
1E
100
AcDbEntity
  8
0
100
AcDbLine
 10
96.1044
 20
65.0
 30
0.0
 11
101.797
 21
65.0
 31
0.0
  0
LINE
  5
168
330
1E
100
AcDbEntity
  8
0
100
AcDbLine
 10
90.5
 20
65.0
 30
0.0
 11
96.1044
 21
65.0
 31
0.0
  0
LINE
  5
169
330
1E
100
AcDbEntity
  8
0
100
AcDbLine
 10
90.5
 20
65.0
 30
0.0
 11
90.5
 21
25.0
 31
0.0
  0
LINE
  5
16A
330
1E
100
AcDbEntity
  8
0
100
AcDbLine
 10
66.8956
 20
65.0
 30
0.0
 11
72.5
 21
65.0
 31
0.0
  0
LINE
  5
16B
330
1E
100
AcDbEntity
  8
0
100
AcDbLine
 10
46.4983
 20
65.0
 30
0.0
 11
47.24969999999999
 21
65.0
 31
0.0
  0
LINE
  5
16C
330
1E
100
AcDbEntity
  8
0
100
AcDbLine
 10
45.8995
 20
65.0
 30
0.0
 11
46.4983
 21
65.0
 31
0.0
  0
LINE
  5
16D
330
1E
100
AcDbEntity
  8
0
100
AcDbLine
 10
45.4039
 20
65.0
 30
0.0
 11
45.8995
 21
65.0
 31
0.0
  0
LINE
  5
16E
330
1E
100
AcDbEntity
  8
0
100
AcDbLine
 10
44.9497
 20
65.0
 30
0.0
 11
45.4039
 21
65.0
 31
0.0
  0
LINE
  5
16F
330
1E
100
AcDbEntity
  8
0
100
AcDbLine
 10
44.6193
 20
65.0
 30
0.0
 11
44.9497
 21
65.0
 31
0.0
  0
LINE
  5
170
330
1E
100
AcDbEntity
  8
0
100
AcDbLine
 10
44.3264
 20
65.0
 30
0.0
 11
44.6193
 21
65.0
 31
0.0
  0
LINE
  5
171
330
1E
100
AcDbEntity
  8
0
100
AcDbLine
 10
43.9035
 20
65.0
 30
0.0
 11
44.3264
 21
65.0
 31
0.0
  0
LINE
  5
172
330
1E
100
AcDbEntity
  8
0
100
AcDbLine
 10
43.463
 20
65.0
 30
0.0
 11
43.9035
 21
65.0
 31
0.0
  0
LINE
  5
173
330
1E
100
AcDbEntity
  8
0
100
AcDbLine
 10
43.0505
 20
65.0
 30
0.0
 11
43.463
 21
65.0
 31
0.0
  0
LINE
  5
174
330
1E
100
AcDbEntity
  8
0
100
AcDbLine
 10
42.72249999999999
 20
65.0
 30
0.0
 11
43.0505
 21
65.0
 31
0.0
  0
LINE
  5
175
330
1E
100
AcDbEntity
  8
0
100
AcDbLine
 10
54.1847
 20
65.0
 30
0.0
 11
57.3073
 21
65.0
 31
0.0
  0
LINE
  5
176
330
1E
100
AcDbEntity
  8
0
100
AcDbLine
 10
105.6929999999999
 20
65.0
 30
0.0
 11
108.8149999999999
 21
65.0
 31
0.0
  0
LINE
  5
177
330
1E
100
AcDbEntity
  8
0
100
AcDbLine
 10
101.797
 20
65.0
 30
0.0
 11
105.6929999999999
 21
65.0
 31
0.0
  0
LINE
  5
178
330
1E
100
AcDbEntity
  8
0
100
AcDbLine
 10
96.1044
 20
65.0
 30
0.0
 11
101.797
 21
65.0
 31
0.0
  0
LINE
  5
179
330
1E
100
AcDbEntity
  8
0
100
AcDbLine
 10
57.3073
 20
65.0
 30
0.0
 11
61.2035
 21
65.0
 31
0.0
  0
LINE
  5
189
330
1E
100
AcDbEntity
  8
0
100
AcDbLine
 10
61.2035
 20
65.0
 30
0.0
 11
66.8956
 21
65.0
 31
0.0
  0
LINE
  5
1A5
330
1E
100
AcDbEntity
  8
0
100
AcDbLine
 10
120.847
 20
65.21429999999999
 30
0.0
 11
121.0
 21
65.71429999999999
 31
0.0
  0
LINE
  5
1A7
330
1E
100
AcDbEntity
  8
0
100
AcDbLine
 10
42.5097
 20
65.0
 30
0.0
 11
42.72249999999999
 21
65.0
 31
0.0
  0
LINE
  5
1B2
330
1E
100
AcDbEntity
  8
0
100
AcDbLine
 10
46.14869999999999
 20
80.0
 30
0.0
 11
46.8674
 21
80.0
 31
0.0
  0
LINE
  5
1B3
330
1E
100
AcDbEntity
  8
0
100
AcDbLine
 10
45.52529999999999
 20
80.0
 30
0.0
 11
46.14869999999999
 21
80.0
 31
0.0
  0
LINE
  5
1B4
330
1E
100
AcDbEntity
  8
0
100
AcDbLine
 10
45.0215
 20
80.0
 30
0.0
 11
45.52529999999999
 21
80.0
 31
0.0
  0
LINE
  5
1B5
330
1E
100
AcDbEntity
  8
0
100
AcDbLine
 10
44.5262
 20
80.0
 30
0.0
 11
45.0215
 21
80.0
 31
0.0
  0
LINE
  5
1B6
330
1E
100
AcDbEntity
  8
0
100
AcDbLine
 10
44.17609999999999
 20
80.0
 30
0.0
 11
44.5262
 21
80.0
 31
0.0
  0
LINE
  5
1B7
330
1E
100
AcDbEntity
  8
0
100
AcDbLine
 10
43.8565
 20
80.0
 30
0.0
 11
44.17609999999999
 21
80.0
 31
0.0
  0
LINE
  5
1B8
330
1E
100
AcDbEntity
  8
0
100
AcDbLine
 10
43.47529999999999
 20
80.0
 30
0.0
 11
43.8565
 21
80.0
 31
0.0
  0
LINE
  5
1B9
330
1E
100
AcDbEntity
  8
0
100
AcDbLine
 10
43.00869999999999
 20
80.0
 30
0.0
 11
43.47529999999999
 21
80.0
 31
0.0
  0
LINE
  5
1BA
330
1E
100
AcDbEntity
  8
0
100
AcDbLine
 10
42.58
 20
80.0
 30
0.0
 11
43.00869999999999
 21
80.0
 31
0.0
  0
LINE
  5
1BB
330
1E
100
AcDbEntity
  8
0
100
AcDbLine
 10
42.2235
 20
80.0
 30
0.0
 11
42.58
 21
80.0
 31
0.0
  0
LINE
  5
1BC
330
1E
100
AcDbEntity
  8
0
100
AcDbLine
 10
42.05239999999999
 20
80.0
 30
0.0
 11
42.2235
 21
80.0
 31
0.0
  0
LINE
  5
1BD
330
1E
100
AcDbEntity
  8
0
100
AcDbLine
 10
46.8674
 20
80.0
 30
0.0
 11
47.68089999999999
 21
80.0
 31
0.0
  0
LINE
  5
1BE
330
1E
100
AcDbEntity
  8
0
100
AcDbLine
 10
47.68089999999999
 20
80.0
 30
0.0
 11
48.6197
 21
80.0
 31
0.0
  0
LINE
  5
1BF
330
1E
100
AcDbEntity
  8
0
100
AcDbLine
 10
48.6197
 20
80.0
 30
0.0
 11
49.4988
 21
80.0
 31
0.0
  0
LINE
  5
1C0
330
1E
100
AcDbEntity
  8
0
100
AcDbLine
 10
49.4988
 20
80.0
 30
0.0
 11
50.7278
 21
80.0
 31
0.0
  0
LINE
  5
1C1
330
1E
100
AcDbEntity
  8
0
100
AcDbLine
 10
50.7278
 20
80.0
 30
0.0
 11
52.1531
 21
80.0
 31
0.0
  0
LINE
  5
1C2
330
1E
100
AcDbEntity
  8
0
100
AcDbLine
 10
52.1531
 20
80.0
 30
0.0
 11
53.88419999999999
 21
80.0
 31
0.0
  0
LINE
  5
1C3
330
1E
100
AcDbEntity
  8
0
100
AcDbLine
 10
53.88419999999999
 20
80.0
 30
0.0
 11
57.0848
 21
80.0
 31
0.0
  0
LINE
  5
1C4
330
1E
100
AcDbEntity
  8
0
100
AcDbLine
 10
57.0848
 20
80.0
 30
0.0
 11
60.9971
 21
80.0
 31
0.0
  0
LINE
  5
1C5
330
1E
100
AcDbEntity
  8
0
100
AcDbLine
 10
60.9971
 20
80.0
 30
0.0
 11
66.6676
 21
80.0
 31
0.0
  0
LINE
  5
1C6
330
1E
100
AcDbEntity
  8
0
100
AcDbLine
 10
66.6676
 20
80.0
 30
0.0
 11
73.1369
 21
80.0
 31
0.0
  0
LINE
  5
1C7
330
1E
100
AcDbEntity
  8
0
100
AcDbLine
 10
73.1369
 20
80.0
 30
0.0
 11
78.1314
 21
80.0
 31
0.0
  0
LINE
  5
1C8
330
1E
100
AcDbEntity
  8
0
100
AcDbLine
 10
78.1314
 20
80.0
 30
0.0
 11
81.5
 21
80.0
 31
0.0
  0
LINE
  5
1EF
330
1E
100
AcDbEntity
  8
0
100
AcDbLine
 10
115.319
 20
80.0
 30
0.0
 11
116.1329999999999
 21
80.0
 31
0.0
  0
LINE
  5
1F0
330
1E
100
AcDbEntity
  8
0
100
AcDbLine
 10
114.3799999999999
 20
80.0
 30
0.0
 11
115.319
 21
80.0
 31
0.0
  0
LINE
  5
1F1
330
1E
100
AcDbEntity
  8
0
100
AcDbLine
 10
113.501
 20
80.0
 30
0.0
 11
114.3799999999999
 21
80.0
 31
0.0
  0
LINE
  5
1F2
330
1E
100
AcDbEntity
  8
0
100
AcDbLine
 10
112.272
 20
80.0
 30
0.0
 11
113.501
 21
80.0
 31
0.0
  0
LINE
  5
1F3
330
1E
100
AcDbEntity
  8
0
100
AcDbLine
 10
110.847
 20
80.0
 30
0.0
 11
112.272
 21
80.0
 31
0.0
  0
LINE
  5
1F4
330
1E
100
AcDbEntity
  8
0
100
AcDbLine
 10
109.116
 20
80.0
 30
0.0
 11
110.847
 21
80.0
 31
0.0
  0
LINE
  5
1F5
330
1E
100
AcDbEntity
  8
0
100
AcDbLine
 10
105.915
 20
80.0
 30
0.0
 11
109.116
 21
80.0
 31
0.0
  0
LINE
  5
1F6
330
1E
100
AcDbEntity
  8
0
100
AcDbLine
 10
102.0029999999999
 20
80.0
 30
0.0
 11
105.915
 21
80.0
 31
0.0
  0
LINE
  5
1F7
330
1E
100
AcDbEntity
  8
0
100
AcDbLine
 10
96.3324
 20
80.0
 30
0.0
 11
102.0029999999999
 21
80.0
 31
0.0
  0
LINE
  5
1F8
330
1E
100
AcDbEntity
  8
0
100
AcDbLine
 10
89.86310000000001
 20
80.0
 30
0.0
 11
96.3324
 21
80.0
 31
0.0
  0
LINE
  5
1F9
330
1E
100
AcDbEntity
  8
0
100
AcDbLine
 10
84.8686
 20
80.0
 30
0.0
 11
89.86310000000001
 21
80.0
 31
0.0
  0
LINE
  5
1FA
330
1E
100
AcDbEntity
  8
0
100
AcDbLine
 10
81.5
 20
80.0
 30
0.0
 11
84.8686
 21
80.0
 31
0.0
  0
LINE
  5
1FB
330
1E
100
AcDbEntity
  8
0
100
AcDbLine
 10
116.1329999999999
 20
80.0
 30
0.0
 11
116.8509999999999
 21
80.0
 31
0.0
  0
LINE
  5
1FC
330
1E
100
AcDbEntity
  8
0
100
AcDbLine
 10
116.8509999999999
 20
80.0
 30
0.0
 11
117.4749999999999
 21
80.0
 31
0.0
  0
LINE
  5
1FD
330
1E
100
AcDbEntity
  8
0
100
AcDbLine
 10
117.4749999999999
 20
80.0
 30
0.0
 11
117.979
 21
80.0
 31
0.0
  0
LINE
  5
1FE
330
1E
100
AcDbEntity
  8
0
100
AcDbLine
 10
117.979
 20
80.0
 30
0.0
 11
118.4739999999999
 21
80.0
 31
0.0
  0
LINE
  5
1FF
330
1E
100
AcDbEntity
  8
0
100
AcDbLine
 10
118.4739999999999
 20
80.0
 30
0.0
 11
118.8239999999999
 21
80.0
 31
0.0
  0
LINE
  5
200
330
1E
100
AcDbEntity
  8
0
100
AcDbLine
 10
118.8239999999999
 20
80.0
 30
0.0
 11
119.1439999999999
 21
80.0
 31
0.0
  0
LINE
  5
201
330
1E
100
AcDbEntity
  8
0
100
AcDbLine
 10
119.1439999999999
 20
80.0
 30
0.0
 11
119.525
 21
80.0
 31
0.0
  0
LINE
  5
202
330
1E
100
AcDbEntity
  8
0
100
AcDbLine
 10
119.525
 20
80.0
 30
0.0
 11
119.991
 21
80.0
 31
0.0
  0
LINE
  5
203
330
1E
100
AcDbEntity
  8
0
100
AcDbLine
 10
119.991
 20
80.0
 30
0.0
 11
120.4199999999999
 21
80.0
 31
0.0
  0
LINE
  5
204
330
1E
100
AcDbEntity
  8
0
100
AcDbLine
 10
120.4199999999999
 20
80.0
 30
0.0
 11
120.776
 21
80.0
 31
0.0
  0
LINE
  5
205
330
1E
100
AcDbEntity
  8
0
100
AcDbLine
 10
120.776
 20
80.0
 30
0.0
 11
120.9479999999999
 21
80.0
 31
0.0
  0
LINE
  5
23B
330
1E
100
AcDbEntity
  8
0
100
AcDbLine
 10
121.0
 20
65.71429999999999
 30
0.0
 11
121.0
 21
80.0
 31
0.0
  0
LINE
  5
23C
330
1E
100
AcDbEntity
  8
0
100
AcDbLine
 10
121.0
 20
80.0
 30
0.0
 11
121.0
 21
65.71429999999999
 31
0.0
  0
LINE
  5
23D
330
1E
100
AcDbEntity
  8
0
100
AcDbLine
 10
120.9479999999999
 20
80.0
 30
0.0
 11
121.0
 21
80.0
 31
0.0
  0
LINE
  5
241
330
1E
100
AcDbEntity
  8
0
100
AcDbLine
 10
42.1529
 20
65.21429999999999
 30
0.0
 11
42.5097
 21
65.0
 31
0.0
  0
LINE
  5
242
330
1E
100
AcDbEntity
  8
0
100
AcDbLine
 10
42.0
 20
65.71429999999999
 30
0.0
 11
42.1529
 21
65.21429999999999
 31
0.0
  0
LINE
  5
243
330
1E
100
AcDbEntity
  8
0
100
AcDbLine
 10
42.0
 20
65.71429999999999
 30
0.0
 11
42.0
 21
80.0
 31
0.0
  0
LINE
  5
248
330
1E
100
AcDbEntity
  8
0
100
AcDbLine
 10
692.4526978723404
 20
25.0
 30
0.0
 11
382.5
 21
25.0
 31
0.0
  0
LINE
  5
249
330
1E
100
AcDbEntity
  8
0
100
AcDbLine
 10
692.4526978723404
 20
25.0
 30
0.0
 11
382.5
 21
25.0
 31
0.0
  0
LINE
  5
24A
330
1E
100
AcDbEntity
  8
0
100
AcDbLine
 10
763.98588
 20
0.0000000000000024
 30
0.0
 11
382.5
 21
0.0000000000000024
 31
0.0
  0
LINE
  5
24B
330
1E
100
AcDbEntity
  8
0
100
AcDbLine
 10
763.9858799999999
 20
0.0000000000000024
 30
0.0
 11
382.5
 21
0.0000000000000024
 31
0.0
  0
LINE
  5
24C
330
1E
100
AcDbEntity
  8
0
100
AcDbLine
 10
674.5
 20
65.0
 30
0.0
 11
674.5
 21
25.0
 31
0.0
  0
LINE
  5
24D
330
1E
100
AcDbEntity
  8
0
100
AcDbLine
 10
692.4999999999999
 20
25.0
 30
0.0
 11
692.4999999999999
 21
65.0
 31
0.0
  0
LINE
  5
24E
330
1E
100
AcDbEntity
  8
0
100
AcDbLine
 10
692.4999999999999
 20
65.0
 30
0.0
 11
692.4999999999999
 21
25.0
 31
0.0
  0
LINE
  5
24F
330
1E
100
AcDbEntity
  8
0
100
AcDbLine
 10
674.5
 20
25.0
 30
0.0
 11
674.5
 21
65.0
 31
0.0
  0
LINE
  5
250
330
1E
100
AcDbEntity
  8
0
100
AcDbLine
 10
764.328625
 20
12.5
 30
0.0
 11
764.328625
 21
15.6618
 31
0.0
  0
LINE
  5
251
330
1E
100
AcDbEntity
  8
0
100
AcDbLine
 10
764.328625
 20
15.6618
 30
0.0
 11
764.328625
 21
12.5
 31
0.0
  0
LINE
  5
252
330
1E
100
AcDbEntity
  8
0
100
AcDbLine
 10
764.5
 20
15.5882
 30
0.0
 11
764.5
 21
12.5
 31
0.0
  0
LINE
  5
253
330
1E
100
AcDbEntity
  8
0
100
AcDbLine
 10
764.5
 20
12.5
 30
0.0
 11
764.5
 21
15.5882
 31
0.0
  0
LINE
  5
254
330
1E
100
AcDbEntity
  8
0
100
AcDbLine
 10
764.8653849999999
 20
12.5
 30
0.0
 11
764.8653849999999
 21
15.1559
 31
0.0
  0
LINE
  5
255
330
1E
100
AcDbEntity
  8
0
100
AcDbLine
 10
764.8653849999999
 20
15.1559
 30
0.0
 11
764.8653849999999
 21
12.5
 31
0.0
  0
LINE
  5
256
330
1E
100
AcDbEntity
  8
0
100
AcDbLine
 10
765.0
 20
15.09409999999999
 30
0.0
 11
765.0
 21
12.5
 31
0.0
  0
LINE
  5
257
330
1E
100
AcDbEntity
  8
0
100
AcDbLine
 10
765.0
 20
12.5
 30
0.0
 11
765.0
 21
15.09409999999999
 31
0.0
  0
LINE
  5
258
330
1E
100
AcDbEntity
  8
0
100
AcDbLine
 10
764.328625
 20
1.8382
 30
0.0
 11
764.328625
 21
3.786799999999999
 31
0.0
  0
LINE
  5
259
330
1E
100
AcDbEntity
  8
0
100
AcDbLine
 10
764.328625
 20
3.786799999999999
 30
0.0
 11
764.328625
 21
1.8382
 31
0.0
  0
LINE
  5
25A
330
1E
100
AcDbEntity
  8
0
100
AcDbLine
 10
764.5
 20
4.0441
 30
0.0
 11
764.5
 21
2.169099999999999
 31
0.0
  0
LINE
  5
25B
330
1E
100
AcDbEntity
  8
0
100
AcDbLine
 10
764.5
 20
2.169099999999999
 30
0.0
 11
764.5
 21
4.0441
 31
0.0
  0
LINE
  5
25C
330
1E
100
AcDbEntity
  8
0
100
AcDbLine
 10
765.0
 20
2.4632
 30
0.0
 11
765.0
 21
2.8338
 31
0.0
  0
LINE
  5
25D
330
1E
100
AcDbEntity
  8
0
100
AcDbLine
 10
765.0
 20
2.8338
 30
0.0
 11
765.0
 21
2.4632
 31
0.0
  0
LINE
  5
25E
330
1E
100
AcDbEntity
  8
0
100
AcDbLine
 10
764.8653849999999
 20
2.154399999999999
 30
0.0
 11
764.8653849999999
 21
2.524999999999999
 31
0.0
  0
LINE
  5
25F
330
1E
100
AcDbEntity
  8
0
100
AcDbLine
 10
764.8653849999999
 20
2.524999999999999
 30
0.0
 11
764.8653849999999
 21
2.154399999999999
 31
0.0
  0
LINE
  5
260
330
1E
100
AcDbEntity
  8
0
100
AcDbLine
 10
764.5
 20
2.169099999999999
 30
0.0
 11
764.5
 21
0.5515000000000021
 31
0.0
  0
LINE
  5
261
330
1E
100
AcDbEntity
  8
0
100
AcDbLine
 10
764.5
 20
0.5515000000000021
 30
0.0
 11
764.5
 21
2.169099999999999
 31
0.0
  0
LINE
  5
262
330
1E
100
AcDbEntity
  8
0
100
AcDbLine
 10
764.328625
 20
1.8382
 30
0.0
 11
764.328625
 21
0.6250000000000029
 31
0.0
  0
LINE
  5
263
330
1E
100
AcDbEntity
  8
0
100
AcDbLine
 10
764.328625
 20
0.6250000000000029
 30
0.0
 11
764.328625
 21
1.8382
 31
0.0
  0
LINE
  5
264
330
1E
100
AcDbEntity
  8
0
100
AcDbLine
 10
764.328625
 20
0.183800000000002
 30
0.0
 11
763.9858799999999
 21
0.0000000000000024
 31
0.0
  0
LINE
  5
265
330
1E
100
AcDbEntity
  8
0
100
AcDbLine
 10
764.328625
 20
0.183800000000002
 30
0.0
 11
763.9858799999999
 21
0.0000000000000024
 31
0.0
  0
LINE
  5
266
330
1E
100
AcDbEntity
  8
0
100
AcDbLine
 10
764.328625
 20
0.183800000000002
 30
0.0
 11
764.328625
 21
0.6250000000000029
 31
0.0
  0
LINE
  5
267
330
1E
100
AcDbEntity
  8
0
100
AcDbLine
 10
764.5
 20
0.5515000000000021
 30
0.0
 11
764.328625
 21
0.183800000000002
 31
0.0
  0
LINE
  5
268
330
1E
100
AcDbEntity
  8
0
100
AcDbLine
 10
764.328625
 20
0.6250000000000029
 30
0.0
 11
764.328625
 21
0.183800000000002
 31
0.0
  0
LINE
  5
269
330
1E
100
AcDbEntity
  8
0
100
AcDbLine
 10
764.5
 20
0.5515000000000021
 30
0.0
 11
764.328625
 21
0.183800000000003
 31
0.0
  0
LINE
  5
26A
330
1E
100
AcDbEntity
  8
0
100
AcDbLine
 10
764.596154
 20
2.0
 30
0.0
 11
764.5
 21
2.0
 31
0.0
  0
LINE
  5
26B
330
1E
100
AcDbEntity
  8
0
100
AcDbLine
 10
765.0
 20
2.4632
 30
0.0
 11
764.8653849999999
 21
2.154399999999999
 31
0.0
  0
LINE
  5
26C
330
1E
100
AcDbEntity
  8
0
100
AcDbLine
 10
764.8653849999999
 20
2.154399999999999
 30
0.0
 11
764.596154
 21
2.0
 31
0.0
  0
LINE
  5
26D
330
1E
100
AcDbEntity
  8
0
100
AcDbLine
 10
764.8653849999999
 20
9.844099999999999
 30
0.0
 11
764.8653849999999
 21
7.3426
 31
0.0
  0
LINE
  5
26E
330
1E
100
AcDbEntity
  8
0
100
AcDbLine
 10
764.8653849999999
 20
7.3426
 30
0.0
 11
764.8653849999999
 21
9.844099999999999
 31
0.0
  0
LINE
  5
26F
330
1E
100
AcDbEntity
  8
0
100
AcDbLine
 10
765.0
 20
9.9059
 30
0.0
 11
765.0
 21
7.497099999999999
 31
0.0
  0
LINE
  5
270
330
1E
100
AcDbEntity
  8
0
100
AcDbLine
 10
765.0
 20
7.497099999999999
 30
0.0
 11
765.0
 21
9.9059
 31
0.0
  0
LINE
  5
271
330
1E
100
AcDbEntity
  8
0
100
AcDbLine
 10
764.328625
 20
9.3382
 30
0.0
 11
764.328625
 21
6.360299999999999
 31
0.0
  0
LINE
  5
272
330
1E
100
AcDbEntity
  8
0
100
AcDbLine
 10
764.328625
 20
6.360299999999999
 30
0.0
 11
764.328625
 21
9.3382
 31
0.0
  0
LINE
  5
273
330
1E
100
AcDbEntity
  8
0
100
AcDbLine
 10
764.5
 20
9.411799999999999
 30
0.0
 11
764.5
 21
6.5441
 31
0.0
  0
LINE
  5
274
330
1E
100
AcDbEntity
  8
0
100
AcDbLine
 10
764.5
 20
6.5441
 30
0.0
 11
764.5
 21
9.411799999999999
 31
0.0
  0
LINE
  5
275
330
1E
100
AcDbEntity
  8
0
100
AcDbLine
 10
764.8653849999999
 20
7.3426
 30
0.0
 11
764.8653849999999
 21
5.1809
 31
0.0
  0
LINE
  5
276
330
1E
100
AcDbEntity
  8
0
100
AcDbLine
 10
764.8653849999999
 20
5.1809
 30
0.0
 11
764.8653849999999
 21
7.3426
 31
0.0
  0
LINE
  5
277
330
1E
100
AcDbEntity
  8
0
100
AcDbLine
 10
765.0
 20
7.497099999999999
 30
0.0
 11
765.0
 21
5.3971
 31
0.0
  0
LINE
  5
278
330
1E
100
AcDbEntity
  8
0
100
AcDbLine
 10
765.0
 20
5.3971
 30
0.0
 11
765.0
 21
7.497099999999999
 31
0.0
  0
LINE
  5
279
330
1E
100
AcDbEntity
  8
0
100
AcDbLine
 10
764.328625
 20
6.360299999999999
 30
0.0
 11
764.328625
 21
3.786799999999999
 31
0.0
  0
LINE
  5
27A
330
1E
100
AcDbEntity
  8
0
100
AcDbLine
 10
764.5
 20
6.5441
 30
0.0
 11
764.5
 21
4.0441
 31
0.0
  0
LINE
  5
27B
330
1E
100
AcDbEntity
  8
0
100
AcDbLine
 10
764.328625
 20
3.786799999999999
 30
0.0
 11
764.328625
 21
6.360299999999999
 31
0.0
  0
LINE
  5
27C
330
1E
100
AcDbEntity
  8
0
100
AcDbLine
 10
764.5
 20
4.0441
 30
0.0
 11
764.5
 21
6.5441
 31
0.0
  0
LINE
  5
27D
330
1E
100
AcDbEntity
  8
0
100
AcDbLine
 10
764.8653849999999
 20
5.1809
 30
0.0
 11
764.8653849999999
 21
3.544099999999999
 31
0.0
  0
LINE
  5
27E
330
1E
100
AcDbEntity
  8
0
100
AcDbLine
 10
764.8653849999999
 20
3.544099999999999
 30
0.0
 11
764.8653849999999
 21
5.1809
 31
0.0
  0
LINE
  5
27F
330
1E
100
AcDbEntity
  8
0
100
AcDbLine
 10
765.0
 20
5.3971
 30
0.0
 11
765.0
 21
3.822099999999999
 31
0.0
  0
LINE
  5
280
330
1E
100
AcDbEntity
  8
0
100
AcDbLine
 10
765.0
 20
3.822099999999999
 30
0.0
 11
765.0
 21
5.3971
 31
0.0
  0
LINE
  5
281
330
1E
100
AcDbEntity
  8
0
100
AcDbLine
 10
764.8653849999999
 20
2.524999999999999
 30
0.0
 11
764.8653849999999
 21
3.544099999999999
 31
0.0
  0
LINE
  5
282
330
1E
100
AcDbEntity
  8
0
100
AcDbLine
 10
764.8653849999999
 20
3.544099999999999
 30
0.0
 11
764.8653849999999
 21
2.524999999999999
 31
0.0
  0
LINE
  5
283
330
1E
100
AcDbEntity
  8
0
100
AcDbLine
 10
765.0
 20
2.8338
 30
0.0
 11
765.0
 21
3.822099999999999
 31
0.0
  0
LINE
  5
284
330
1E
100
AcDbEntity
  8
0
100
AcDbLine
 10
765.0
 20
3.822099999999999
 30
0.0
 11
765.0
 21
2.8338
 31
0.0
  0
LINE
  5
285
330
1E
100
AcDbEntity
  8
0
100
AcDbLine
 10
764.328625
 20
12.5
 30
0.0
 11
764.328625
 21
9.3382
 31
0.0
  0
LINE
  5
286
330
1E
100
AcDbEntity
  8
0
100
AcDbLine
 10
764.328625
 20
9.3382
 30
0.0
 11
764.328625
 21
12.5
 31
0.0
  0
LINE
  5
287
330
1E
100
AcDbEntity
  8
0
100
AcDbLine
 10
764.5
 20
12.5
 30
0.0
 11
764.5
 21
9.411799999999999
 31
0.0
  0
LINE
  5
288
330
1E
100
AcDbEntity
  8
0
100
AcDbLine
 10
764.5
 20
9.411799999999999
 30
0.0
 11
764.5
 21
12.5
 31
0.0
  0
LINE
  5
289
330
1E
100
AcDbEntity
  8
0
100
AcDbLine
 10
764.8653849999999
 20
9.844099999999999
 30
0.0
 11
764.8653849999999
 21
12.5
 31
0.0
  0
LINE
  5
28A
330
1E
100
AcDbEntity
  8
0
100
AcDbLine
 10
764.8653849999999
 20
12.5
 30
0.0
 11
764.8653849999999
 21
9.844099999999999
 31
0.0
  0
LINE
  5
28B
330
1E
100
AcDbEntity
  8
0
100
AcDbLine
 10
765.0
 20
12.5
 30
0.0
 11
765.0
 21
9.9059
 31
0.0
  0
LINE
  5
28C
330
1E
100
AcDbEntity
  8
0
100
AcDbLine
 10
765.0
 20
9.9059
 30
0.0
 11
765.0
 21
12.5
 31
0.0
  0
LINE
  5
28D
330
1E
100
AcDbEntity
  8
0
100
AcDbLine
 10
763.9858799999999
 20
25.0
 30
0.0
 11
692.4526978723404
 21
25.0
 31
0.0
  0
LINE
  5
28E
330
1E
100
AcDbEntity
  8
0
100
AcDbLine
 10
763.98588
 20
25.0
 30
0.0
 11
692.4526978723404
 21
25.0
 31
0.0
  0
LINE
  5
28F
330
1E
100
AcDbEntity
  8
0
100
AcDbLine
 10
764.328625
 20
21.2132
 30
0.0
 11
764.328625
 21
23.1618
 31
0.0
  0
LINE
  5
290
330
1E
100
AcDbEntity
  8
0
100
AcDbLine
 10
764.5
 20
20.9559
 30
0.0
 11
764.5
 21
22.8309
 31
0.0
  0
LINE
  5
291
330
1E
100
AcDbEntity
  8
0
100
AcDbLine
 10
764.328625
 20
23.1618
 30
0.0
 11
764.328625
 21
21.2132
 31
0.0
  0
LINE
  5
292
330
1E
100
AcDbEntity
  8
0
100
AcDbLine
 10
764.5
 20
22.8309
 30
0.0
 11
764.5
 21
20.9559
 31
0.0
  0
LINE
  5
293
330
1E
100
AcDbEntity
  8
0
100
AcDbLine
 10
764.8653849999999
 20
21.45589999999999
 30
0.0
 11
764.8653849999999
 21
19.8191
 31
0.0
  0
LINE
  5
294
330
1E
100
AcDbEntity
  8
0
100
AcDbLine
 10
764.8653849999999
 20
19.8191
 30
0.0
 11
764.8653849999999
 21
21.45589999999999
 31
0.0
  0
LINE
  5
295
330
1E
100
AcDbEntity
  8
0
100
AcDbLine
 10
765.0
 20
22.1662
 30
0.0
 11
765.0
 21
21.1779
 31
0.0
  0
LINE
  5
296
330
1E
100
AcDbEntity
  8
0
100
AcDbLine
 10
765.0
 20
21.1779
 30
0.0
 11
765.0
 21
22.1662
 31
0.0
  0
LINE
  5
297
330
1E
100
AcDbEntity
  8
0
100
AcDbLine
 10
764.8653849999999
 20
17.6574
 30
0.0
 11
764.8653849999999
 21
19.8191
 31
0.0
  0
LINE
  5
298
330
1E
100
AcDbEntity
  8
0
100
AcDbLine
 10
764.8653849999999
 20
19.8191
 30
0.0
 11
764.8653849999999
 21
17.6574
 31
0.0
  0
LINE
  5
299
330
1E
100
AcDbEntity
  8
0
100
AcDbLine
 10
765.0
 20
19.6029
 30
0.0
 11
765.0
 21
17.5029
 31
0.0
  0
LINE
  5
29A
330
1E
100
AcDbEntity
  8
0
100
AcDbLine
 10
765.0
 20
17.5029
 30
0.0
 11
765.0
 21
19.6029
 31
0.0
  0
LINE
  5
29B
330
1E
100
AcDbEntity
  8
0
100
AcDbLine
 10
764.328625
 20
15.6618
 30
0.0
 11
764.328625
 21
18.6397
 31
0.0
  0
LINE
  5
29C
330
1E
100
AcDbEntity
  8
0
100
AcDbLine
 10
764.328625
 20
18.6397
 30
0.0
 11
764.328625
 21
15.6618
 31
0.0
  0
LINE
  5
29D
330
1E
100
AcDbEntity
  8
0
100
AcDbLine
 10
764.5
 20
15.5882
 30
0.0
 11
764.5
 21
18.45589999999999
 31
0.0
  0
LINE
  5
29E
330
1E
100
AcDbEntity
  8
0
100
AcDbLine
 10
764.5
 20
18.45589999999999
 30
0.0
 11
764.5
 21
15.5882
 31
0.0
  0
LINE
  5
29F
330
1E
100
AcDbEntity
  8
0
100
AcDbLine
 10
764.8653849999999
 20
15.1559
 30
0.0
 11
764.8653849999999
 21
17.6574
 31
0.0
  0
LINE
  5
2A0
330
1E
100
AcDbEntity
  8
0
100
AcDbLine
 10
764.8653849999999
 20
17.6574
 30
0.0
 11
764.8653849999999
 21
15.1559
 31
0.0
  0
LINE
  5
2A1
330
1E
100
AcDbEntity
  8
0
100
AcDbLine
 10
765.0
 20
15.09409999999999
 30
0.0
 11
765.0
 21
17.5029
 31
0.0
  0
LINE
  5
2A2
330
1E
100
AcDbEntity
  8
0
100
AcDbLine
 10
765.0
 20
17.5029
 30
0.0
 11
765.0
 21
15.09409999999999
 31
0.0
  0
LINE
  5
2A3
330
1E
100
AcDbEntity
  8
0
100
AcDbLine
 10
764.328625
 20
18.6397
 30
0.0
 11
764.328625
 21
21.2132
 31
0.0
  0
LINE
  5
2A4
330
1E
100
AcDbEntity
  8
0
100
AcDbLine
 10
764.328625
 20
21.2132
 30
0.0
 11
764.328625
 21
18.6397
 31
0.0
  0
LINE
  5
2A5
330
1E
100
AcDbEntity
  8
0
100
AcDbLine
 10
765.0
 20
21.1779
 30
0.0
 11
765.0
 21
19.6029
 31
0.0
  0
LINE
  5
2A6
330
1E
100
AcDbEntity
  8
0
100
AcDbLine
 10
765.0
 20
19.6029
 30
0.0
 11
765.0
 21
21.1779
 31
0.0
  0
LINE
  5
2A7
330
1E
100
AcDbEntity
  8
0
100
AcDbLine
 10
764.5
 20
20.9559
 30
0.0
 11
764.5
 21
18.45589999999999
 31
0.0
  0
LINE
  5
2A8
330
1E
100
AcDbEntity
  8
0
100
AcDbLine
 10
764.5
 20
18.45589999999999
 30
0.0
 11
764.5
 21
20.9559
 31
0.0
  0
LINE
  5
2A9
330
1E
100
AcDbEntity
  8
0
100
AcDbLine
 10
764.328625
 20
24.81619999999999
 30
0.0
 11
764.328625
 21
24.375
 31
0.0
  0
LINE
  5
2AA
330
1E
100
AcDbEntity
  8
0
100
AcDbLine
 10
764.328625
 20
24.375
 30
0.0
 11
764.328625
 21
24.81619999999999
 31
0.0
  0
LINE
  5
2AB
330
1E
100
AcDbEntity
  8
0
100
AcDbLine
 10
764.5
 20
24.4485
 30
0.0
 11
764.5
 21
24.0074
 31
0.0
  0
LINE
  5
2AC
330
1E
100
AcDbEntity
  8
0
100
AcDbLine
 10
764.5
 20
24.0074
 30
0.0
 11
764.5
 21
24.4485
 31
0.0
  0
LINE
  5
2AD
330
1E
100
AcDbEntity
  8
0
100
AcDbLine
 10
764.8653849999999
 20
22.8456
 30
0.0
 11
764.8653849999999
 21
22.475
 31
0.0
  0
LINE
  5
2AE
330
1E
100
AcDbEntity
  8
0
100
AcDbLine
 10
765.0
 20
22.5368
 30
0.0
 11
764.8653849999999
 21
22.8456
 31
0.0
  0
LINE
  5
2AF
330
1E
100
AcDbEntity
  8
0
100
AcDbLine
 10
764.8653849999999
 20
22.475
 30
0.0
 11
764.8653849999999
 21
22.8456
 31
0.0
  0
LINE
  5
2B0
330
1E
100
AcDbEntity
  8
0
100
AcDbLine
 10
765.0
 20
22.5368
 30
0.0
 11
765.0
 21
22.1662
 31
0.0
  0
LINE
  5
2B1
330
1E
100
AcDbEntity
  8
0
100
AcDbLine
 10
765.0
 20
22.1662
 30
0.0
 11
765.0
 21
22.5368
 31
0.0
  0
LINE
  5
2B2
330
1E
100
AcDbEntity
  8
0
100
AcDbLine
 10
764.8653849999999
 20
22.475
 30
0.0
 11
764.8653849999999
 21
21.45589999999999
 31
0.0
  0
LINE
  5
2B3
330
1E
100
AcDbEntity
  8
0
100
AcDbLine
 10
764.8653849999999
 20
21.45589999999999
 30
0.0
 11
764.8653849999999
 21
22.475
 31
0.0
  0
LINE
  5
2B4
330
1E
100
AcDbEntity
  8
0
100
AcDbLine
 10
764.596154
 20
23.0
 30
0.0
 11
764.5
 21
23.0
 31
0.0
  0
LINE
  5
2B5
330
1E
100
AcDbEntity
  8
0
100
AcDbLine
 10
764.596154
 20
23.0
 30
0.0
 11
764.5
 21
23.0
 31
0.0
  0
LINE
  5
2B6
330
1E
100
AcDbEntity
  8
0
100
AcDbLine
 10
764.5
 20
24.0074
 30
0.0
 11
764.5
 21
22.8309
 31
0.0
  0
LINE
  5
2B7
330
1E
100
AcDbEntity
  8
0
100
AcDbLine
 10
764.5
 20
22.8309
 30
0.0
 11
764.5
 21
24.0074
 31
0.0
  0
LINE
  5
2B8
330
1E
100
AcDbEntity
  8
0
100
AcDbLine
 10
764.8653849999999
 20
22.8456
 30
0.0
 11
764.596154
 21
23.0
 31
0.0
  0
LINE
  5
2B9
330
1E
100
AcDbEntity
  8
0
100
AcDbLine
 10
764.328625
 20
24.375
 30
0.0
 11
764.328625
 21
23.1618
 31
0.0
  0
LINE
  5
2BA
330
1E
100
AcDbEntity
  8
0
100
AcDbLine
 10
764.328625
 20
23.1618
 30
0.0
 11
764.328625
 21
24.375
 31
0.0
  0
LINE
  5
2BB
330
1E
100
AcDbEntity
  8
0
100
AcDbLine
 10
764.5
 20
24.4485
 30
0.0
 11
764.328625
 21
24.81619999999999
 31
0.0
  0
LINE
  5
2BC
330
1E
100
AcDbEntity
  8
0
100
AcDbLine
 10
764.328625
 20
24.81619999999999
 30
0.0
 11
763.9858799999999
 21
25.0
 31
0.0
  0
LINE
  5
2BD
330
1E
100
AcDbEntity
  8
0
100
AcDbLine
 10
722.8470999999999
 20
65.21429999999999
 30
0.0
 11
722.4903
 21
65.0
 31
0.0
  0
LINE
  5
2BE
330
1E
100
AcDbEntity
  8
0
100
AcDbLine
 10
644.51
 20
65.0
 30
0.0
 11
644.153
 21
65.21429999999999
 31
0.0
  0
LINE
  5
2BF
330
1E
100
AcDbEntity
  8
0
100
AcDbLine
 10
683.4999999999999
 20
65.0
 30
0.0
 11
681.1970999999999
 21
65.0
 31
0.0
  0
LINE
  5
2C0
330
1E
100
AcDbEntity
  8
0
100
AcDbLine
 10
712.5465
 20
65.0
 30
0.0
 11
710.8152999999999
 21
65.0
 31
0.0
  0
LINE
  5
2C1
330
1E
100
AcDbEntity
  8
0
100
AcDbLine
 10
719.1005
 20
65.0
 30
0.0
 11
718.5017
 21
65.0
 31
0.0
  0
LINE
  5
2C2
330
1E
100
AcDbEntity
  8
0
100
AcDbLine
 10
722.4903
 20
65.0
 30
0.0
 11
722.2775
 21
65.0
 31
0.0
  0
LINE
  5
2C3
330
1E
100
AcDbEntity
  8
0
100
AcDbLine
 10
722.2775
 20
65.0
 30
0.0
 11
721.9494999999999
 21
65.0
 31
0.0
  0
LINE
  5
2C4
330
1E
100
AcDbEntity
  8
0
100
AcDbLine
 10
721.9494999999999
 20
65.0
 30
0.0
 11
721.537
 21
65.0
 31
0.0
  0
LINE
  5
2C5
330
1E
100
AcDbEntity
  8
0
100
AcDbLine
 10
721.537
 20
65.0
 30
0.0
 11
721.0964999999999
 21
65.0
 31
0.0
  0
LINE
  5
2C6
330
1E
100
AcDbEntity
  8
0
100
AcDbLine
 10
721.0964999999999
 20
65.0
 30
0.0
 11
720.6735999999999
 21
65.0
 31
0.0
  0
LINE
  5
2C7
330
1E
100
AcDbEntity
  8
0
100
AcDbLine
 10
720.6735999999999
 20
65.0
 30
0.0
 11
720.3807
 21
65.0
 31
0.0
  0
LINE
  5
2C8
330
1E
100
AcDbEntity
  8
0
100
AcDbLine
 10
720.3807
 20
65.0
 30
0.0
 11
720.0503
 21
65.0
 31
0.0
  0
LINE
  5
2C9
330
1E
100
AcDbEntity
  8
0
100
AcDbLine
 10
720.0503
 20
65.0
 30
0.0
 11
719.5960999999999
 21
65.0
 31
0.0
  0
LINE
  5
2CA
330
1E
100
AcDbEntity
  8
0
100
AcDbLine
 10
719.5960999999999
 20
65.0
 30
0.0
 11
719.1005
 21
65.0
 31
0.0
  0
LINE
  5
2CB
330
1E
100
AcDbEntity
  8
0
100
AcDbLine
 10
718.5017
 20
65.0
 30
0.0
 11
717.7503
 21
65.0
 31
0.0
  0
LINE
  5
2CC
330
1E
100
AcDbEntity
  8
0
100
AcDbLine
 10
713.9292
 20
65.0
 30
0.0
 11
712.5465
 21
65.0
 31
0.0
  0
LINE
  5
2CD
330
1E
100
AcDbEntity
  8
0
100
AcDbLine
 10
715.1468
 20
65.0
 30
0.0
 11
713.9292
 21
65.0
 31
0.0
  0
LINE
  5
2CE
330
1E
100
AcDbEntity
  8
0
100
AcDbLine
 10
715.9928999999999
 20
65.0
 30
0.0
 11
715.1468
 21
65.0
 31
0.0
  0
LINE
  5
2CF
330
1E
100
AcDbEntity
  8
0
100
AcDbLine
 10
716.9421999999999
 20
65.0
 30
0.0
 11
715.9928999999999
 21
65.0
 31
0.0
  0
LINE
  5
2D0
330
1E
100
AcDbEntity
  8
0
100
AcDbLine
 10
717.7503
 20
65.0
 30
0.0
 11
716.9421999999999
 21
65.0
 31
0.0
  0
LINE
  5
2D1
330
1E
100
AcDbEntity
  8
0
100
AcDbLine
 10
698.1043999999999
 20
65.0
 30
0.0
 11
692.4999999999999
 21
65.0
 31
0.0
  0
LINE
  5
2D2
330
1E
100
AcDbEntity
  8
0
100
AcDbLine
 10
707.6927
 20
65.0
 30
0.0
 11
703.7965
 21
65.0
 31
0.0
  0
LINE
  5
2D3
330
1E
100
AcDbEntity
  8
0
100
AcDbLine
 10
707.6927
 20
65.0
 30
0.0
 11
703.7965
 21
65.0
 31
0.0
  0
LINE
  5
2D4
330
1E
100
AcDbEntity
  8
0
100
AcDbLine
 10
710.8152999999999
 20
65.0
 30
0.0
 11
707.6927
 21
65.0
 31
0.0
  0
LINE
  5
2D5
330
1E
100
AcDbEntity
  8
0
100
AcDbLine
 10
710.8152999999999
 20
65.0
 30
0.0
 11
707.6927
 21
65.0
 31
0.0
  0
LINE
  5
2D6
330
1E
100
AcDbEntity
  8
0
100
AcDbLine
 10
703.7965
 20
65.0
 30
0.0
 11
698.1043999999999
 21
65.0
 31
0.0
  0
LINE
  5
2D7
330
1E
100
AcDbEntity
  8
0
100
AcDbLine
 10
703.7965
 20
65.0
 30
0.0
 11
698.1043999999999
 21
65.0
 31
0.0
  0
LINE
  5
2D8
330
1E
100
AcDbEntity
  8
0
100
AcDbLine
 10
689.8528999999999
 20
65.0
 30
0.0
 11
687.9735000000001
 21
65.0
 31
0.0
  0
LINE
  5
2D9
330
1E
100
AcDbEntity
  8
0
100
AcDbLine
 10
692.4999999999999
 20
65.0
 30
0.0
 11
692.1824
 21
65.0
 31
0.0
  0
LINE
  5
2DA
330
1E
100
AcDbEntity
  8
0
100
AcDbLine
 10
692.1824
 20
65.0
 30
0.0
 11
691.2822999999999
 21
65.0
 31
0.0
  0
LINE
  5
2DB
330
1E
100
AcDbEntity
  8
0
100
AcDbLine
 10
691.2822999999999
 20
65.0
 30
0.0
 11
689.8528999999999
 21
65.0
 31
0.0
  0
LINE
  5
2DC
330
1E
100
AcDbEntity
  8
0
100
AcDbLine
 10
685.8029
 20
65.0
 30
0.0
 11
683.4999999999999
 21
65.0
 31
0.0
  0
LINE
  5
2DD
330
1E
100
AcDbEntity
  8
0
100
AcDbLine
 10
687.9735000000001
 20
65.0
 30
0.0
 11
685.8029
 21
65.0
 31
0.0
  0
LINE
  5
2DE
330
1E
100
AcDbEntity
  8
0
100
AcDbLine
 10
651.8529999999999
 20
65.0
 30
0.0
 11
651.007
 21
65.0
 31
0.0
  0
LINE
  5
2DF
330
1E
100
AcDbEntity
  8
0
100
AcDbLine
 10
668.8956000000001
 20
65.0
 30
0.0
 11
663.203
 21
65.0
 31
0.0
  0
LINE
  5
2E0
330
1E
100
AcDbEntity
  8
0
100
AcDbLine
 10
668.8956000000001
 20
65.0
 30
0.0
 11
663.203
 21
65.0
 31
0.0
  0
LINE
  5
2E1
330
1E
100
AcDbEntity
  8
0
100
AcDbLine
 10
674.5
 20
65.0
 30
0.0
 11
668.8956000000001
 21
65.0
 31
0.0
  0
LINE
  5
2E2
330
1E
100
AcDbEntity
  8
0
100
AcDbLine
 10
681.1970999999999
 20
65.0
 30
0.0
 11
679.0264999999999
 21
65.0
 31
0.0
  0
LINE
  5
2E3
330
1E
100
AcDbEntity
  8
0
100
AcDbLine
 10
679.0264999999999
 20
65.0
 30
0.0
 11
677.1471
 21
65.0
 31
0.0
  0
LINE
  5
2E4
330
1E
100
AcDbEntity
  8
0
100
AcDbLine
 10
674.8175999999999
 20
65.0
 30
0.0
 11
674.5
 21
65.0
 31
0.0
  0
LINE
  5
2E5
330
1E
100
AcDbEntity
  8
0
100
AcDbLine
 10
675.7175999999999
 20
65.0
 30
0.0
 11
674.8175999999999
 21
65.0
 31
0.0
  0
LINE
  5
2E6
330
1E
100
AcDbEntity
  8
0
100
AcDbLine
 10
677.1471
 20
65.0
 30
0.0
 11
675.7175999999999
 21
65.0
 31
0.0
  0
LINE
  5
2E7
330
1E
100
AcDbEntity
  8
0
100
AcDbLine
 10
659.3069999999999
 20
65.0
 30
0.0
 11
656.1849999999999
 21
65.0
 31
0.0
  0
LINE
  5
2E8
330
1E
100
AcDbEntity
  8
0
100
AcDbLine
 10
659.3069999999999
 20
65.0
 30
0.0
 11
656.1849999999999
 21
65.0
 31
0.0
  0
LINE
  5
2E9
330
1E
100
AcDbEntity
  8
0
100
AcDbLine
 10
663.203
 20
65.0
 30
0.0
 11
659.3069999999999
 21
65.0
 31
0.0
  0
LINE
  5
2EA
330
1E
100
AcDbEntity
  8
0
100
AcDbLine
 10
663.203
 20
65.0
 30
0.0
 11
659.3069999999999
 21
65.0
 31
0.0
  0
LINE
  5
2EB
330
1E
100
AcDbEntity
  8
0
100
AcDbLine
 10
656.1849999999999
 20
65.0
 30
0.0
 11
654.4529999999999
 21
65.0
 31
0.0
  0
LINE
  5
2EC
330
1E
100
AcDbEntity
  8
0
100
AcDbLine
 10
654.4529999999999
 20
65.0
 30
0.0
 11
653.071
 21
65.0
 31
0.0
  0
LINE
  5
2ED
330
1E
100
AcDbEntity
  8
0
100
AcDbLine
 10
653.071
 20
65.0
 30
0.0
 11
651.8529999999999
 21
65.0
 31
0.0
  0
LINE
  5
2EE
330
1E
100
AcDbEntity
  8
0
100
AcDbLine
 10
644.7229999999999
 20
65.0
 30
0.0
 11
644.51
 21
65.0
 31
0.0
  0
LINE
  5
2EF
330
1E
100
AcDbEntity
  8
0
100
AcDbLine
 10
651.007
 20
65.0
 30
0.0
 11
650.058
 21
65.0
 31
0.0
  0
LINE
  5
2F0
330
1E
100
AcDbEntity
  8
0
100
AcDbLine
 10
650.058
 20
65.0
 30
0.0
 11
649.2499999999999
 21
65.0
 31
0.0
  0
LINE
  5
2F1
330
1E
100
AcDbEntity
  8
0
100
AcDbLine
 10
645.0499999999999
 20
65.0
 30
0.0
 11
644.7229999999999
 21
65.0
 31
0.0
  0
LINE
  5
2F2
330
1E
100
AcDbEntity
  8
0
100
AcDbLine
 10
645.4629999999999
 20
65.0
 30
0.0
 11
645.0499999999999
 21
65.0
 31
0.0
  0
LINE
  5
2F3
330
1E
100
AcDbEntity
  8
0
100
AcDbLine
 10
645.9039999999999
 20
65.0
 30
0.0
 11
645.4629999999999
 21
65.0
 31
0.0
  0
LINE
  5
2F4
330
1E
100
AcDbEntity
  8
0
100
AcDbLine
 10
646.326
 20
65.0
 30
0.0
 11
645.9039999999999
 21
65.0
 31
0.0
  0
LINE
  5
2F5
330
1E
100
AcDbEntity
  8
0
100
AcDbLine
 10
646.619
 20
65.0
 30
0.0
 11
646.326
 21
65.0
 31
0.0
  0
LINE
  5
2F6
330
1E
100
AcDbEntity
  8
0
100
AcDbLine
 10
646.95
 20
65.0
 30
0.0
 11
646.619
 21
65.0
 31
0.0
  0
LINE
  5
2F7
330
1E
100
AcDbEntity
  8
0
100
AcDbLine
 10
647.404
 20
65.0
 30
0.0
 11
646.95
 21
65.0
 31
0.0
  0
LINE
  5
2F8
330
1E
100
AcDbEntity
  8
0
100
AcDbLine
 10
647.899
 20
65.0
 30
0.0
 11
647.404
 21
65.0
 31
0.0
  0
LINE
  5
2F9
330
1E
100
AcDbEntity
  8
0
100
AcDbLine
 10
648.498
 20
65.0
 30
0.0
 11
647.899
 21
65.0
 31
0.0
  0
LINE
  5
2FA
330
1E
100
AcDbEntity
  8
0
100
AcDbLine
 10
649.2499999999999
 20
65.0
 30
0.0
 11
648.498
 21
65.0
 31
0.0
  0
LINE
  5
2FB
330
1E
100
AcDbEntity
  8
0
100
AcDbLine
 10
723.0
 20
65.71429999999999
 30
0.0
 11
723.0
 21
80.0
 31
0.0
  0
LINE
  5
2FC
330
1E
100
AcDbEntity
  8
0
100
AcDbLine
 10
644.0
 20
80.0
 30
0.0
 11
644.0
 21
65.71429999999999
 31
0.0
  0
LINE
  5
2FD
330
1E
100
AcDbEntity
  8
0
100
AcDbLine
 10
644.0
 20
65.71429999999999
 30
0.0
 11
644.0
 21
80.0
 31
0.0
  0
LINE
  5
2FE
330
1E
100
AcDbEntity
  8
0
100
AcDbLine
 10
723.0
 20
80.0
 30
0.0
 11
723.0
 21
65.71429999999999
 31
0.0
  0
LINE
  5
2FF
330
1E
100
AcDbEntity
  8
0
100
AcDbLine
 10
723.0
 20
65.71429999999999
 30
0.0
 11
722.8470999999999
 21
65.21429999999999
 31
0.0
  0
LINE
  5
300
330
1E
100
AcDbEntity
  8
0
100
AcDbLine
 10
644.153
 20
65.21429999999999
 30
0.0
 11
644.0
 21
65.71429999999999
 31
0.0
  0
LINE
  5
301
330
1E
100
AcDbEntity
  8
0
100
AcDbLine
 10
683.4999999999999
 20
80.0
 30
0.0
 11
680.1313999999999
 21
80.0
 31
0.0
  0
LINE
  5
302
330
1E
100
AcDbEntity
  8
0
100
AcDbLine
 10
712.8468999999999
 20
80.0
 30
0.0
 11
711.1158
 21
80.0
 31
0.0
  0
LINE
  5
303
330
1E
100
AcDbEntity
  8
0
100
AcDbLine
 10
718.8513
 20
80.0
 30
0.0
 11
718.1326
 21
80.0
 31
0.0
  0
LINE
  5
304
330
1E
100
AcDbEntity
  8
0
100
AcDbLine
 10
722.9476
 20
80.0
 30
0.0
 11
722.7764999999999
 21
80.0
 31
0.0
  0
LINE
  5
305
330
1E
100
AcDbEntity
  8
0
100
AcDbLine
 10
722.7764999999999
 20
80.0
 30
0.0
 11
722.4199999999999
 21
80.0
 31
0.0
  0
LINE
  5
306
330
1E
100
AcDbEntity
  8
0
100
AcDbLine
 10
722.4199999999999
 20
80.0
 30
0.0
 11
721.9913
 21
80.0
 31
0.0
  0
LINE
  5
307
330
1E
100
AcDbEntity
  8
0
100
AcDbLine
 10
721.9913
 20
80.0
 30
0.0
 11
721.5247
 21
80.0
 31
0.0
  0
LINE
  5
308
330
1E
100
AcDbEntity
  8
0
100
AcDbLine
 10
721.5247
 20
80.0
 30
0.0
 11
721.1435
 21
80.0
 31
0.0
  0
LINE
  5
309
330
1E
100
AcDbEntity
  8
0
100
AcDbLine
 10
721.1435
 20
80.0
 30
0.0
 11
720.8238999999999
 21
80.0
 31
0.0
  0
LINE
  5
30A
330
1E
100
AcDbEntity
  8
0
100
AcDbLine
 10
720.8238999999999
 20
80.0
 30
0.0
 11
720.4737999999999
 21
80.0
 31
0.0
  0
LINE
  5
30B
330
1E
100
AcDbEntity
  8
0
100
AcDbLine
 10
720.4737999999999
 20
80.0
 30
0.0
 11
719.9784999999999
 21
80.0
 31
0.0
  0
LINE
  5
30C
330
1E
100
AcDbEntity
  8
0
100
AcDbLine
 10
719.9784999999999
 20
80.0
 30
0.0
 11
719.4746999999999
 21
80.0
 31
0.0
  0
LINE
  5
30D
330
1E
100
AcDbEntity
  8
0
100
AcDbLine
 10
719.4746999999999
 20
80.0
 30
0.0
 11
718.8513
 21
80.0
 31
0.0
  0
LINE
  5
30E
330
1E
100
AcDbEntity
  8
0
100
AcDbLine
 10
723.0
 20
80.0
 30
0.0
 11
722.9476
 21
80.0
 31
0.0
  0
LINE
  5
30F
330
1E
100
AcDbEntity
  8
0
100
AcDbLine
 10
714.2722
 20
80.0
 30
0.0
 11
712.8468999999999
 21
80.0
 31
0.0
  0
LINE
  5
310
330
1E
100
AcDbEntity
  8
0
100
AcDbLine
 10
715.5012
 20
80.0
 30
0.0
 11
714.2722
 21
80.0
 31
0.0
  0
LINE
  5
311
330
1E
100
AcDbEntity
  8
0
100
AcDbLine
 10
716.3803
 20
80.0
 30
0.0
 11
715.5012
 21
80.0
 31
0.0
  0
LINE
  5
312
330
1E
100
AcDbEntity
  8
0
100
AcDbLine
 10
717.3191
 20
80.0
 30
0.0
 11
716.3803
 21
80.0
 31
0.0
  0
LINE
  5
313
330
1E
100
AcDbEntity
  8
0
100
AcDbLine
 10
718.1326
 20
80.0
 30
0.0
 11
717.3191
 21
80.0
 31
0.0
  0
LINE
  5
314
330
1E
100
AcDbEntity
  8
0
100
AcDbLine
 10
698.3324
 20
80.0
 30
0.0
 11
691.8631
 21
80.0
 31
0.0
  0
LINE
  5
315
330
1E
100
AcDbEntity
  8
0
100
AcDbLine
 10
704.0028999999999
 20
80.0
 30
0.0
 11
698.3324
 21
80.0
 31
0.0
  0
LINE
  5
316
330
1E
100
AcDbEntity
  8
0
100
AcDbLine
 10
707.9152
 20
80.0
 30
0.0
 11
704.0028999999999
 21
80.0
 31
0.0
  0
LINE
  5
317
330
1E
100
AcDbEntity
  8
0
100
AcDbLine
 10
711.1158
 20
80.0
 30
0.0
 11
707.9152
 21
80.0
 31
0.0
  0
LINE
  5
318
330
1E
100
AcDbEntity
  8
0
100
AcDbLine
 10
691.8631
 20
80.0
 30
0.0
 11
686.8686
 21
80.0
 31
0.0
  0
LINE
  5
319
330
1E
100
AcDbEntity
  8
0
100
AcDbLine
 10
686.8686
 20
80.0
 30
0.0
 11
683.4999999999999
 21
80.0
 31
0.0
  0
LINE
  5
31A
330
1E
100
AcDbEntity
  8
0
100
AcDbLine
 10
652.7279999999999
 20
80.0
 30
0.0
 11
651.499
 21
80.0
 31
0.0
  0
LINE
  5
31B
330
1E
100
AcDbEntity
  8
0
100
AcDbLine
 10
668.6676
 20
80.0
 30
0.0
 11
662.9970000000001
 21
80.0
 31
0.0
  0
LINE
  5
31C
330
1E
100
AcDbEntity
  8
0
100
AcDbLine
 10
675.1368999999999
 20
80.0
 30
0.0
 11
668.6676
 21
80.0
 31
0.0
  0
LINE
  5
31D
330
1E
100
AcDbEntity
  8
0
100
AcDbLine
 10
680.1313999999999
 20
80.0
 30
0.0
 11
675.1368999999999
 21
80.0
 31
0.0
  0
LINE
  5
31E
330
1E
100
AcDbEntity
  8
0
100
AcDbLine
 10
662.9970000000001
 20
80.0
 30
0.0
 11
659.085
 21
80.0
 31
0.0
  0
LINE
  5
31F
330
1E
100
AcDbEntity
  8
0
100
AcDbLine
 10
659.085
 20
80.0
 30
0.0
 11
655.884
 21
80.0
 31
0.0
  0
LINE
  5
320
330
1E
100
AcDbEntity
  8
0
100
AcDbLine
 10
655.884
 20
80.0
 30
0.0
 11
654.153
 21
80.0
 31
0.0
  0
LINE
  5
321
330
1E
100
AcDbEntity
  8
0
100
AcDbLine
 10
654.153
 20
80.0
 30
0.0
 11
652.7279999999999
 21
80.0
 31
0.0
  0
LINE
  5
322
330
1E
100
AcDbEntity
  8
0
100
AcDbLine
 10
644.58
 20
80.0
 30
0.0
 11
644.2239999999999
 21
80.0
 31
0.0
  0
LINE
  5
323
330
1E
100
AcDbEntity
  8
0
100
AcDbLine
 10
645.009
 20
80.0
 30
0.0
 11
644.58
 21
80.0
 31
0.0
  0
LINE
  5
324
330
1E
100
AcDbEntity
  8
0
100
AcDbLine
 10
645.475
 20
80.0
 30
0.0
 11
645.009
 21
80.0
 31
0.0
  0
LINE
  5
325
330
1E
100
AcDbEntity
  8
0
100
AcDbLine
 10
645.856
 20
80.0
 30
0.0
 11
645.475
 21
80.0
 31
0.0
  0
LINE
  5
326
330
1E
100
AcDbEntity
  8
0
100
AcDbLine
 10
646.176
 20
80.0
 30
0.0
 11
645.856
 21
80.0
 31
0.0
  0
LINE
  5
327
330
1E
100
AcDbEntity
  8
0
100
AcDbLine
 10
646.526
 20
80.0
 30
0.0
 11
646.176
 21
80.0
 31
0.0
  0
LINE
  5
328
330
1E
100
AcDbEntity
  8
0
100
AcDbLine
 10
647.0209999999999
 20
80.0
 30
0.0
 11
646.526
 21
80.0
 31
0.0
  0
LINE
  5
329
330
1E
100
AcDbEntity
  8
0
100
AcDbLine
 10
647.5249999999999
 20
80.0
 30
0.0
 11
647.0209999999999
 21
80.0
 31
0.0
  0
LINE
  5
32A
330
1E
100
AcDbEntity
  8
0
100
AcDbLine
 10
648.1489999999999
 20
80.0
 30
0.0
 11
647.5249999999999
 21
80.0
 31
0.0
  0
LINE
  5
32B
330
1E
100
AcDbEntity
  8
0
100
AcDbLine
 10
648.8669999999999
 20
80.0
 30
0.0
 11
648.1489999999999
 21
80.0
 31
0.0
  0
LINE
  5
32C
330
1E
100
AcDbEntity
  8
0
100
AcDbLine
 10
651.499
 20
80.0
 30
0.0
 11
650.6199999999999
 21
80.0
 31
0.0
  0
LINE
  5
32D
330
1E
100
AcDbEntity
  8
0
100
AcDbLine
 10
650.6199999999999
 20
80.0
 30
0.0
 11
649.681
 21
80.0
 31
0.0
  0
LINE
  5
32E
330
1E
100
AcDbEntity
  8
0
100
AcDbLine
 10
649.681
 20
80.0
 30
0.0
 11
648.8669999999999
 21
80.0
 31
0.0
  0
LINE
  5
32F
330
1E
100
AcDbEntity
  8
0
100
AcDbLine
 10
644.052
 20
80.0
 30
0.0
 11
644.0
 21
80.0
 31
0.0
  0
LINE
  5
330
330
1E
100
AcDbEntity
  8
0
100
AcDbLine
 10
644.2239999999999
 20
80.0
 30
0.0
 11
644.052
 21
80.0
 31
0.0
  0
ENDSEC
  0
SECTION
  2
OBJECTS
  0
DICTIONARY
  5
C
330
0
100
AcDbDictionary
281
     1
  3
ACAD_GROUP
350
D
  3
ACAD_LAYOUT
350
19
  3
ACAD_MLINESTYLE
350
16
  3
ACAD_PLOTSETTINGS
350
18
  3
ACAD_PLOTSTYLENAME
350
E
  3
AcDbVariableDictionary
350
331
  0
DICTIONARY
  5
D
102
{ACAD_REACTORS
330
C
102
}
330
C
100
AcDbDictionary
281
     1
  0
DICTIONARY
  5
19
102
{ACAD_REACTORS
330
C
102
}
330
C
100
AcDbDictionary
281
     1
  3
Layout1
350
1D
  3
Model
350
21
  0
DICTIONARY
  5
16
102
{ACAD_REACTORS
330
C
102
}
330
C
100
AcDbDictionary
281
     1
  3
Standard
350
17
  0
DICTIONARY
  5
18
102
{ACAD_REACTORS
330
C
102
}
330
C
100
AcDbDictionary
281
     1
  0
ACDBDICTIONARYWDFLT
  5
E
102
{ACAD_REACTORS
330
C
102
}
330
C
100
AcDbDictionary
281
     1
  3
Normal
350
F
100
AcDbDictionaryWithDefault
340
F
  0
DICTIONARY
  5
331
102
{ACAD_REACTORS
330
C
102
}
330
C
100
AcDbDictionary
281
     1
  3
DIMASSOC
350
332
  0
LAYOUT
  5
1D
102
{ACAD_REACTORS
330
19
102
}
330
19
100
AcDbPlotSettings
  1

  2
hp deskjet 980c series
  4

  6

 40
0.0
 41
0.0
 42
0.0
 43
0.0
 44
0.0
 45
0.0
 46
0.0
 47
0.0
 48
0.0
 49
0.0
140
0.0
141
0.0
142
1.0
143
1.0
 70
   688
 72
     0
 73
     0
 74
     5
  7

 75
    16
147
1.0
148
0.0
149
0.0
100
AcDbLayout
  1
Layout1
 70
     1
 71
     1
 10
0.0
 20
0.0
 11
12.0
 21
9.0
 12
0.0
 22
0.0
 32
0.0
 14
1.000000000000000E+20
 24
1.000000000000000E+20
 34
1.000000000000000E+20
 15
-1.000000000000000E+20
 25
-1.000000000000000E+20
 35
-1.000000000000000E+20
146
0.0
 13
0.0
 23
0.0
 33
0.0
 16
1.0
 26
0.0
 36
0.0
 17
0.0
 27
1.0
 37
0.0
 76
     0
330
1A
  0
LAYOUT
  5
21
102
{ACAD_REACTORS
330
19
102
}
330
19
100
AcDbPlotSettings
  1

  2
hp deskjet 980c series
  4

  6

 40
0.0
 41
0.0
 42
0.0
 43
0.0
 44
0.0
 45
0.0
 46
0.0
 47
0.0
 48
0.0
 49
0.0
140
0.0
141
0.0
142
1.0
143
1.0
 70
  1712
 72
     0
 73
     0
 74
     0
  7

 75
     0
147
1.0
148
0.0
149
0.0
100
AcDbLayout
  1
Model
 70
     1
 71
     0
 10
0.0
 20
0.0
 11
12.0
 21
9.0
 12
0.0
 22
0.0
 32
0.0
 14
0.0
 24
0.0
 34
0.0
 15
0.0
 25
0.0
 35
0.0
146
0.0
 13
0.0
 23
0.0
 33
0.0
 16
1.0
 26
0.0
 36
0.0
 17
0.0
 27
1.0
 37
0.0
 76
     0
330
1E
  0
MLINESTYLE
  5
17
102
{ACAD_REACTORS
330
16
102
}
330
16
100
AcDbMlineStyle
  2
STANDARD
 70
     0
  3

 62
   256
 51
90.0
 52
90.0
 71
     2
 49
0.5
 62
   256
  6
BYLAYER
 49
-0.5
 62
   256
  6
BYLAYER
  0
ACDBPLACEHOLDER
  5
F
102
{ACAD_REACTORS
330
E
102
}
330
E
  0
DICTIONARYVAR
  5
332
102
{ACAD_REACTORS
330
331
102
}
330
331
100
DictionaryVariables
280
     0
  1
1
  0
ENDSEC
  0
EOF
